ISO-10303-21;
HEADER;
FILE_DESCRIPTION (( 'STEP AP203' ),
    '1' );
FILE_NAME ('968605.step',
    '2021-11-29T14:49:41',
    ( '' ),
    ( '' ),
    'SwSTEP 2.0',
    'SolidWorks 2019',
    '' );
FILE_SCHEMA (( 'CONFIG_CONTROL_DESIGN' ));
ENDSEC;

DATA;
#1 = DIRECTION ( 'NONE',  ( -3.491481338843133355E-15, 1.224646799147352961E-16, -1.000000000000000000 ) ) ;
#2 = DIRECTION ( 'NONE',  ( 4.275831445896958607E-31, 1.000000000000000000, 1.224646799147352961E-16 ) ) ;
#3 = AXIS2_PLACEMENT_3D ( 'NONE', #118, #187, #140 ) ;
#4 = DIRECTION ( 'NONE',  ( 3.139250113100632002E-31, 1.000000000000000000, 8.836203524739246067E-17 ) ) ;
#5 = CIRCLE ( 'NONE', #255, 0.4949999999999992184 ) ;
#6 = SECURITY_CLASSIFICATION ( '', '', #86 ) ;
#7 = DIRECTION ( 'NONE',  ( 4.275831445896956855E-31, 1.000000000000000000, 1.224646799147352961E-16 ) ) ;
#8 = DIRECTION ( 'NONE',  ( 3.491481338843133355E-15, -1.224646799147352961E-16, 1.000000000000000000 ) ) ;
#9 = DATE_AND_TIME ( #134, #177 ) ;
#10 = CC_DESIGN_PERSON_AND_ORGANIZATION_ASSIGNMENT ( #218, #109, ( #149 ) ) ;
#11 = ORIENTED_EDGE ( 'NONE', *, *, #31, .F. ) ;
#12 = APPROVAL_ROLE ( '' ) ;
#13 = ORIENTED_EDGE ( 'NONE', *, *, #288, .T. ) ;
#14 = PRODUCT_DEFINITION_SHAPE ( 'NONE', 'NONE',  #205 ) ;
#15 = COORDINATED_UNIVERSAL_TIME_OFFSET ( 1, 0, .AHEAD. ) ;
#16 = ORIENTED_EDGE ( 'NONE', *, *, #288, .F. ) ;
#17 = ORIENTED_EDGE ( 'NONE', *, *, #70, .T. ) ;
#18 = ADVANCED_FACE ( 'NONE', ( #157 ), #247, .F. ) ;
#19 = FACE_OUTER_BOUND ( 'NONE', #83, .T. ) ;
#20 = CARTESIAN_POINT ( 'NONE',  ( -2.952427396174852043E-31, 1.035572128143897085E-32, -8.456088146107945824E-17 ) ) ;
#21 = DIRECTION ( 'NONE',  ( 0.0000000000000000000, 1.000000000000000000, 0.0000000000000000000 ) ) ;
#22 = FACE_OUTER_BOUND ( 'NONE', #132, .T. ) ;
#23 = PLANE ( 'NONE',  #226 ) ;
#24 = CIRCLE ( 'NONE', #73, 0.6135000000000001563 ) ;
#25 = VERTEX_POINT ( 'NONE', #148 ) ;
#26 = CARTESIAN_POINT ( 'NONE',  ( 6.590036799080176703E-14, -2.311473752550793751E-15, 18.87461555576785344 ) ) ;
#27 = FACE_OUTER_BOUND ( 'NONE', #87, .T. ) ;
#28 = CC_DESIGN_DATE_AND_TIME_ASSIGNMENT ( #32, #77, ( #205 ) ) ;
#29 = VERTEX_POINT ( 'NONE', #30 ) ;
#30 = CARTESIAN_POINT ( 'NONE',  ( 8.728703347107833388E-16, 0.6134999999999993792, 0.2500000000000000000 ) ) ;
#31 = EDGE_CURVE ( 'NONE', #76, #76, #67, .T. ) ;
#32 = DATE_AND_TIME ( #103, #57 ) ;
#33 = PERSON_AND_ORGANIZATION ( #208, #291 ) ;
#34 = AXIS2_PLACEMENT_3D ( 'NONE', #53, #287, #7 ) ;
#35 = EDGE_LOOP ( 'NONE', ( #176 ) ) ;
#36 = EDGE_LOOP ( 'NONE', ( #13 ) ) ;
#37 = EDGE_CURVE ( 'NONE', #74, #74, #24, .T. ) ;
#38 = DIRECTION ( 'NONE',  ( -4.275831445896957731E-31, -1.000000000000000000, -1.224646799147352961E-16 ) ) ;
#39 = DIRECTION ( 'NONE',  ( 4.275831445896957731E-31, 1.000000000000000000, 1.224646799147352961E-16 ) ) ;
#40 = CC_DESIGN_PERSON_AND_ORGANIZATION_ASSIGNMENT ( #241, #156, ( #85 ) ) ;
#41 = DIRECTION ( 'NONE',  ( -3.491481338843133355E-15, 1.224646799147352961E-16, -1.000000000000000000 ) ) ;
#42 = DIRECTION ( 'NONE',  ( 4.275831445896956855E-31, 1.000000000000000000, 1.224646799147352961E-16 ) ) ;
#43 = CONICAL_SURFACE ( 'NONE', #120, 1.200000000000003286, 0.7853981633974453924 ) ;
#44 = CIRCLE ( 'NONE', #100, 0.6134999999999993792 ) ;
#45 = FACE_OUTER_BOUND ( 'NONE', #35, .T. ) ;
#46 = DIRECTION ( 'NONE',  ( 3.491481338843133355E-15, -1.224646799147352961E-16, 1.000000000000000000 ) ) ;
#47 = ADVANCED_FACE ( 'NONE', ( #161, #114 ), #244, .F. ) ;
#48 = CYLINDRICAL_SURFACE ( 'NONE', #34, 0.6134999999999997122 ) ;
#49 = AXIS2_PLACEMENT_3D ( 'NONE', #26, #8, #75 ) ;
#50 = MANIFOLD_SOLID_BREP ( 'Corps-Déplacer/Copier1[1]', #201 ) ;
#51 = ADVANCED_FACE ( 'NONE', ( #228, #206 ), #236, .T. ) ;
#52 = DIRECTION ( 'NONE',  ( -3.491481338843133355E-15, 1.224646799147352961E-16, -1.000000000000000000 ) ) ;
#53 = CARTESIAN_POINT ( 'NONE',  ( 0.0000000000000000000, 0.0000000000000000000, 0.0000000000000000000 ) ) ;
#54 = DATE_AND_TIME ( #198, #278 ) ;
#55 = EDGE_LOOP ( 'NONE', ( #243 ) ) ;
#56 = COORDINATED_UNIVERSAL_TIME_OFFSET ( 1, 0, .AHEAD. ) ;
#57 = LOCAL_TIME ( 15, 49, 41.00000000000000000, #15 ) ;
#58 = CC_DESIGN_PERSON_AND_ORGANIZATION_ASSIGNMENT ( #242, #200, ( #205 ) ) ;
#59 = EDGE_LOOP ( 'NONE', ( #16 ) ) ;
#60 = EDGE_LOOP ( 'NONE', ( #203 ) ) ;
#61 = CIRCLE ( 'NONE', #95, 0.4691624327025950558 ) ;
#62 = FACE_OUTER_BOUND ( 'NONE', #80, .T. ) ;
#63 = ADVANCED_FACE ( 'NONE', ( #19 ), #23, .F. ) ;
#64 = DIRECTION ( 'NONE',  ( -4.275831445896957731E-31, -1.000000000000000000, -1.224646799147352961E-16 ) ) ;
#65 = FACE_OUTER_BOUND ( 'NONE', #88, .T. ) ;
#66 = DIRECTION ( 'NONE',  ( -3.491481338843133355E-15, 1.224646799147352961E-16, -1.000000000000000000 ) ) ;
#67 = CIRCLE ( 'NONE', #129, 0.6135000000000001563 ) ;
#68 = APPROVAL_PERSON_ORGANIZATION ( #293, #84, #12 ) ;
#69 = DIRECTION ( 'NONE',  ( -3.491481338843133355E-15, 1.224646799147352961E-16, -1.000000000000000000 ) ) ;
#70 = EDGE_CURVE ( 'NONE', #237, #237, #61, .T. ) ;
#71 = CARTESIAN_POINT ( 'NONE',  ( 4.660183614865709749E-14, 0.5253844939755809573, 13.34729635533384773 ) ) ;
#72 = APPLICATION_PROTOCOL_DEFINITION ( 'international standard', 'config_control_design', 1994, #185 ) ;
#73 = AXIS2_PLACEMENT_3D ( 'NONE', #253, #186, #277 ) ;
#74 = VERTEX_POINT ( 'NONE', #101 ) ;
#75 = DIRECTION ( 'NONE',  ( 0.0000000000000000000, -1.000000000000000000, 0.0000000000000000000 ) ) ;
#76 = VERTEX_POINT ( 'NONE', #261 ) ;
#77 = DATE_TIME_ROLE ( 'creation_date' ) ;
#78 = ORIENTED_EDGE ( 'NONE', *, *, #31, .T. ) ;
#79 = APPROVAL_STATUS ( 'not_yet_approved' ) ;
#80 = EDGE_LOOP ( 'NONE', ( #11 ) ) ;
#81 = ADVANCED_BREP_SHAPE_REPRESENTATION ( '968605', ( #50, #154, #283 ), #191 ) ;
#82 = DIRECTION ( 'NONE',  ( 1.000000000000000000, 0.0000000000000000000, 0.0000000000000000000 ) ) ;
#83 = EDGE_LOOP ( 'NONE', ( #78 ) ) ;
#84 = APPROVAL ( #104, 'UNSPECIFIED' ) ;
#85 = PRODUCT_DEFINITION_FORMATION_WITH_SPECIFIED_SOURCE ( 'ANY', '', #149, .NOT_KNOWN. ) ;
#86 = SECURITY_CLASSIFICATION_LEVEL ( 'unclassified' ) ;
#87 = EDGE_LOOP ( 'NONE', ( #197 ) ) ;
#88 = EDGE_LOOP ( 'NONE', ( #223 ) ) ;
#89 = CARTESIAN_POINT ( 'NONE',  ( 8.728703347107831416E-16, -3.061616997868381785E-17, 0.2499999999999999445 ) ) ;
#90 = PLANE ( 'NONE',  #282 ) ;
#91 = CIRCLE ( 'NONE', #112, 1.200000000000003286 ) ;
#92 = FACE_OUTER_BOUND ( 'NONE', #151, .T. ) ;
#93 = DIRECTION ( 'NONE',  ( 0.0000000000000000000, 1.000000000000000000, 0.0000000000000000000 ) ) ;
#94 = CYLINDRICAL_SURFACE ( 'NONE', #301, 1.500000000000000444 ) ;
#95 = AXIS2_PLACEMENT_3D ( 'NONE', #20, #229, #2 ) ;
#96 = APPROVAL_PERSON_ORGANIZATION ( #171, #210, #126 ) ;
#97 = VERTEX_POINT ( 'NONE', #102 ) ;
#98 = CARTESIAN_POINT ( 'NONE',  ( 1.326762908760390423E-13, -4.653657836759941152E-15, 38.00000000000000000 ) ) ;
#99 = CONICAL_SURFACE ( 'NONE', #273, 0.4949999999999992184, 0.5235987755982929315 ) ;
#100 = AXIS2_PLACEMENT_3D ( 'NONE', #166, #52, #4 ) ;
#101 = CARTESIAN_POINT ( 'NONE',  ( 2.094888803305880013E-14, 0.6134999999999993792, 6.000000000000000000 ) ) ;
#102 = CARTESIAN_POINT ( 'NONE',  ( 1.326762908760390423E-13, 1.199999999999998845, 38.00000000000000000 ) ) ;
#103 = CALENDAR_DATE ( 2021, 29, 11 ) ;
#104 = APPROVAL_STATUS ( 'not_yet_approved' ) ;
#105 = EDGE_LOOP ( 'NONE', ( #199 ) ) ;
#106 = APPROVAL_DATE_TIME ( #9, #167 ) ;
#107 = EDGE_LOOP ( 'NONE', ( #294 ) ) ;
#108 = ADVANCED_FACE ( 'NONE', ( #62, #279 ), #99, .T. ) ;
#109 = PERSON_AND_ORGANIZATION_ROLE ( 'design_owner' ) ;
#110 = ORIENTED_EDGE ( 'NONE', *, *, #271, .F. ) ;
#111 = AXIS2_PLACEMENT_3D ( 'NONE', #89, #251, #280 ) ;
#112 = AXIS2_PLACEMENT_3D ( 'NONE', #98, #213, #194 ) ;
#113 = DIRECTION ( 'NONE',  ( -3.491481338843133355E-15, 1.224646799147352961E-16, -1.000000000000000000 ) ) ;
#114 = FACE_OUTER_BOUND ( 'NONE', #36, .T. ) ;
#115 = CARTESIAN_POINT ( 'NONE',  ( 1.316288464743861212E-13, -4.616918432785520292E-15, 37.69999999999999574 ) ) ;
#116 = CC_DESIGN_DATE_AND_TIME_ASSIGNMENT ( #290, #245, ( #6 ) ) ;
#117 = FACE_OUTER_BOUND ( 'NONE', #133, .T. ) ;
#118 = CARTESIAN_POINT ( 'NONE',  ( 6.590036799080176703E-14, -2.311473752550793751E-15, 18.87461555576785344 ) ) ;
#119 = CLOSED_SHELL ( 'NONE', ( #18, #51, #259, #121 ) ) ;
#120 = AXIS2_PLACEMENT_3D ( 'NONE', #234, #263, #190 ) ;
#121 = ADVANCED_FACE ( 'NONE', ( #45 ), #181, .T. ) ;
#122 = CARTESIAN_POINT ( 'NONE',  ( 4.538925740496072731E-14, 0.4949999999999984968, 12.99999999999999822 ) ) ;
#123 =( NAMED_UNIT ( * ) SI_UNIT ( $, .STERADIAN. ) SOLID_ANGLE_UNIT ( ) );
#124 = CC_DESIGN_SECURITY_CLASSIFICATION ( #6, ( #85 ) ) ;
#125 = CARTESIAN_POINT ( 'NONE',  ( 4.660183614865709749E-14, -1.634572375883072611E-15, 13.34729635533384773 ) ) ;
#126 = APPROVAL_ROLE ( '' ) ;
#127 = APPROVAL_STATUS ( 'not_yet_approved' ) ;
#128 = EDGE_LOOP ( 'NONE', ( #17 ) ) ;
#129 = AXIS2_PLACEMENT_3D ( 'NONE', #138, #232, #204 ) ;
#130 = AXIS2_PLACEMENT_3D ( 'NONE', #115, #1, #93 ) ;
#131 = APPROVAL_ROLE ( '' ) ;
#132 = EDGE_LOOP ( 'NONE', ( #174 ) ) ;
#133 = EDGE_LOOP ( 'NONE', ( #219 ) ) ;
#134 = CALENDAR_DATE ( 2021, 29, 11 ) ;
#135 = CARTESIAN_POINT ( 'NONE',  ( -1.476213698087426021E-31, 5.177860640719485423E-33, -4.228044073053972912E-17 ) ) ;
#136 = AXIS2_PLACEMENT_3D ( 'NONE', #162, #41, #164 ) ;
#137 = CC_DESIGN_APPROVAL ( #210, ( #6 ) ) ;
#138 = CARTESIAN_POINT ( 'NONE',  ( 2.094888803305880013E-14, -7.347880794884118750E-16, 6.000000000000000000 ) ) ;
#139 = DIRECTION ( 'NONE',  ( 4.275831445896957731E-31, 1.000000000000000000, 1.224646799147352961E-16 ) ) ;
#140 = DIRECTION ( 'NONE',  ( 0.0000000000000000000, 1.000000000000000000, 0.0000000000000000000 ) ) ;
#141 = CIRCLE ( 'NONE', #3, 1.499999999999997780 ) ;
#142 = CARTESIAN_POINT ( 'NONE',  ( 2.166550766715657307E-14, -7.599237126461926424E-16, 6.205248020696916278 ) ) ;
#143 = ADVANCED_FACE ( 'NONE', ( #300 ), #90, .F. ) ;
#144 = CYLINDRICAL_SURFACE ( 'NONE', #227, 0.4949999999999996625 ) ;
#145 = DIRECTION ( 'NONE',  ( 4.275831445896957731E-31, 1.000000000000000000, 1.224646799147353207E-16 ) ) ;
#146 = DIRECTION ( 'NONE',  ( 0.0000000000000000000, 1.000000000000000000, 0.0000000000000000000 ) ) ;
#147 = CARTESIAN_POINT ( 'NONE',  ( 6.590036799080176703E-14, 1.499999999999995559, 18.87461555576785344 ) ) ;
#148 = CARTESIAN_POINT ( 'NONE',  ( 1.316288464743861212E-13, 1.499999999999998668, 37.69999999999999574 ) ) ;
#149 = PRODUCT ( '968605', '968605', '', ( #202 ) ) ;
#150 = SHAPE_DEFINITION_REPRESENTATION ( #14, #81 ) ;
#151 = EDGE_LOOP ( 'NONE', ( #275 ) ) ;
#152 = CC_DESIGN_PERSON_AND_ORGANIZATION_ASSIGNMENT ( #269, #175, ( #85 ) ) ;
#153 = DATE_AND_TIME ( #292, #250 ) ;
#154 = MANIFOLD_SOLID_BREP ( 'Corps-Déplacer/Copier1[2]', #119 ) ;
#155 = CIRCLE ( 'NONE', #136, 0.4950000000000001066 ) ;
#156 = PERSON_AND_ORGANIZATION_ROLE ( 'design_supplier' ) ;
#157 = FACE_OUTER_BOUND ( 'NONE', #128, .T. ) ;
#158 = DIRECTION ( 'NONE',  ( 3.491481338843133355E-15, -1.224646799147352961E-16, 1.000000000000000000 ) ) ;
#159 = EDGE_CURVE ( 'NONE', #262, #262, #155, .T. ) ;
#160 = AXIS2_PLACEMENT_3D ( 'NONE', #125, #168, #146 ) ;
#161 = FACE_OUTER_BOUND ( 'NONE', #105, .T. ) ;
#162 = CARTESIAN_POINT ( 'NONE',  ( 4.538925740496072731E-14, -1.592040838891558504E-15, 12.99999999999999822 ) ) ;
#163 = CARTESIAN_POINT ( 'NONE',  ( 0.0000000000000000000, 0.0000000000000000000, 0.0000000000000000000 ) ) ;
#164 = DIRECTION ( 'NONE',  ( 0.0000000000000000000, 1.000000000000000000, 0.0000000000000000000 ) ) ;
#165 = VERTEX_POINT ( 'NONE', #147 ) ;
#166 = CARTESIAN_POINT ( 'NONE',  ( 8.728703347107831416E-16, -3.061616997868381785E-17, 0.2499999999999999445 ) ) ;
#167 = APPROVAL ( #79, 'UNSPECIFIED' ) ;
#168 = DIRECTION ( 'NONE',  ( -3.491481338843133355E-15, 1.224646799147352961E-16, -1.000000000000000000 ) ) ;
#169 =( LENGTH_UNIT ( ) NAMED_UNIT ( * ) SI_UNIT ( .MILLI., .METRE. ) );
#170 = CC_DESIGN_APPROVAL ( #84, ( #205 ) ) ;
#171 = PERSON_AND_ORGANIZATION ( #208, #291 ) ;
#172 = EDGE_CURVE ( 'NONE', #165, #165, #141, .T. ) ;
#173 = APPLICATION_PROTOCOL_DEFINITION ( 'international standard', 'config_control_design', 1994, #270 ) ;
#174 = ORIENTED_EDGE ( 'NONE', *, *, #172, .F. ) ;
#175 = PERSON_AND_ORGANIZATION_ROLE ( 'creator' ) ;
#176 = ORIENTED_EDGE ( 'NONE', *, *, #37, .F. ) ;
#177 = LOCAL_TIME ( 15, 49, 41.00000000000000000, #220 ) ;
#178 = PERSON_AND_ORGANIZATION_ROLE ( 'classification_officer' ) ;
#179 = EDGE_LOOP ( 'NONE', ( #221 ) ) ;
#180 = ORIENTED_EDGE ( 'NONE', *, *, #37, .T. ) ;
#181 = PLANE ( 'NONE',  #264 ) ;
#182 = CARTESIAN_POINT ( 'NONE',  ( 1.326762908760390423E-13, 8.998558695971099120E-33, 38.00000000000000000 ) ) ;
#183 = ADVANCED_FACE ( 'NONE', ( #92, #65 ), #144, .T. ) ;
#184 = DIRECTION ( 'NONE',  ( -4.275831445896957731E-31, -1.000000000000000000, -1.224646799147352961E-16 ) ) ;
#185 = APPLICATION_CONTEXT ( 'configuration controlled 3d designs of mechanical parts and assemblies' ) ;
#186 = DIRECTION ( 'NONE',  ( -3.491481338843133355E-15, 1.224646799147352961E-16, -1.000000000000000000 ) ) ;
#187 = DIRECTION ( 'NONE',  ( -3.491481338843133355E-15, 1.224646799147352961E-16, -1.000000000000000000 ) ) ;
#188 = CARTESIAN_POINT ( 'NONE',  ( -9.463679131915806782E-32, 0.4691624327025950558, -2.710505431213761085E-17 ) ) ;
#189 = VERTEX_POINT ( 'NONE', #71 ) ;
#190 = DIRECTION ( 'NONE',  ( 0.0000000000000000000, 1.000000000000000000, 0.0000000000000000000 ) ) ;
#191 =( GEOMETRIC_REPRESENTATION_CONTEXT ( 3 ) GLOBAL_UNCERTAINTY_ASSIGNED_CONTEXT ( ( #216 ) ) GLOBAL_UNIT_ASSIGNED_CONTEXT ( ( #169, #211, #123 ) ) REPRESENTATION_CONTEXT ( 'NONE', 'WORKASPACE' ) );
#192 = EDGE_CURVE ( 'NONE', #286, #286, #5, .T. ) ;
#193 = CARTESIAN_POINT ( 'NONE',  ( 2.166550766715657307E-14, 0.4949999999999984968, 6.205248020696916278 ) ) ;
#194 = DIRECTION ( 'NONE',  ( 0.0000000000000000000, 1.000000000000000000, 0.0000000000000000000 ) ) ;
#195 = DESIGN_CONTEXT ( 'detailed design', #270, 'design' ) ;
#196 = AXIS2_PLACEMENT_3D ( 'NONE', #209, #256, #139 ) ;
#197 = ORIENTED_EDGE ( 'NONE', *, *, #240, .F. ) ;
#198 = CALENDAR_DATE ( 2021, 29, 11 ) ;
#199 = ORIENTED_EDGE ( 'NONE', *, *, #159, .F. ) ;
#200 = PERSON_AND_ORGANIZATION_ROLE ( 'creator' ) ;
#201 = CLOSED_SHELL ( 'NONE', ( #63, #108, #183, #47, #303, #257, #298, #143 ) ) ;
#202 = MECHANICAL_CONTEXT ( 'NONE', #185, 'mechanical' ) ;
#203 = ORIENTED_EDGE ( 'NONE', *, *, #266, .F. ) ;
#204 = DIRECTION ( 'NONE',  ( 0.0000000000000000000, 1.000000000000000000, 0.0000000000000000000 ) ) ;
#205 = PRODUCT_DEFINITION ( 'UNKNOWN', '', #85, #195 ) ;
#206 = FACE_OUTER_BOUND ( 'NONE', #296, .T. ) ;
#207 = DIRECTION ( 'NONE',  ( 3.491481338843133355E-15, -1.224646799147352961E-16, 1.000000000000000000 ) ) ;
#208 = PERSON ( 'UNSPECIFIED', 'UNSPECIFIED', 'UNSPECIFIED', ('UNSPECIFIED'), ('UNSPECIFIED'), ('UNSPECIFIED') ) ;
#209 = CARTESIAN_POINT ( 'NONE',  ( 4.538925740496073362E-14, -1.734723475976807094E-15, 13.00000000000000000 ) ) ;
#210 = APPROVAL ( #127, 'UNSPECIFIED' ) ;
#211 =( NAMED_UNIT ( * ) PLANE_ANGLE_UNIT ( ) SI_UNIT ( $, .RADIAN. ) );
#212 = DIRECTION ( 'NONE',  ( 0.0000000000000000000, 0.0000000000000000000, 1.000000000000000000 ) ) ;
#213 = DIRECTION ( 'NONE',  ( -3.491481338843133355E-15, 1.224646799147352961E-16, -1.000000000000000000 ) ) ;
#214 = CONICAL_SURFACE ( 'NONE', #49, 1.499999999999997780, 0.1745329251994260089 ) ;
#215 = LOCAL_TIME ( 15, 49, 41.00000000000000000, #222 ) ;
#216 = UNCERTAINTY_MEASURE_WITH_UNIT (LENGTH_MEASURE( 1.000000000000000082E-05 ), #169, 'distance_accuracy_value', 'NONE');
#217 = FACE_BOUND ( 'NONE', #179, .T. ) ;
#218 = PERSON_AND_ORGANIZATION ( #208, #291 ) ;
#219 = ORIENTED_EDGE ( 'NONE', *, *, #240, .T. ) ;
#220 = COORDINATED_UNIVERSAL_TIME_OFFSET ( 1, 0, .AHEAD. ) ;
#221 = ORIENTED_EDGE ( 'NONE', *, *, #271, .T. ) ;
#222 = COORDINATED_UNIVERSAL_TIME_OFFSET ( 1, 0, .AHEAD. ) ;
#223 = ORIENTED_EDGE ( 'NONE', *, *, #159, .T. ) ;
#224 = CC_DESIGN_PERSON_AND_ORGANIZATION_ASSIGNMENT ( #267, #178, ( #6 ) ) ;
#225 = APPROVAL_DATE_TIME ( #153, #84 ) ;
#226 = AXIS2_PLACEMENT_3D ( 'NONE', #254, #207, #64 ) ;
#227 = AXIS2_PLACEMENT_3D ( 'NONE', #163, #233, #42 ) ;
#228 = FACE_BOUND ( 'NONE', #107, .T. ) ;
#229 = DIRECTION ( 'NONE',  ( -3.491481338843133355E-15, 1.224646799147352961E-16, -1.000000000000000000 ) ) ;
#230 = APPROVAL_PERSON_ORGANIZATION ( #33, #167, #131 ) ;
#231 = DIRECTION ( 'NONE',  ( -3.491481338843133355E-15, 1.224646799147352961E-16, -1.000000000000000000 ) ) ;
#232 = DIRECTION ( 'NONE',  ( -3.491481338843133355E-15, 1.224646799147352961E-16, -1.000000000000000000 ) ) ;
#233 = DIRECTION ( 'NONE',  ( -3.491481338843133355E-15, 1.224646799147352961E-16, -1.000000000000000000 ) ) ;
#234 = CARTESIAN_POINT ( 'NONE',  ( 1.326762908760390423E-13, -4.653657836759941152E-15, 38.00000000000000000 ) ) ;
#235 = CARTESIAN_POINT ( 'NONE',  ( 0.0000000000000000000, 0.0000000000000000000, 0.0000000000000000000 ) ) ;
#236 = CONICAL_SURFACE ( 'NONE', #111, 0.6134999999999993792, 0.5235987755982922653 ) ;
#237 = VERTEX_POINT ( 'NONE', #188 ) ;
#238 = CIRCLE ( 'NONE', #130, 1.500000000000003331 ) ;
#239 = FACE_OUTER_BOUND ( 'NONE', #55, .T. ) ;
#240 = EDGE_CURVE ( 'NONE', #25, #25, #238, .T. ) ;
#241 = PERSON_AND_ORGANIZATION ( #208, #291 ) ;
#242 = PERSON_AND_ORGANIZATION ( #208, #291 ) ;
#243 = ORIENTED_EDGE ( 'NONE', *, *, #172, .T. ) ;
#244 = TOROIDAL_SURFACE ( 'NONE', #196, 2.495000000000000107, 1.999999999999999556 ) ;
#245 = DATE_TIME_ROLE ( 'classification_date' ) ;
#246 = ORIENTED_EDGE ( 'NONE', *, *, #192, .T. ) ;
#247 = PLANE ( 'NONE',  #249 ) ;
#248 = EDGE_LOOP ( 'NONE', ( #110 ) ) ;
#249 = AXIS2_PLACEMENT_3D ( 'NONE', #135, #158, #38 ) ;
#250 = LOCAL_TIME ( 15, 49, 41.00000000000000000, #56 ) ;
#251 = DIRECTION ( 'NONE',  ( 3.491481338843133355E-15, -1.224646799147352961E-16, 1.000000000000000000 ) ) ;
#252 = PRODUCT_RELATED_PRODUCT_CATEGORY ( 'detail', '', ( #149 ) ) ;
#253 = CARTESIAN_POINT ( 'NONE',  ( 2.094888803305880013E-14, -7.347880794884118750E-16, 6.000000000000000000 ) ) ;
#254 = CARTESIAN_POINT ( 'NONE',  ( 2.094888803305880013E-14, 4.600513133315236088E-33, 6.000000000000000000 ) ) ;
#255 = AXIS2_PLACEMENT_3D ( 'NONE', #142, #231, #21 ) ;
#256 = DIRECTION ( 'NONE',  ( -3.491481338843133355E-15, 1.224646799147352961E-16, -1.000000000000000000 ) ) ;
#257 = ADVANCED_FACE ( 'NONE', ( #22, #117 ), #94, .T. ) ;
#258 = CARTESIAN_POINT ( 'NONE',  ( 2.166550766715657307E-14, -7.599237126461926424E-16, 6.205248020696916278 ) ) ;
#259 = ADVANCED_FACE ( 'NONE', ( #299, #289 ), #48, .T. ) ;
#260 = CIRCLE ( 'NONE', #160, 0.5253844939755826227 ) ;
#261 = CARTESIAN_POINT ( 'NONE',  ( 2.094888803305880013E-14, 0.6134999999999993792, 6.000000000000000000 ) ) ;
#262 = VERTEX_POINT ( 'NONE', #122 ) ;
#263 = DIRECTION ( 'NONE',  ( -3.491481338843133355E-15, 1.224646799147352961E-16, -1.000000000000000000 ) ) ;
#264 = AXIS2_PLACEMENT_3D ( 'NONE', #302, #46, #184 ) ;
#265 = CC_DESIGN_APPROVAL ( #167, ( #85 ) ) ;
#266 = EDGE_CURVE ( 'NONE', #29, #29, #44, .T. ) ;
#267 = PERSON_AND_ORGANIZATION ( #208, #291 ) ;
#268 = EDGE_LOOP ( 'NONE', ( #180 ) ) ;
#269 = PERSON_AND_ORGANIZATION ( #208, #291 ) ;
#270 = APPLICATION_CONTEXT ( 'configuration controlled 3d designs of mechanical parts and assemblies' ) ;
#271 = EDGE_CURVE ( 'NONE', #97, #97, #91, .T. ) ;
#272 = COORDINATED_UNIVERSAL_TIME_OFFSET ( 1, 0, .AHEAD. ) ;
#273 = AXIS2_PLACEMENT_3D ( 'NONE', #258, #113, #281 ) ;
#274 = CALENDAR_DATE ( 2021, 29, 11 ) ;
#275 = ORIENTED_EDGE ( 'NONE', *, *, #192, .F. ) ;
#276 = ORIENTED_EDGE ( 'NONE', *, *, #266, .T. ) ;
#277 = DIRECTION ( 'NONE',  ( 0.0000000000000000000, 1.000000000000000000, 0.0000000000000000000 ) ) ;
#278 = LOCAL_TIME ( 15, 49, 41.00000000000000000, #272 ) ;
#279 = FACE_BOUND ( 'NONE', #297, .T. ) ;
#280 = DIRECTION ( 'NONE',  ( -3.139250113100632002E-31, -1.000000000000000000, -8.836203524739246067E-17 ) ) ;
#281 = DIRECTION ( 'NONE',  ( 0.0000000000000000000, 1.000000000000000000, 0.0000000000000000000 ) ) ;
#282 = AXIS2_PLACEMENT_3D ( 'NONE', #182, #66, #39 ) ;
#283 = AXIS2_PLACEMENT_3D ( 'NONE', #235, #212, #82 ) ;
#284 = CARTESIAN_POINT ( 'NONE',  ( 0.0000000000000000000, 0.0000000000000000000, 0.0000000000000000000 ) ) ;
#285 = FACE_BOUND ( 'NONE', #59, .T. ) ;
#286 = VERTEX_POINT ( 'NONE', #193 ) ;
#287 = DIRECTION ( 'NONE',  ( -3.491481338843133355E-15, 1.224646799147352961E-16, -1.000000000000000000 ) ) ;
#288 = EDGE_CURVE ( 'NONE', #189, #189, #260, .T. ) ;
#289 = FACE_OUTER_BOUND ( 'NONE', #268, .T. ) ;
#290 = DATE_AND_TIME ( #274, #215 ) ;
#291 = ORGANIZATION ( 'UNSPECIFIED', 'UNSPECIFIED', '' ) ;
#292 = CALENDAR_DATE ( 2021, 29, 11 ) ;
#293 = PERSON_AND_ORGANIZATION ( #208, #291 ) ;
#294 = ORIENTED_EDGE ( 'NONE', *, *, #70, .F. ) ;
#295 = APPROVAL_DATE_TIME ( #54, #210 ) ;
#296 = EDGE_LOOP ( 'NONE', ( #276 ) ) ;
#297 = EDGE_LOOP ( 'NONE', ( #246 ) ) ;
#298 = ADVANCED_FACE ( 'NONE', ( #27, #217 ), #43, .T. ) ;
#299 = FACE_OUTER_BOUND ( 'NONE', #60, .T. ) ;
#300 = FACE_OUTER_BOUND ( 'NONE', #248, .T. ) ;
#301 = AXIS2_PLACEMENT_3D ( 'NONE', #284, #69, #145 ) ;
#302 = CARTESIAN_POINT ( 'NONE',  ( 2.094888803305880013E-14, 4.600513133315236088E-33, 6.000000000000000000 ) ) ;
#303 = ADVANCED_FACE ( 'NONE', ( #285, #239 ), #214, .T. ) ;
ENDSEC;
END-ISO-10303-21;
