ISO-10303-21;
HEADER;
FILE_DESCRIPTION (( 'STEP AP203' ),
    '1' );
FILE_NAME ('968504.step',
    '2021-11-29T14:49:40',
    ( '' ),
    ( '' ),
    'SwSTEP 2.0',
    'SolidWorks 2019',
    '' );
FILE_SCHEMA (( 'CONFIG_CONTROL_DESIGN' ));
ENDSEC;

DATA;
#1 = ADVANCED_FACE ( 'NONE', ( #4, #67 ), #169, .T. ) ;
#2 = AXIS2_PLACEMENT_3D ( 'NONE', #3, #195, #283 ) ;
#3 = CARTESIAN_POINT ( 'NONE',  ( 1.745740669421566678E-14, -6.123233995736765296E-16, 5.000000000000000000 ) ) ;
#4 = FACE_OUTER_BOUND ( 'NONE', #235, .T. ) ;
#5 = EDGE_CURVE ( 'NONE', #51, #51, #179, .T. ) ;
#6 = CLOSED_SHELL ( 'NONE', ( #38, #270, #86, #193, #223, #1, #301, #139 ) ) ;
#7 = PLANE ( 'NONE',  #261 ) ;
#8 = ORIENTED_EDGE ( 'NONE', *, *, #49, .F. ) ;
#9 = DIRECTION ( 'NONE',  ( 4.275831445896957731E-31, 1.000000000000000000, 1.224646799147352961E-16 ) ) ;
#10 = PERSON_AND_ORGANIZATION_ROLE ( 'design_owner' ) ;
#11 = CC_DESIGN_APPROVAL ( #71, ( #246 ) ) ;
#12 = CARTESIAN_POINT ( 'NONE',  ( 1.745740669421566678E-14, 0.5734999999999993436, 5.000000000000000000 ) ) ;
#13 = DIRECTION ( 'NONE',  ( -4.275831445896957731E-31, -1.000000000000000000, -1.224646799147352961E-16 ) ) ;
#14 = CARTESIAN_POINT ( 'NONE',  ( 1.802284075149956450E-14, -6.321561565378326676E-16, 5.161946750507693693 ) ) ;
#15 = APPLICATION_PROTOCOL_DEFINITION ( 'international standard', 'config_control_design', 1994, #62 ) ;
#16 = AXIS2_PLACEMENT_3D ( 'NONE', #128, #175, #53 ) ;
#17 = CIRCLE ( 'NONE', #253, 0.5103844939755813881 ) ;
#18 = APPROVAL_DATE_TIME ( #239, #202 ) ;
#19 = DIRECTION ( 'NONE',  ( 0.0000000000000000000, -1.000000000000000000, 0.0000000000000000000 ) ) ;
#20 = FACE_OUTER_BOUND ( 'NONE', #284, .T. ) ;
#21 = COORDINATED_UNIVERSAL_TIME_OFFSET ( 1, 0, .AHEAD. ) ;
#22 = APPROVAL_PERSON_ORGANIZATION ( #218, #202, #242 ) ;
#23 = ORIENTED_EDGE ( 'NONE', *, *, #220, .T. ) ;
#24 = TOROIDAL_SURFACE ( 'NONE', #41, 2.479999999999999982, 2.000000000000000000 ) ;
#25 = APPROVAL_PERSON_ORGANIZATION ( #203, #157, #302 ) ;
#26 = ORIENTED_EDGE ( 'NONE', *, *, #220, .F. ) ;
#27 = DIRECTION ( 'NONE',  ( 0.0000000000000000000, 1.000000000000000000, 0.0000000000000000000 ) ) ;
#28 = EDGE_LOOP ( 'NONE', ( #55 ) ) ;
#29 = ORIENTED_EDGE ( 'NONE', *, *, #187, .T. ) ;
#30 =( GEOMETRIC_REPRESENTATION_CONTEXT ( 3 ) GLOBAL_UNCERTAINTY_ASSIGNED_CONTEXT ( ( #104 ) ) GLOBAL_UNIT_ASSIGNED_CONTEXT ( ( #269, #118, #89 ) ) REPRESENTATION_CONTEXT ( 'NONE', 'WORKASPACE' ) );
#31 = VERTEX_POINT ( 'NONE', #12 ) ;
#32 = EDGE_LOOP ( 'NONE', ( #297 ) ) ;
#33 = CARTESIAN_POINT ( 'NONE',  ( 1.316288464743861212E-13, -4.616918432785520292E-15, 37.69999999999999574 ) ) ;
#34 = AXIS2_PLACEMENT_3D ( 'NONE', #266, #83, #47 ) ;
#35 = CIRCLE ( 'NONE', #138, 1.200000000000003286 ) ;
#36 = PRODUCT ( '968504', '968504', '', ( #54 ) ) ;
#37 = DIRECTION ( 'NONE',  ( -3.491481338843133355E-15, 1.224646799147352961E-16, -1.000000000000000000 ) ) ;
#38 = ADVANCED_FACE ( 'NONE', ( #110 ), #7, .F. ) ;
#39 = CARTESIAN_POINT ( 'NONE',  ( 1.326762908760390423E-13, 8.998558695971099120E-33, 38.00000000000000000 ) ) ;
#40 = SECURITY_CLASSIFICATION_LEVEL ( 'unclassified' ) ;
#41 = AXIS2_PLACEMENT_3D ( 'NONE', #227, #172, #119 ) ;
#42 = CALENDAR_DATE ( 2021, 29, 11 ) ;
#43 = PRODUCT_DEFINITION ( 'UNKNOWN', '', #246, #194 ) ;
#44 = CARTESIAN_POINT ( 'NONE',  ( 8.728703347107831416E-16, -3.061616997868381785E-17, 0.2499999999999999445 ) ) ;
#45 = LOCAL_TIME ( 15, 49, 40.00000000000000000, #131 ) ;
#46 = EDGE_LOOP ( 'NONE', ( #224 ) ) ;
#47 = DIRECTION ( 'NONE',  ( 4.275831445896957731E-31, 1.000000000000000000, 1.224646799147353207E-16 ) ) ;
#48 = PLANE ( 'NONE',  #295 ) ;
#49 = EDGE_CURVE ( 'NONE', #31, #31, #264, .T. ) ;
#50 = DIRECTION ( 'NONE',  ( 0.0000000000000000000, 1.000000000000000000, 0.0000000000000000000 ) ) ;
#51 = VERTEX_POINT ( 'NONE', #68 ) ;
#52 = EDGE_LOOP ( 'NONE', ( #73 ) ) ;
#53 = DIRECTION ( 'NONE',  ( -4.275831445896957731E-31, -1.000000000000000000, -1.224646799147352961E-16 ) ) ;
#54 = MECHANICAL_CONTEXT ( 'NONE', #62, 'mechanical' ) ;
#55 = ORIENTED_EDGE ( 'NONE', *, *, #241, .T. ) ;
#56 = CC_DESIGN_SECURITY_CLASSIFICATION ( #190, ( #246 ) ) ;
#57 = DIRECTION ( 'NONE',  ( 0.0000000000000000000, 0.0000000000000000000, 1.000000000000000000 ) ) ;
#58 = PERSON_AND_ORGANIZATION_ROLE ( 'creator' ) ;
#59 = DATE_AND_TIME ( #80, #196 ) ;
#60 = AXIS2_PLACEMENT_3D ( 'NONE', #277, #247, #252 ) ;
#61 = COORDINATED_UNIVERSAL_TIME_OFFSET ( 1, 0, .AHEAD. ) ;
#62 = APPLICATION_CONTEXT ( 'configuration controlled 3d designs of mechanical parts and assemblies' ) ;
#63 = CIRCLE ( 'NONE', #245, 1.499999999999997558 ) ;
#64 = LOCAL_TIME ( 15, 49, 40.00000000000000000, #61 ) ;
#65 = EDGE_CURVE ( 'NONE', #94, #94, #105, .T. ) ;
#66 = APPLICATION_CONTEXT ( 'configuration controlled 3d designs of mechanical parts and assemblies' ) ;
#67 = FACE_OUTER_BOUND ( 'NONE', #167, .T. ) ;
#68 = CARTESIAN_POINT ( 'NONE',  ( 1.802284075149956450E-14, 0.4799999999999984834, 5.161946750507693693 ) ) ;
#69 = VERTEX_POINT ( 'NONE', #183 ) ;
#70 = EDGE_LOOP ( 'NONE', ( #263 ) ) ;
#71 = APPROVAL ( #186, 'UNSPECIFIED' ) ;
#72 = DIRECTION ( 'NONE',  ( 1.000000000000000000, 0.0000000000000000000, 0.0000000000000000000 ) ) ;
#73 = ORIENTED_EDGE ( 'NONE', *, *, #65, .F. ) ;
#74 = CALENDAR_DATE ( 2021, 29, 11 ) ;
#75 = CC_DESIGN_DATE_AND_TIME_ASSIGNMENT ( #59, #300, ( #190 ) ) ;
#76 = FACE_OUTER_BOUND ( 'NONE', #46, .T. ) ;
#77 = APPROVAL_DATE_TIME ( #159, #157 ) ;
#78 = CARTESIAN_POINT ( 'NONE',  ( 1.326762908760390423E-13, -4.653657836759941152E-15, 38.00000000000000000 ) ) ;
#79 = DATE_TIME_ROLE ( 'creation_date' ) ;
#80 = CALENDAR_DATE ( 2021, 29, 11 ) ;
#81 = PERSON_AND_ORGANIZATION ( #117, #127 ) ;
#82 = FACE_OUTER_BOUND ( 'NONE', #285, .T. ) ;
#83 = DIRECTION ( 'NONE',  ( -3.491481338843133355E-15, 1.224646799147352961E-16, -1.000000000000000000 ) ) ;
#84 = CARTESIAN_POINT ( 'NONE',  ( -1.863881025765277011E-31, 6.537614584390836543E-33, -5.338367428831382123E-17 ) ) ;
#85 = EDGE_LOOP ( 'NONE', ( #184 ) ) ;
#86 = ADVANCED_FACE ( 'NONE', ( #82, #197 ), #204, .T. ) ;
#87 = CARTESIAN_POINT ( 'NONE',  ( 1.745740669421566678E-14, 0.5734999999999993436, 5.000000000000000000 ) ) ;
#88 = CARTESIAN_POINT ( 'NONE',  ( 4.311035480981395782E-14, 0.5103844939755798338, 12.34729635533384595 ) ) ;
#89 =( NAMED_UNIT ( * ) SI_UNIT ( $, .STERADIAN. ) SOLID_ANGLE_UNIT ( ) );
#90 = ORIENTED_EDGE ( 'NONE', *, *, #290, .T. ) ;
#91 = FACE_BOUND ( 'NONE', #248, .T. ) ;
#92 = FACE_OUTER_BOUND ( 'NONE', #108, .T. ) ;
#93 = FACE_OUTER_BOUND ( 'NONE', #95, .T. ) ;
#94 = VERTEX_POINT ( 'NONE', #289 ) ;
#95 = EDGE_LOOP ( 'NONE', ( #205 ) ) ;
#96 = CYLINDRICAL_SURFACE ( 'NONE', #214, 0.5734999999999996767 ) ;
#97 = DIRECTION ( 'NONE',  ( 4.275831445896957731E-31, 1.000000000000000000, 1.224646799147352961E-16 ) ) ;
#98 = PERSON_AND_ORGANIZATION ( #117, #127 ) ;
#99 = CIRCLE ( 'NONE', #106, 1.500000000000003331 ) ;
#100 = PERSON_AND_ORGANIZATION_ROLE ( 'classification_officer' ) ;
#101 = COORDINATED_UNIVERSAL_TIME_OFFSET ( 1, 0, .AHEAD. ) ;
#102 = CIRCLE ( 'NONE', #158, 0.4800000000000000933 ) ;
#103 = DIRECTION ( 'NONE',  ( -3.491481338843133355E-15, 1.224646799147352961E-16, -1.000000000000000000 ) ) ;
#104 = UNCERTAINTY_MEASURE_WITH_UNIT (LENGTH_MEASURE( 1.000000000000000082E-05 ), #269, 'distance_accuracy_value', 'NONE');
#105 = CIRCLE ( 'NONE', #122, 0.5734999999999993436 ) ;
#106 = AXIS2_PLACEMENT_3D ( 'NONE', #33, #207, #234 ) ;
#107 = ORIENTED_EDGE ( 'NONE', *, *, #187, .F. ) ;
#108 = EDGE_LOOP ( 'NONE', ( #121 ) ) ;
#109 = DIRECTION ( 'NONE',  ( -3.491481338843133355E-15, 1.224646799147352961E-16, -1.000000000000000000 ) ) ;
#110 = FACE_OUTER_BOUND ( 'NONE', #288, .T. ) ;
#111 = ORIENTED_EDGE ( 'NONE', *, *, #243, .T. ) ;
#112 = DIRECTION ( 'NONE',  ( 0.0000000000000000000, 1.000000000000000000, 0.0000000000000000000 ) ) ;
#113 = CC_DESIGN_PERSON_AND_ORGANIZATION_ASSIGNMENT ( #191, #100, ( #190 ) ) ;
#114 = CONICAL_SURFACE ( 'NONE', #60, 1.200000000000003286, 0.7853981633974453924 ) ;
#115 = FACE_OUTER_BOUND ( 'NONE', #52, .T. ) ;
#116 = ADVANCED_FACE ( 'NONE', ( #286 ), #48, .F. ) ;
#117 = PERSON ( 'UNSPECIFIED', 'UNSPECIFIED', 'UNSPECIFIED', ('UNSPECIFIED'), ('UNSPECIFIED'), ('UNSPECIFIED') ) ;
#118 =( NAMED_UNIT ( * ) PLANE_ANGLE_UNIT ( ) SI_UNIT ( $, .RADIAN. ) );
#119 = DIRECTION ( 'NONE',  ( 4.275831445896957731E-31, 1.000000000000000000, 1.224646799147352961E-16 ) ) ;
#120 = DIRECTION ( 'NONE',  ( 3.491481338843133355E-15, -1.224646799147352961E-16, 1.000000000000000000 ) ) ;
#121 = ORIENTED_EDGE ( 'NONE', *, *, #241, .F. ) ;
#122 = AXIS2_PLACEMENT_3D ( 'NONE', #44, #200, #135 ) ;
#123 = AXIS2_PLACEMENT_3D ( 'NONE', #229, #57, #72 ) ;
#124 = DIRECTION ( 'NONE',  ( 0.0000000000000000000, 1.000000000000000000, 0.0000000000000000000 ) ) ;
#125 = FACE_BOUND ( 'NONE', #28, .T. ) ;
#126 = ORIENTED_EDGE ( 'NONE', *, *, #164, .T. ) ;
#127 = ORGANIZATION ( 'UNSPECIFIED', 'UNSPECIFIED', '' ) ;
#128 = CARTESIAN_POINT ( 'NONE',  ( 1.745740669421566678E-14, 4.300561176782865113E-33, 5.000000000000000000 ) ) ;
#129 = APPROVAL_STATUS ( 'not_yet_approved' ) ;
#130 = CC_DESIGN_DATE_AND_TIME_ASSIGNMENT ( #156, #79, ( #43 ) ) ;
#131 = COORDINATED_UNIVERSAL_TIME_OFFSET ( 1, 0, .AHEAD. ) ;
#132 = PERSON_AND_ORGANIZATION ( #117, #127 ) ;
#133 = CARTESIAN_POINT ( 'NONE',  ( 1.745740669421566678E-14, 4.300561176782865113E-33, 5.000000000000000000 ) ) ;
#134 = DIRECTION ( 'NONE',  ( 4.275831445896957731E-31, 1.000000000000000000, 1.224646799147352961E-16 ) ) ;
#135 = DIRECTION ( 'NONE',  ( 3.358203913491260800E-31, 1.000000000000000000, 9.452503683395864704E-17 ) ) ;
#136 = DIRECTION ( 'NONE',  ( -3.491481338843133355E-15, 1.224646799147352961E-16, -1.000000000000000000 ) ) ;
#137 = EDGE_LOOP ( 'NONE', ( #126 ) ) ;
#138 = AXIS2_PLACEMENT_3D ( 'NONE', #78, #262, #112 ) ;
#139 = ADVANCED_FACE ( 'NONE', ( #92 ), #151, .F. ) ;
#140 = EDGE_LOOP ( 'NONE', ( #90 ) ) ;
#141 = CARTESIAN_POINT ( 'NONE',  ( 1.802284075149956450E-14, -6.321561565378326676E-16, 5.161946750507693693 ) ) ;
#142 = AXIS2_PLACEMENT_3D ( 'NONE', #210, #185, #50 ) ;
#143 = DIRECTION ( 'NONE',  ( 0.0000000000000000000, 1.000000000000000000, 0.0000000000000000000 ) ) ;
#144 = CC_DESIGN_APPROVAL ( #202, ( #190 ) ) ;
#145 = CC_DESIGN_PERSON_AND_ORGANIZATION_ASSIGNMENT ( #132, #240, ( #43 ) ) ;
#146 = MANIFOLD_SOLID_BREP ( 'Corps-Déplacer/Copier1[1]', #6 ) ;
#147 = DIRECTION ( 'NONE',  ( -3.491481338843133355E-15, 1.224646799147352961E-16, -1.000000000000000000 ) ) ;
#148 = VERTEX_POINT ( 'NONE', #87 ) ;
#149 = CARTESIAN_POINT ( 'NONE',  ( -3.727762051530554022E-31, 1.307522916878167309E-32, -1.067673485766276425E-16 ) ) ;
#150 = CARTESIAN_POINT ( 'NONE',  ( 8.728703347107831416E-16, -3.061616997868381785E-17, 0.2499999999999999445 ) ) ;
#151 = PLANE ( 'NONE',  #221 ) ;
#152 = APPROVAL_PERSON_ORGANIZATION ( #219, #71, #161 ) ;
#153 = FACE_OUTER_BOUND ( 'NONE', #85, .T. ) ;
#154 = PRODUCT_RELATED_PRODUCT_CATEGORY ( 'detail', '', ( #36 ) ) ;
#155 = EDGE_LOOP ( 'NONE', ( #107 ) ) ;
#156 = DATE_AND_TIME ( #74, #280 ) ;
#157 = APPROVAL ( #160, 'UNSPECIFIED' ) ;
#158 = AXIS2_PLACEMENT_3D ( 'NONE', #274, #37, #124 ) ;
#159 = DATE_AND_TIME ( #42, #64 ) ;
#160 = APPROVAL_STATUS ( 'not_yet_approved' ) ;
#161 = APPROVAL_ROLE ( '' ) ;
#162 = AXIS2_PLACEMENT_3D ( 'NONE', #299, #136, #134 ) ;
#163 = CONICAL_SURFACE ( 'NONE', #168, 1.499999999999997558, 0.1745329251994260367 ) ;
#164 = EDGE_CURVE ( 'NONE', #211, #211, #63, .T. ) ;
#165 = DIRECTION ( 'NONE',  ( 3.491481338843133355E-15, -1.224646799147352961E-16, 1.000000000000000000 ) ) ;
#166 = EDGE_CURVE ( 'NONE', #148, #148, #282, .T. ) ;
#167 = EDGE_LOOP ( 'NONE', ( #23 ) ) ;
#168 = AXIS2_PLACEMENT_3D ( 'NONE', #298, #257, #19 ) ;
#169 = CYLINDRICAL_SURFACE ( 'NONE', #34, 1.500000000000000444 ) ;
#170 = CARTESIAN_POINT ( 'NONE',  ( 6.270590427156639929E-14, 1.499999999999995559, 17.95968478306212646 ) ) ;
#171 = ORIENTED_EDGE ( 'NONE', *, *, #5, .F. ) ;
#172 = DIRECTION ( 'NONE',  ( -3.491481338843133355E-15, 1.224646799147352961E-16, -1.000000000000000000 ) ) ;
#173 = FACE_BOUND ( 'NONE', #155, .T. ) ;
#174 = EDGE_LOOP ( 'NONE', ( #111 ) ) ;
#175 = DIRECTION ( 'NONE',  ( 3.491481338843133355E-15, -1.224646799147352961E-16, 1.000000000000000000 ) ) ;
#176 = DIRECTION ( 'NONE',  ( 0.0000000000000000000, 1.000000000000000000, 0.0000000000000000000 ) ) ;
#177 = ADVANCED_FACE ( 'NONE', ( #93 ), #188, .T. ) ;
#178 = CARTESIAN_POINT ( 'NONE',  ( 1.316288464743861212E-13, 1.499999999999998668, 37.69999999999999574 ) ) ;
#179 = CIRCLE ( 'NONE', #230, 0.4799999999999991496 ) ;
#180 = CONICAL_SURFACE ( 'NONE', #181, 0.4799999999999991496, 0.5235987755982928205 ) ;
#181 = AXIS2_PLACEMENT_3D ( 'NONE', #14, #147, #176 ) ;
#182 = DIRECTION ( 'NONE',  ( 0.0000000000000000000, 1.000000000000000000, 0.0000000000000000000 ) ) ;
#183 = CARTESIAN_POINT ( 'NONE',  ( 1.326762908760390423E-13, 1.199999999999998845, 38.00000000000000000 ) ) ;
#184 = ORIENTED_EDGE ( 'NONE', *, *, #65, .T. ) ;
#185 = DIRECTION ( 'NONE',  ( -3.491481338843133355E-15, 1.224646799147352961E-16, -1.000000000000000000 ) ) ;
#186 = APPROVAL_STATUS ( 'not_yet_approved' ) ;
#187 = EDGE_CURVE ( 'NONE', #250, #250, #237, .T. ) ;
#188 = PLANE ( 'NONE',  #16 ) ;
#189 = APPROVAL_DATE_TIME ( #256, #71 ) ;
#190 = SECURITY_CLASSIFICATION ( '', '', #40 ) ;
#191 = PERSON_AND_ORGANIZATION ( #117, #127 ) ;
#192 = COORDINATED_UNIVERSAL_TIME_OFFSET ( 1, 0, .AHEAD. ) ;
#193 = ADVANCED_FACE ( 'NONE', ( #226, #215 ), #24, .F. ) ;
#194 = DESIGN_CONTEXT ( 'detailed design', #66, 'design' ) ;
#195 = DIRECTION ( 'NONE',  ( -3.491481338843133355E-15, 1.224646799147352961E-16, -1.000000000000000000 ) ) ;
#196 = LOCAL_TIME ( 15, 49, 40.00000000000000000, #101 ) ;
#197 = FACE_OUTER_BOUND ( 'NONE', #140, .T. ) ;
#198 = DIRECTION ( 'NONE',  ( -3.491481338843133355E-15, 1.224646799147352961E-16, -1.000000000000000000 ) ) ;
#199 = CARTESIAN_POINT ( 'NONE',  ( 4.311035480981395782E-14, -1.512107695968337265E-15, 12.34729635533384595 ) ) ;
#200 = DIRECTION ( 'NONE',  ( -3.491481338843133355E-15, 1.224646799147352961E-16, -1.000000000000000000 ) ) ;
#201 = LOCAL_TIME ( 15, 49, 40.00000000000000000, #192 ) ;
#202 = APPROVAL ( #129, 'UNSPECIFIED' ) ;
#203 = PERSON_AND_ORGANIZATION ( #117, #127 ) ;
#204 = CYLINDRICAL_SURFACE ( 'NONE', #162, 0.4799999999999996492 ) ;
#205 = ORIENTED_EDGE ( 'NONE', *, *, #166, .F. ) ;
#206 = CONICAL_SURFACE ( 'NONE', #292, 0.5734999999999993436, 0.5235987755982925984 ) ;
#207 = DIRECTION ( 'NONE',  ( -3.491481338843133355E-15, 1.224646799147352961E-16, -1.000000000000000000 ) ) ;
#208 = CARTESIAN_POINT ( 'NONE',  ( 4.189777606611760026E-14, 0.4799999999999986500, 12.00000000000000000 ) ) ;
#209 = CARTESIAN_POINT ( 'NONE',  ( 6.270590427156639929E-14, -2.199427048327245363E-15, 17.95968478306212646 ) ) ;
#210 = CARTESIAN_POINT ( 'NONE',  ( 1.745740669421566678E-14, -6.123233995736765296E-16, 5.000000000000000000 ) ) ;
#211 = VERTEX_POINT ( 'NONE', #170 ) ;
#212 = APPLICATION_PROTOCOL_DEFINITION ( 'international standard', 'config_control_design', 1994, #66 ) ;
#213 = ORIENTED_EDGE ( 'NONE', *, *, #164, .F. ) ;
#214 = AXIS2_PLACEMENT_3D ( 'NONE', #279, #258, #9 ) ;
#215 = FACE_OUTER_BOUND ( 'NONE', #174, .T. ) ;
#216 = CALENDAR_DATE ( 2021, 29, 11 ) ;
#217 = FACE_OUTER_BOUND ( 'NONE', #137, .T. ) ;
#218 = PERSON_AND_ORGANIZATION ( #117, #127 ) ;
#219 = PERSON_AND_ORGANIZATION ( #117, #127 ) ;
#220 = EDGE_CURVE ( 'NONE', #228, #228, #99, .T. ) ;
#221 = AXIS2_PLACEMENT_3D ( 'NONE', #39, #271, #97 ) ;
#222 = CC_DESIGN_APPROVAL ( #157, ( #43 ) ) ;
#223 = ADVANCED_FACE ( 'NONE', ( #91, #217 ), #163, .T. ) ;
#224 = ORIENTED_EDGE ( 'NONE', *, *, #166, .T. ) ;
#225 = DIRECTION ( 'NONE',  ( -4.275831445896957731E-31, -1.000000000000000000, -1.224646799147352961E-16 ) ) ;
#226 = FACE_OUTER_BOUND ( 'NONE', #32, .T. ) ;
#227 = CARTESIAN_POINT ( 'NONE',  ( 4.189777606611760026E-14, -1.301042606982605321E-15, 12.00000000000000000 ) ) ;
#228 = VERTEX_POINT ( 'NONE', #178 ) ;
#229 = CARTESIAN_POINT ( 'NONE',  ( 0.0000000000000000000, 0.0000000000000000000, 0.0000000000000000000 ) ) ;
#230 = AXIS2_PLACEMENT_3D ( 'NONE', #141, #198, #27 ) ;
#231 = CC_DESIGN_PERSON_AND_ORGANIZATION_ASSIGNMENT ( #98, #10, ( #36 ) ) ;
#232 = DIRECTION ( 'NONE',  ( 3.491481338843133355E-15, -1.224646799147352961E-16, 1.000000000000000000 ) ) ;
#233 = FACE_OUTER_BOUND ( 'NONE', #273, .T. ) ;
#234 = DIRECTION ( 'NONE',  ( 0.0000000000000000000, 1.000000000000000000, 0.0000000000000000000 ) ) ;
#235 = EDGE_LOOP ( 'NONE', ( #213 ) ) ;
#236 = ADVANCED_BREP_SHAPE_REPRESENTATION ( '968504', ( #146, #255, #123 ), #30 ) ;
#237 = CIRCLE ( 'NONE', #291, 0.4291624327025949648 ) ;
#238 = PRODUCT_DEFINITION_SHAPE ( 'NONE', 'NONE',  #43 ) ;
#239 = DATE_AND_TIME ( #260, #201 ) ;
#240 = PERSON_AND_ORGANIZATION_ROLE ( 'creator' ) ;
#241 = EDGE_CURVE ( 'NONE', #69, #69, #35, .T. ) ;
#242 = APPROVAL_ROLE ( '' ) ;
#243 = EDGE_CURVE ( 'NONE', #293, #293, #17, .T. ) ;
#244 = EDGE_LOOP ( 'NONE', ( #29 ) ) ;
#245 = AXIS2_PLACEMENT_3D ( 'NONE', #209, #109, #182 ) ;
#246 = PRODUCT_DEFINITION_FORMATION_WITH_SPECIFIED_SOURCE ( 'ANY', '', #36, .NOT_KNOWN. ) ;
#247 = DIRECTION ( 'NONE',  ( -3.491481338843133355E-15, 1.224646799147352961E-16, -1.000000000000000000 ) ) ;
#248 = EDGE_LOOP ( 'NONE', ( #275 ) ) ;
#249 = CC_DESIGN_PERSON_AND_ORGANIZATION_ASSIGNMENT ( #81, #303, ( #246 ) ) ;
#250 = VERTEX_POINT ( 'NONE', #254 ) ;
#251 = DIRECTION ( 'NONE',  ( -3.491481338843133355E-15, 1.224646799147352961E-16, -1.000000000000000000 ) ) ;
#252 = DIRECTION ( 'NONE',  ( 0.0000000000000000000, 1.000000000000000000, 0.0000000000000000000 ) ) ;
#253 = AXIS2_PLACEMENT_3D ( 'NONE', #199, #103, #143 ) ;
#254 = CARTESIAN_POINT ( 'NONE',  ( -1.892735826383161575E-31, 0.4291624327025949648, -5.421010862427522170E-17 ) ) ;
#255 = MANIFOLD_SOLID_BREP ( 'Corps-Déplacer/Copier1[2]', #268 ) ;
#256 = DATE_AND_TIME ( #216, #45 ) ;
#257 = DIRECTION ( 'NONE',  ( 3.491481338843133355E-15, -1.224646799147352961E-16, 1.000000000000000000 ) ) ;
#258 = DIRECTION ( 'NONE',  ( -3.491481338843133355E-15, 1.224646799147352961E-16, -1.000000000000000000 ) ) ;
#259 = ADVANCED_FACE ( 'NONE', ( #115, #76 ), #96, .T. ) ;
#260 = CALENDAR_DATE ( 2021, 29, 11 ) ;
#261 = AXIS2_PLACEMENT_3D ( 'NONE', #133, #165, #225 ) ;
#262 = DIRECTION ( 'NONE',  ( -3.491481338843133355E-15, 1.224646799147352961E-16, -1.000000000000000000 ) ) ;
#263 = ORIENTED_EDGE ( 'NONE', *, *, #5, .T. ) ;
#264 = CIRCLE ( 'NONE', #2, 0.5735000000000000098 ) ;
#265 = ORIENTED_EDGE ( 'NONE', *, *, #49, .T. ) ;
#266 = CARTESIAN_POINT ( 'NONE',  ( 0.0000000000000000000, 0.0000000000000000000, 0.0000000000000000000 ) ) ;
#267 = FACE_BOUND ( 'NONE', #70, .T. ) ;
#268 = CLOSED_SHELL ( 'NONE', ( #116, #287, #259, #177 ) ) ;
#269 =( LENGTH_UNIT ( ) NAMED_UNIT ( * ) SI_UNIT ( .MILLI., .METRE. ) );
#270 = ADVANCED_FACE ( 'NONE', ( #20, #267 ), #180, .T. ) ;
#271 = DIRECTION ( 'NONE',  ( -3.491481338843133355E-15, 1.224646799147352961E-16, -1.000000000000000000 ) ) ;
#272 = DIRECTION ( 'NONE',  ( -3.358203913491260800E-31, -1.000000000000000000, -9.452503683395864704E-17 ) ) ;
#273 = EDGE_LOOP ( 'NONE', ( #26 ) ) ;
#274 = CARTESIAN_POINT ( 'NONE',  ( 4.189777606611760026E-14, -1.469576158976823750E-15, 12.00000000000000000 ) ) ;
#275 = ORIENTED_EDGE ( 'NONE', *, *, #243, .F. ) ;
#276 = DIRECTION ( 'NONE',  ( 4.275831445896957731E-31, 1.000000000000000000, 1.224646799147353207E-16 ) ) ;
#277 = CARTESIAN_POINT ( 'NONE',  ( 1.326762908760390423E-13, -4.653657836759941152E-15, 38.00000000000000000 ) ) ;
#278 = PERSON_AND_ORGANIZATION ( #117, #127 ) ;
#279 = CARTESIAN_POINT ( 'NONE',  ( 0.0000000000000000000, 0.0000000000000000000, 0.0000000000000000000 ) ) ;
#280 = LOCAL_TIME ( 15, 49, 40.00000000000000000, #21 ) ;
#281 = SHAPE_DEFINITION_REPRESENTATION ( #238, #236 ) ;
#282 = CIRCLE ( 'NONE', #142, 0.5735000000000000098 ) ;
#283 = DIRECTION ( 'NONE',  ( 0.0000000000000000000, 1.000000000000000000, 0.0000000000000000000 ) ) ;
#284 = EDGE_LOOP ( 'NONE', ( #8 ) ) ;
#285 = EDGE_LOOP ( 'NONE', ( #171 ) ) ;
#286 = FACE_OUTER_BOUND ( 'NONE', #244, .T. ) ;
#287 = ADVANCED_FACE ( 'NONE', ( #173, #153 ), #206, .T. ) ;
#288 = EDGE_LOOP ( 'NONE', ( #265 ) ) ;
#289 = CARTESIAN_POINT ( 'NONE',  ( 8.728703347107833388E-16, 0.5734999999999993436, 0.2500000000000000000 ) ) ;
#290 = EDGE_CURVE ( 'NONE', #296, #296, #102, .T. ) ;
#291 = AXIS2_PLACEMENT_3D ( 'NONE', #149, #251, #276 ) ;
#292 = AXIS2_PLACEMENT_3D ( 'NONE', #150, #120, #272 ) ;
#293 = VERTEX_POINT ( 'NONE', #88 ) ;
#294 = CC_DESIGN_PERSON_AND_ORGANIZATION_ASSIGNMENT ( #278, #58, ( #246 ) ) ;
#295 = AXIS2_PLACEMENT_3D ( 'NONE', #84, #232, #13 ) ;
#296 = VERTEX_POINT ( 'NONE', #208 ) ;
#297 = ORIENTED_EDGE ( 'NONE', *, *, #290, .F. ) ;
#298 = CARTESIAN_POINT ( 'NONE',  ( 6.270590427156639929E-14, -2.199427048327245363E-15, 17.95968478306212646 ) ) ;
#299 = CARTESIAN_POINT ( 'NONE',  ( 0.0000000000000000000, 0.0000000000000000000, 0.0000000000000000000 ) ) ;
#300 = DATE_TIME_ROLE ( 'classification_date' ) ;
#301 = ADVANCED_FACE ( 'NONE', ( #233, #125 ), #114, .T. ) ;
#302 = APPROVAL_ROLE ( '' ) ;
#303 = PERSON_AND_ORGANIZATION_ROLE ( 'design_supplier' ) ;
ENDSEC;
END-ISO-10303-21;
