ISO-10303-21;
HEADER;
FILE_DESCRIPTION (( 'STEP AP203' ),
    '1' );
FILE_NAME ('968503.step',
    '2021-11-29T14:49:40',
    ( '' ),
    ( '' ),
    'SwSTEP 2.0',
    'SolidWorks 2019',
    '' );
FILE_SCHEMA (( 'CONFIG_CONTROL_DESIGN' ));
ENDSEC;

DATA;
#1 = PLANE ( 'NONE',  #2 ) ;
#2 = AXIS2_PLACEMENT_3D ( 'NONE', #238, #214, #284 ) ;
#3 = AXIS2_PLACEMENT_3D ( 'NONE', #210, #88, #258 ) ;
#4 = EDGE_LOOP ( 'NONE', ( #202 ) ) ;
#5 = DIRECTION ( 'NONE',  ( 3.491481338843133355E-15, -1.224646799147352961E-16, 1.000000000000000000 ) ) ;
#6 = CARTESIAN_POINT ( 'NONE',  ( 4.311035480981395782E-14, 0.5103844939755798338, 12.34729635533384595 ) ) ;
#7 = PERSON_AND_ORGANIZATION ( #242, #78 ) ;
#8 = ORIENTED_EDGE ( 'NONE', *, *, #34, .F. ) ;
#9 = CC_DESIGN_APPROVAL ( #41, ( #97 ) ) ;
#10 = APPROVAL_PERSON_ORGANIZATION ( #142, #228, #241 ) ;
#11 = VERTEX_POINT ( 'NONE', #120 ) ;
#12 = APPROVAL_DATE_TIME ( #288, #228 ) ;
#13 = CARTESIAN_POINT ( 'NONE',  ( 8.728703347107831416E-16, -3.061616997868381785E-17, 0.2499999999999999445 ) ) ;
#14 = CARTESIAN_POINT ( 'NONE',  ( 4.189777606611760026E-14, 0.4799999999999986500, 12.00000000000000000 ) ) ;
#15 = EDGE_LOOP ( 'NONE', ( #57 ) ) ;
#16 = CC_DESIGN_PERSON_AND_ORGANIZATION_ASSIGNMENT ( #227, #299, ( #23 ) ) ;
#17 = AXIS2_PLACEMENT_3D ( 'NONE', #165, #235, #190 ) ;
#18 = APPLICATION_CONTEXT ( 'configuration controlled 3d designs of mechanical parts and assemblies' ) ;
#19 = APPROVAL_DATE_TIME ( #233, #41 ) ;
#20 = ADVANCED_FACE ( 'NONE', ( #265, #272 ), #171, .T. ) ;
#21 = DIRECTION ( 'NONE',  ( -3.491481338843133355E-15, 1.224646799147352961E-16, -1.000000000000000000 ) ) ;
#22 = DIRECTION ( 'NONE',  ( -3.491481338843133355E-15, 1.224646799147352961E-16, -1.000000000000000000 ) ) ;
#23 = SECURITY_CLASSIFICATION ( '', '', #65 ) ;
#24 = FACE_OUTER_BOUND ( 'NONE', #286, .T. ) ;
#25 = FACE_BOUND ( 'NONE', #298, .T. ) ;
#26 = CARTESIAN_POINT ( 'NONE',  ( 1.326762908760390423E-13, -4.653657836759941152E-15, 38.00000000000000000 ) ) ;
#27 = CIRCLE ( 'NONE', #279, 0.4799999999999992606 ) ;
#28 = FACE_OUTER_BOUND ( 'NONE', #177, .T. ) ;
#29 = EDGE_LOOP ( 'NONE', ( #92 ) ) ;
#30 = COORDINATED_UNIVERSAL_TIME_OFFSET ( 1, 0, .AHEAD. ) ;
#31 = VERTEX_POINT ( 'NONE', #168 ) ;
#32 = LOCAL_TIME ( 15, 49, 40.00000000000000000, #84 ) ;
#33 =( NAMED_UNIT ( * ) SI_UNIT ( $, .STERADIAN. ) SOLID_ANGLE_UNIT ( ) );
#34 = EDGE_CURVE ( 'NONE', #35, #35, #255, .T. ) ;
#35 = VERTEX_POINT ( 'NONE', #148 ) ;
#36 = CIRCLE ( 'NONE', #114, 0.5684999999999993392 ) ;
#37 = EDGE_LOOP ( 'NONE', ( #271 ) ) ;
#38 = CALENDAR_DATE ( 2021, 29, 11 ) ;
#39 = PRODUCT_DEFINITION ( 'UNKNOWN', '', #97, #184 ) ;
#40 =( GEOMETRIC_REPRESENTATION_CONTEXT ( 3 ) GLOBAL_UNCERTAINTY_ASSIGNED_CONTEXT ( ( #110 ) ) GLOBAL_UNIT_ASSIGNED_CONTEXT ( ( #59, #76, #33 ) ) REPRESENTATION_CONTEXT ( 'NONE', 'WORKASPACE' ) );
#41 = APPROVAL ( #83, 'UNSPECIFIED' ) ;
#42 = APPROVAL_ROLE ( '' ) ;
#43 = CYLINDRICAL_SURFACE ( 'NONE', #129, 0.4799999999999997047 ) ;
#44 = CARTESIAN_POINT ( 'NONE',  ( 4.311035480981395782E-14, -1.512107695968337265E-15, 12.34729635533384595 ) ) ;
#45 = AXIS2_PLACEMENT_3D ( 'NONE', #133, #93, #254 ) ;
#46 = DIRECTION ( 'NONE',  ( 4.275831445896957731E-31, 1.000000000000000000, 1.224646799147352714E-16 ) ) ;
#47 = ADVANCED_FACE ( 'NONE', ( #121, #192 ), #145, .T. ) ;
#48 = ORIENTED_EDGE ( 'NONE', *, *, #34, .T. ) ;
#49 = DIRECTION ( 'NONE',  ( -3.387739567963479339E-31, -1.000000000000000000, -9.535639159942881664E-17 ) ) ;
#50 = FACE_OUTER_BOUND ( 'NONE', #103, .T. ) ;
#51 = CIRCLE ( 'NONE', #45, 0.4241624327025950714 ) ;
#52 = EDGE_CURVE ( 'NONE', #54, #54, #213, .T. ) ;
#53 = PERSON_AND_ORGANIZATION_ROLE ( 'design_owner' ) ;
#54 = VERTEX_POINT ( 'NONE', #14 ) ;
#55 = EDGE_LOOP ( 'NONE', ( #102 ) ) ;
#56 = AXIS2_PLACEMENT_3D ( 'NONE', #276, #282, #46 ) ;
#57 = ORIENTED_EDGE ( 'NONE', *, *, #236, .T. ) ;
#58 = EDGE_CURVE ( 'NONE', #99, #99, #36, .T. ) ;
#59 =( LENGTH_UNIT ( ) NAMED_UNIT ( * ) SI_UNIT ( .MILLI., .METRE. ) );
#60 = MANIFOLD_SOLID_BREP ( 'Corps-Déplacer/Copier1[1]', #269 ) ;
#61 = CARTESIAN_POINT ( 'NONE',  ( 0.0000000000000000000, 0.0000000000000000000, 0.0000000000000000000 ) ) ;
#62 = CALENDAR_DATE ( 2021, 29, 11 ) ;
#63 = COORDINATED_UNIVERSAL_TIME_OFFSET ( 1, 0, .AHEAD. ) ;
#64 = AXIS2_PLACEMENT_3D ( 'NONE', #26, #237, #302 ) ;
#65 = SECURITY_CLASSIFICATION_LEVEL ( 'unclassified' ) ;
#66 = APPROVAL_PERSON_ORGANIZATION ( #295, #41, #42 ) ;
#67 = FACE_OUTER_BOUND ( 'NONE', #29, .T. ) ;
#68 = CARTESIAN_POINT ( 'NONE',  ( 1.745740669421566678E-14, -6.123233995736765296E-16, 5.000000000000000000 ) ) ;
#69 = ADVANCED_FACE ( 'NONE', ( #108 ), #139, .F. ) ;
#70 = DIRECTION ( 'NONE',  ( -3.491481338843133355E-15, 1.224646799147352961E-16, -1.000000000000000000 ) ) ;
#71 = TOROIDAL_SURFACE ( 'NONE', #244, 2.479999999999999982, 2.000000000000000000 ) ;
#72 = DIRECTION ( 'NONE',  ( 3.491481338843133355E-15, -1.224646799147352961E-16, 1.000000000000000000 ) ) ;
#73 = CARTESIAN_POINT ( 'NONE',  ( 4.189777606611760026E-14, -1.301042606982605321E-15, 12.00000000000000000 ) ) ;
#74 = PRODUCT ( '968503', '968503', '', ( #266 ) ) ;
#75 = DIRECTION ( 'NONE',  ( 0.0000000000000000000, 1.000000000000000000, 0.0000000000000000000 ) ) ;
#76 =( NAMED_UNIT ( * ) PLANE_ANGLE_UNIT ( ) SI_UNIT ( $, .RADIAN. ) );
#77 = FACE_OUTER_BOUND ( 'NONE', #119, .T. ) ;
#78 = ORGANIZATION ( 'UNSPECIFIED', 'UNSPECIFIED', '' ) ;
#79 = FACE_BOUND ( 'NONE', #4, .T. ) ;
#80 = PERSON_AND_ORGANIZATION_ROLE ( 'creator' ) ;
#81 = APPROVAL_STATUS ( 'not_yet_approved' ) ;
#82 = AXIS2_PLACEMENT_3D ( 'NONE', #125, #143, #122 ) ;
#83 = APPROVAL_STATUS ( 'not_yet_approved' ) ;
#84 = COORDINATED_UNIVERSAL_TIME_OFFSET ( 1, 0, .AHEAD. ) ;
#85 = COORDINATED_UNIVERSAL_TIME_OFFSET ( 1, 0, .AHEAD. ) ;
#86 = CONICAL_SURFACE ( 'NONE', #280, 0.5684999999999993392, 0.5235987755982922653 ) ;
#87 = PLANE ( 'NONE',  #127 ) ;
#88 = DIRECTION ( 'NONE',  ( -3.491481338843133355E-15, 1.224646799147352961E-16, -1.000000000000000000 ) ) ;
#89 = CARTESIAN_POINT ( 'NONE',  ( 1.316288464743861212E-13, -4.616918432785520292E-15, 37.69999999999999574 ) ) ;
#90 = CARTESIAN_POINT ( 'NONE',  ( 8.728703347107831416E-16, -3.061616997868381785E-17, 0.2499999999999999445 ) ) ;
#91 = CIRCLE ( 'NONE', #64, 1.200000000000003286 ) ;
#92 = ORIENTED_EDGE ( 'NONE', *, *, #52, .F. ) ;
#93 = DIRECTION ( 'NONE',  ( -3.491481338843133355E-15, 1.224646799147352961E-16, -1.000000000000000000 ) ) ;
#94 = ADVANCED_FACE ( 'NONE', ( #117 ), #1, .F. ) ;
#95 = APPLICATION_PROTOCOL_DEFINITION ( 'international standard', 'config_control_design', 1994, #18 ) ;
#96 = ORIENTED_EDGE ( 'NONE', *, *, #101, .F. ) ;
#97 = PRODUCT_DEFINITION_FORMATION_WITH_SPECIFIED_SOURCE ( 'ANY', '', #74, .NOT_KNOWN. ) ;
#98 = FACE_OUTER_BOUND ( 'NONE', #55, .T. ) ;
#99 = VERTEX_POINT ( 'NONE', #263 ) ;
#100 = CC_DESIGN_SECURITY_CLASSIFICATION ( #23, ( #97 ) ) ;
#101 = EDGE_CURVE ( 'NONE', #198, #198, #296, .T. ) ;
#102 = ORIENTED_EDGE ( 'NONE', *, *, #157, .F. ) ;
#103 = EDGE_LOOP ( 'NONE', ( #140 ) ) ;
#104 = EDGE_LOOP ( 'NONE', ( #48 ) ) ;
#105 = PERSON_AND_ORGANIZATION ( #242, #78 ) ;
#106 = ADVANCED_FACE ( 'NONE', ( #67, #278 ), #71, .F. ) ;
#107 = DIRECTION ( 'NONE',  ( -4.275831445896957731E-31, -1.000000000000000000, -1.224646799147352961E-16 ) ) ;
#108 = FACE_OUTER_BOUND ( 'NONE', #176, .T. ) ;
#109 = CARTESIAN_POINT ( 'NONE',  ( 6.270590427156639929E-14, -2.199427048327245363E-15, 17.95968478306212646 ) ) ;
#110 = UNCERTAINTY_MEASURE_WITH_UNIT (LENGTH_MEASURE( 1.000000000000000082E-05 ), #59, 'distance_accuracy_value', 'NONE');
#111 = CYLINDRICAL_SURFACE ( 'NONE', #56, 0.5684999999999996723 ) ;
#112 = EDGE_CURVE ( 'NONE', #169, #169, #27, .T. ) ;
#113 = CARTESIAN_POINT ( 'NONE',  ( 0.0000000000000000000, 0.0000000000000000000, 0.0000000000000000000 ) ) ;
#114 = AXIS2_PLACEMENT_3D ( 'NONE', #13, #21, #268 ) ;
#115 = EDGE_LOOP ( 'NONE', ( #164 ) ) ;
#116 = CC_DESIGN_APPROVAL ( #297, ( #23 ) ) ;
#117 = FACE_OUTER_BOUND ( 'NONE', #134, .T. ) ;
#118 = ORIENTED_EDGE ( 'NONE', *, *, #236, .F. ) ;
#119 = EDGE_LOOP ( 'NONE', ( #96 ) ) ;
#120 = CARTESIAN_POINT ( 'NONE',  ( 1.326762908760390423E-13, 1.199999999999998845, 38.00000000000000000 ) ) ;
#121 = FACE_BOUND ( 'NONE', #226, .T. ) ;
#122 = DIRECTION ( 'NONE',  ( 0.0000000000000000000, 1.000000000000000000, 0.0000000000000000000 ) ) ;
#123 = AXIS2_PLACEMENT_3D ( 'NONE', #208, #159, #277 ) ;
#124 = CC_DESIGN_PERSON_AND_ORGANIZATION_ASSIGNMENT ( #7, #53, ( #74 ) ) ;
#125 = CARTESIAN_POINT ( 'NONE',  ( 1.799260363613678946E-14, -6.310955812991078206E-16, 5.153286496469849709 ) ) ;
#126 = CIRCLE ( 'NONE', #293, 1.500000000000003331 ) ;
#127 = AXIS2_PLACEMENT_3D ( 'NONE', #234, #240, #107 ) ;
#128 = DATE_TIME_ROLE ( 'creation_date' ) ;
#129 = AXIS2_PLACEMENT_3D ( 'NONE', #113, #141, #183 ) ;
#130 = DATE_TIME_ROLE ( 'classification_date' ) ;
#131 = EDGE_LOOP ( 'NONE', ( #191 ) ) ;
#132 = FACE_OUTER_BOUND ( 'NONE', #185, .T. ) ;
#133 = CARTESIAN_POINT ( 'NONE',  ( -3.706382894301069308E-31, 1.300024117964858240E-32, -1.061550251770539672E-16 ) ) ;
#134 = EDGE_LOOP ( 'NONE', ( #179 ) ) ;
#135 = CARTESIAN_POINT ( 'NONE',  ( -1.853191447150534654E-31, 6.500120589824291198E-33, -5.307751258852698360E-17 ) ) ;
#136 = DIRECTION ( 'NONE',  ( 0.0000000000000000000, -1.000000000000000000, 0.0000000000000000000 ) ) ;
#137 = EDGE_LOOP ( 'NONE', ( #151 ) ) ;
#138 = EDGE_LOOP ( 'NONE', ( #200 ) ) ;
#139 = PLANE ( 'NONE',  #262 ) ;
#140 = ORIENTED_EDGE ( 'NONE', *, *, #112, .F. ) ;
#141 = DIRECTION ( 'NONE',  ( -3.491481338843133355E-15, 1.224646799147352961E-16, -1.000000000000000000 ) ) ;
#142 = PERSON_AND_ORGANIZATION ( #242, #78 ) ;
#143 = DIRECTION ( 'NONE',  ( -3.491481338843133355E-15, 1.224646799147352961E-16, -1.000000000000000000 ) ) ;
#144 = CARTESIAN_POINT ( 'NONE',  ( 0.0000000000000000000, 0.0000000000000000000, 0.0000000000000000000 ) ) ;
#145 = CONICAL_SURFACE ( 'NONE', #230, 1.499999999999997558, 0.1745329251994260367 ) ;
#146 = DIRECTION ( 'NONE',  ( 3.491481338843133355E-15, -1.224646799147352961E-16, 1.000000000000000000 ) ) ;
#147 = ADVANCED_FACE ( 'NONE', ( #28 ), #253, .F. ) ;
#148 = CARTESIAN_POINT ( 'NONE',  ( 1.745740669421566678E-14, 0.5684999999999993392, 5.000000000000000000 ) ) ;
#149 = DIRECTION ( 'NONE',  ( -3.491481338843133355E-15, 1.224646799147352961E-16, -1.000000000000000000 ) ) ;
#150 = PERSON_AND_ORGANIZATION_ROLE ( 'design_supplier' ) ;
#151 = ORIENTED_EDGE ( 'NONE', *, *, #247, .T. ) ;
#152 = LOCAL_TIME ( 15, 49, 40.00000000000000000, #63 ) ;
#153 = COORDINATED_UNIVERSAL_TIME_OFFSET ( 1, 0, .AHEAD. ) ;
#154 = ADVANCED_BREP_SHAPE_REPRESENTATION ( '968503', ( #60, #156, #256 ), #40 ) ;
#155 = CIRCLE ( 'NONE', #3, 1.499999999999997558 ) ;
#156 = MANIFOLD_SOLID_BREP ( 'Corps-Déplacer/Copier1[2]', #162 ) ;
#157 = EDGE_CURVE ( 'NONE', #220, #220, #126, .T. ) ;
#158 = DIRECTION ( 'NONE',  ( 4.275831445896957731E-31, 1.000000000000000000, 1.224646799147352961E-16 ) ) ;
#159 = DIRECTION ( 'NONE',  ( -3.491481338843133355E-15, 1.224646799147352961E-16, -1.000000000000000000 ) ) ;
#160 = DIRECTION ( 'NONE',  ( 0.0000000000000000000, 1.000000000000000000, 0.0000000000000000000 ) ) ;
#161 = ORIENTED_EDGE ( 'NONE', *, *, #52, .T. ) ;
#162 = CLOSED_SHELL ( 'NONE', ( #69, #275, #260, #232 ) ) ;
#163 = DIRECTION ( 'NONE',  ( -3.491481338843133355E-15, 1.224646799147352961E-16, -1.000000000000000000 ) ) ;
#164 = ORIENTED_EDGE ( 'NONE', *, *, #58, .F. ) ;
#165 = CARTESIAN_POINT ( 'NONE',  ( 1.326762908760390423E-13, 8.998558695971099120E-33, 38.00000000000000000 ) ) ;
#166 = DIRECTION ( 'NONE',  ( -3.491481338843133355E-15, 1.224646799147352961E-16, -1.000000000000000000 ) ) ;
#167 = CONICAL_SURFACE ( 'NONE', #82, 0.4799999999999992606, 0.5235987755982917102 ) ;
#168 = CARTESIAN_POINT ( 'NONE',  ( -1.892735826383161137E-31, 0.4241624327025950714, -5.421010862427521554E-17 ) ) ;
#169 = VERTEX_POINT ( 'NONE', #170 ) ;
#170 = CARTESIAN_POINT ( 'NONE',  ( 1.799260363613678946E-14, 0.4799999999999985945, 5.153286496469849709 ) ) ;
#171 = CYLINDRICAL_SURFACE ( 'NONE', #173, 1.500000000000000444 ) ;
#172 = CALENDAR_DATE ( 2021, 29, 11 ) ;
#173 = AXIS2_PLACEMENT_3D ( 'NONE', #61, #149, #248 ) ;
#174 = CALENDAR_DATE ( 2021, 29, 11 ) ;
#175 = CC_DESIGN_PERSON_AND_ORGANIZATION_ASSIGNMENT ( #251, #206, ( #97 ) ) ;
#176 = EDGE_LOOP ( 'NONE', ( #281 ) ) ;
#177 = EDGE_LOOP ( 'NONE', ( #189 ) ) ;
#178 = APPROVAL_DATE_TIME ( #201, #297 ) ;
#179 = ORIENTED_EDGE ( 'NONE', *, *, #101, .T. ) ;
#180 = EDGE_CURVE ( 'NONE', #31, #31, #51, .T. ) ;
#181 = DIRECTION ( 'NONE',  ( -3.491481338843133355E-15, 1.224646799147352961E-16, -1.000000000000000000 ) ) ;
#182 = FACE_OUTER_BOUND ( 'NONE', #115, .T. ) ;
#183 = DIRECTION ( 'NONE',  ( 4.275831445896957731E-31, 1.000000000000000000, 1.224646799147352714E-16 ) ) ;
#184 = DESIGN_CONTEXT ( 'detailed design', #216, 'design' ) ;
#185 = EDGE_LOOP ( 'NONE', ( #8 ) ) ;
#186 = CIRCLE ( 'NONE', #231, 0.5103844939755813881 ) ;
#187 = PRODUCT_RELATED_PRODUCT_CATEGORY ( 'detail', '', ( #74 ) ) ;
#188 = DIRECTION ( 'NONE',  ( 0.0000000000000000000, 1.000000000000000000, 0.0000000000000000000 ) ) ;
#189 = ORIENTED_EDGE ( 'NONE', *, *, #207, .F. ) ;
#190 = DIRECTION ( 'NONE',  ( 4.275831445896957731E-31, 1.000000000000000000, 1.224646799147352961E-16 ) ) ;
#191 = ORIENTED_EDGE ( 'NONE', *, *, #157, .T. ) ;
#192 = FACE_OUTER_BOUND ( 'NONE', #137, .T. ) ;
#193 = DIRECTION ( 'NONE',  ( 0.0000000000000000000, 0.0000000000000000000, 1.000000000000000000 ) ) ;
#194 = CC_DESIGN_PERSON_AND_ORGANIZATION_ASSIGNMENT ( #105, #80, ( #39 ) ) ;
#195 = ORIENTED_EDGE ( 'NONE', *, *, #180, .F. ) ;
#196 = DIRECTION ( 'NONE',  ( 1.000000000000000000, 0.0000000000000000000, 0.0000000000000000000 ) ) ;
#197 = CARTESIAN_POINT ( 'NONE',  ( 1.326762908760390423E-13, -4.653657836759941152E-15, 38.00000000000000000 ) ) ;
#198 = VERTEX_POINT ( 'NONE', #243 ) ;
#199 = EDGE_LOOP ( 'NONE', ( #217 ) ) ;
#200 = ORIENTED_EDGE ( 'NONE', *, *, #207, .T. ) ;
#201 = DATE_AND_TIME ( #38, #32 ) ;
#202 = ORIENTED_EDGE ( 'NONE', *, *, #112, .T. ) ;
#203 = CC_DESIGN_DATE_AND_TIME_ASSIGNMENT ( #294, #128, ( #39 ) ) ;
#204 = SHAPE_DEFINITION_REPRESENTATION ( #285, #154 ) ;
#205 = DIRECTION ( 'NONE',  ( -3.491481338843133355E-15, 1.224646799147352961E-16, -1.000000000000000000 ) ) ;
#206 = PERSON_AND_ORGANIZATION_ROLE ( 'creator' ) ;
#207 = EDGE_CURVE ( 'NONE', #11, #11, #91, .T. ) ;
#208 = CARTESIAN_POINT ( 'NONE',  ( 4.189777606611760026E-14, -1.469576158976823750E-15, 12.00000000000000000 ) ) ;
#209 = CC_DESIGN_APPROVAL ( #228, ( #39 ) ) ;
#210 = CARTESIAN_POINT ( 'NONE',  ( 6.270590427156639929E-14, -2.199427048327245363E-15, 17.95968478306212646 ) ) ;
#211 = DIRECTION ( 'NONE',  ( -3.491481338843133355E-15, 1.224646799147352961E-16, -1.000000000000000000 ) ) ;
#212 = FACE_OUTER_BOUND ( 'NONE', #199, .T. ) ;
#213 = CIRCLE ( 'NONE', #123, 0.4800000000000000933 ) ;
#214 = DIRECTION ( 'NONE',  ( 3.491481338843133355E-15, -1.224646799147352961E-16, 1.000000000000000000 ) ) ;
#215 = DIRECTION ( 'NONE',  ( 0.0000000000000000000, 1.000000000000000000, 0.0000000000000000000 ) ) ;
#216 = APPLICATION_CONTEXT ( 'configuration controlled 3d designs of mechanical parts and assemblies' ) ;
#217 = ORIENTED_EDGE ( 'NONE', *, *, #58, .T. ) ;
#218 = CALENDAR_DATE ( 2021, 29, 11 ) ;
#219 = CARTESIAN_POINT ( 'NONE',  ( 1.745740669421566678E-14, -6.123233995736765296E-16, 5.000000000000000000 ) ) ;
#220 = VERTEX_POINT ( 'NONE', #291 ) ;
#221 = CONICAL_SURFACE ( 'NONE', #246, 1.200000000000003286, 0.7853981633974453924 ) ;
#222 = APPROVAL_STATUS ( 'not_yet_approved' ) ;
#223 = ADVANCED_FACE ( 'NONE', ( #50, #24 ), #43, .T. ) ;
#224 = FACE_BOUND ( 'NONE', #138, .T. ) ;
#225 = AXIS2_PLACEMENT_3D ( 'NONE', #219, #205, #259 ) ;
#226 = EDGE_LOOP ( 'NONE', ( #118 ) ) ;
#227 = PERSON_AND_ORGANIZATION ( #242, #78 ) ;
#228 = APPROVAL ( #222, 'UNSPECIFIED' ) ;
#229 = PERSON_AND_ORGANIZATION ( #242, #78 ) ;
#230 = AXIS2_PLACEMENT_3D ( 'NONE', #109, #146, #136 ) ;
#231 = AXIS2_PLACEMENT_3D ( 'NONE', #44, #163, #188 ) ;
#232 = ADVANCED_FACE ( 'NONE', ( #132 ), #87, .T. ) ;
#233 = DATE_AND_TIME ( #172, #152 ) ;
#234 = CARTESIAN_POINT ( 'NONE',  ( 1.745740669421566678E-14, 4.263067182216319084E-33, 5.000000000000000000 ) ) ;
#235 = DIRECTION ( 'NONE',  ( -3.491481338843133355E-15, 1.224646799147352961E-16, -1.000000000000000000 ) ) ;
#236 = EDGE_CURVE ( 'NONE', #270, #270, #186, .T. ) ;
#237 = DIRECTION ( 'NONE',  ( -3.491481338843133355E-15, 1.224646799147352961E-16, -1.000000000000000000 ) ) ;
#238 = CARTESIAN_POINT ( 'NONE',  ( 1.745740669421566678E-14, 4.263067182216319084E-33, 5.000000000000000000 ) ) ;
#239 = APPROVAL_PERSON_ORGANIZATION ( #229, #297, #249 ) ;
#240 = DIRECTION ( 'NONE',  ( 3.491481338843133355E-15, -1.224646799147352961E-16, 1.000000000000000000 ) ) ;
#241 = APPROVAL_ROLE ( '' ) ;
#242 = PERSON ( 'UNSPECIFIED', 'UNSPECIFIED', 'UNSPECIFIED', ('UNSPECIFIED'), ('UNSPECIFIED'), ('UNSPECIFIED') ) ;
#243 = CARTESIAN_POINT ( 'NONE',  ( 1.745740669421566678E-14, 0.5684999999999993392, 5.000000000000000000 ) ) ;
#244 = AXIS2_PLACEMENT_3D ( 'NONE', #73, #211, #158 ) ;
#245 = APPLICATION_PROTOCOL_DEFINITION ( 'international standard', 'config_control_design', 1994, #216 ) ;
#246 = AXIS2_PLACEMENT_3D ( 'NONE', #197, #166, #75 ) ;
#247 = EDGE_CURVE ( 'NONE', #264, #264, #155, .T. ) ;
#248 = DIRECTION ( 'NONE',  ( 4.275831445896957731E-31, 1.000000000000000000, 1.224646799147353207E-16 ) ) ;
#249 = APPROVAL_ROLE ( '' ) ;
#250 = DATE_AND_TIME ( #174, #252 ) ;
#251 = PERSON_AND_ORGANIZATION ( #242, #78 ) ;
#252 = LOCAL_TIME ( 15, 49, 40.00000000000000000, #85 ) ;
#253 = PLANE ( 'NONE',  #17 ) ;
#254 = DIRECTION ( 'NONE',  ( 4.275831445896957731E-31, 1.000000000000000000, 1.224646799147352961E-16 ) ) ;
#255 = CIRCLE ( 'NONE', #225, 0.5685000000000000053 ) ;
#256 = AXIS2_PLACEMENT_3D ( 'NONE', #144, #193, #196 ) ;
#257 = FACE_OUTER_BOUND ( 'NONE', #104, .T. ) ;
#258 = DIRECTION ( 'NONE',  ( 0.0000000000000000000, 1.000000000000000000, 0.0000000000000000000 ) ) ;
#259 = DIRECTION ( 'NONE',  ( 0.0000000000000000000, 1.000000000000000000, 0.0000000000000000000 ) ) ;
#260 = ADVANCED_FACE ( 'NONE', ( #182, #257 ), #111, .T. ) ;
#261 = CARTESIAN_POINT ( 'NONE',  ( 1.799260363613678946E-14, -6.310955812991078206E-16, 5.153286496469849709 ) ) ;
#262 = AXIS2_PLACEMENT_3D ( 'NONE', #135, #5, #274 ) ;
#263 = CARTESIAN_POINT ( 'NONE',  ( 8.728703347107833388E-16, 0.5684999999999993392, 0.2500000000000000000 ) ) ;
#264 = VERTEX_POINT ( 'NONE', #290 ) ;
#265 = FACE_OUTER_BOUND ( 'NONE', #37, .T. ) ;
#266 = MECHANICAL_CONTEXT ( 'NONE', #18, 'mechanical' ) ;
#267 = CC_DESIGN_DATE_AND_TIME_ASSIGNMENT ( #250, #130, ( #23 ) ) ;
#268 = DIRECTION ( 'NONE',  ( 3.387739567963479339E-31, 1.000000000000000000, 9.535639159942881664E-17 ) ) ;
#269 = CLOSED_SHELL ( 'NONE', ( #94, #289, #223, #106, #47, #20, #283, #147 ) ) ;
#270 = VERTEX_POINT ( 'NONE', #6 ) ;
#271 = ORIENTED_EDGE ( 'NONE', *, *, #247, .F. ) ;
#272 = FACE_OUTER_BOUND ( 'NONE', #131, .T. ) ;
#273 = PERSON_AND_ORGANIZATION ( #242, #78 ) ;
#274 = DIRECTION ( 'NONE',  ( -4.275831445896957731E-31, -1.000000000000000000, -1.224646799147352961E-16 ) ) ;
#275 = ADVANCED_FACE ( 'NONE', ( #25, #212 ), #86, .T. ) ;
#276 = CARTESIAN_POINT ( 'NONE',  ( 0.0000000000000000000, 0.0000000000000000000, 0.0000000000000000000 ) ) ;
#277 = DIRECTION ( 'NONE',  ( 0.0000000000000000000, 1.000000000000000000, 0.0000000000000000000 ) ) ;
#278 = FACE_OUTER_BOUND ( 'NONE', #15, .T. ) ;
#279 = AXIS2_PLACEMENT_3D ( 'NONE', #261, #181, #303 ) ;
#280 = AXIS2_PLACEMENT_3D ( 'NONE', #90, #72, #49 ) ;
#281 = ORIENTED_EDGE ( 'NONE', *, *, #180, .T. ) ;
#282 = DIRECTION ( 'NONE',  ( -3.491481338843133355E-15, 1.224646799147352961E-16, -1.000000000000000000 ) ) ;
#283 = ADVANCED_FACE ( 'NONE', ( #98, #224 ), #221, .T. ) ;
#284 = DIRECTION ( 'NONE',  ( -4.275831445896957731E-31, -1.000000000000000000, -1.224646799147352961E-16 ) ) ;
#285 = PRODUCT_DEFINITION_SHAPE ( 'NONE', 'NONE',  #39 ) ;
#286 = EDGE_LOOP ( 'NONE', ( #161 ) ) ;
#287 = LOCAL_TIME ( 15, 49, 40.00000000000000000, #153 ) ;
#288 = DATE_AND_TIME ( #218, #300 ) ;
#289 = ADVANCED_FACE ( 'NONE', ( #77, #79 ), #167, .T. ) ;
#290 = CARTESIAN_POINT ( 'NONE',  ( 6.270590427156639929E-14, 1.499999999999995559, 17.95968478306212646 ) ) ;
#291 = CARTESIAN_POINT ( 'NONE',  ( 1.316288464743861212E-13, 1.499999999999998668, 37.69999999999999574 ) ) ;
#292 = AXIS2_PLACEMENT_3D ( 'NONE', #68, #70, #160 ) ;
#293 = AXIS2_PLACEMENT_3D ( 'NONE', #89, #22, #215 ) ;
#294 = DATE_AND_TIME ( #62, #287 ) ;
#295 = PERSON_AND_ORGANIZATION ( #242, #78 ) ;
#296 = CIRCLE ( 'NONE', #292, 0.5685000000000000053 ) ;
#297 = APPROVAL ( #81, 'UNSPECIFIED' ) ;
#298 = EDGE_LOOP ( 'NONE', ( #195 ) ) ;
#299 = PERSON_AND_ORGANIZATION_ROLE ( 'classification_officer' ) ;
#300 = LOCAL_TIME ( 15, 49, 40.00000000000000000, #30 ) ;
#301 = CC_DESIGN_PERSON_AND_ORGANIZATION_ASSIGNMENT ( #273, #150, ( #97 ) ) ;
#302 = DIRECTION ( 'NONE',  ( 0.0000000000000000000, 1.000000000000000000, 0.0000000000000000000 ) ) ;
#303 = DIRECTION ( 'NONE',  ( 0.0000000000000000000, 1.000000000000000000, 0.0000000000000000000 ) ) ;
ENDSEC;
END-ISO-10303-21;
