ISO-10303-21;
HEADER;
FILE_DESCRIPTION (( 'STEP AP203' ),
    '1' );
FILE_NAME ('968498.step',
    '2021-11-30T08:32:52',
    ( '' ),
    ( '' ),
    'SwSTEP 2.0',
    'SolidWorks 2019',
    '' );
FILE_SCHEMA (( 'CONFIG_CONTROL_DESIGN' ));
ENDSEC;

DATA;
#1 = CLOSED_SHELL ( 'NONE', ( #28, #296, #287, #272 ) ) ;
#2 = CALENDAR_DATE ( 2021, 30, 11 ) ;
#3 = COORDINATED_UNIVERSAL_TIME_OFFSET ( 1, 0, .AHEAD. ) ;
#4 = ADVANCED_FACE ( 'NONE', ( #139, #84 ), #243, .T. ) ;
#5 = CIRCLE ( 'NONE', #281, 1.499999999999996669 ) ;
#6 = EDGE_LOOP ( 'NONE', ( #85 ) ) ;
#7 = DIRECTION ( 'NONE',  ( 3.491481338843133355E-15, -1.224646799147353207E-16, 1.000000000000000000 ) ) ;
#8 = EDGE_LOOP ( 'NONE', ( #265 ) ) ;
#9 = CLOSED_SHELL ( 'NONE', ( #81, #209, #162, #151, #4, #127, #184, #277 ) ) ;
#10 = CARTESIAN_POINT ( 'NONE',  ( 2.444036937190193349E-14, -8.572527594031473190E-16, 7.000000000000000000 ) ) ;
#11 = DIRECTION ( 'NONE',  ( 0.0000000000000000000, 1.000000000000000000, 0.0000000000000000000 ) ) ;
#12 = CARTESIAN_POINT ( 'NONE',  ( 0.0000000000000000000, 0.0000000000000000000, 0.0000000000000000000 ) ) ;
#13 = CALENDAR_DATE ( 2021, 30, 11 ) ;
#14 = AXIS2_PLACEMENT_3D ( 'NONE', #72, #196, #130 ) ;
#15 = CYLINDRICAL_SURFACE ( 'NONE', #268, 0.8734999999999996101 ) ;
#16 = DIRECTION ( 'NONE',  ( 4.275831445896958607E-31, 1.000000000000000000, 1.224646799147353207E-16 ) ) ;
#17 = FACE_OUTER_BOUND ( 'NONE', #8, .T. ) ;
#18 = CONICAL_SURFACE ( 'NONE', #254, 1.200000000000001732, 0.7853981633974453924 ) ;
#19 = DIRECTION ( 'NONE',  ( -3.491481338843133355E-15, 1.224646799147353207E-16, -1.000000000000000000 ) ) ;
#20 = PERSON_AND_ORGANIZATION ( #37, #135 ) ;
#21 = EDGE_LOOP ( 'NONE', ( #266 ) ) ;
#22 = VERTEX_POINT ( 'NONE', #232 ) ;
#23 = EDGE_CURVE ( 'NONE', #22, #22, #229, .T. ) ;
#24 = APPROVAL_ROLE ( '' ) ;
#25 = APPROVAL_PERSON_ORGANIZATION ( #195, #131, #175 ) ;
#26 = EDGE_LOOP ( 'NONE', ( #79 ) ) ;
#27 = CARTESIAN_POINT ( 'NONE',  ( 1.745740669421566678E-13, 1.199999999999995515, 50.00000000000000000 ) ) ;
#28 = ADVANCED_FACE ( 'NONE', ( #189 ), #188, .F. ) ;
#29 = DIRECTION ( 'NONE',  ( 0.0000000000000000000, -1.000000000000000000, 0.0000000000000000000 ) ) ;
#30 = AXIS2_PLACEMENT_3D ( 'NONE', #12, #228, #300 ) ;
#31 = FACE_OUTER_BOUND ( 'NONE', #26, .T. ) ;
#32 = EDGE_LOOP ( 'NONE', ( #80 ) ) ;
#33 = CARTESIAN_POINT ( 'NONE',  ( 7.442097032003231370E-14, -2.610336251204648994E-15, 21.31501305537291913 ) ) ;
#34 = AXIS2_PLACEMENT_3D ( 'NONE', #82, #143, #104 ) ;
#35 = DATE_AND_TIME ( #211, #212 ) ;
#36 = ORIENTED_EDGE ( 'NONE', *, *, #252, .F. ) ;
#37 = PERSON ( 'UNSPECIFIED', 'UNSPECIFIED', 'UNSPECIFIED', ('UNSPECIFIED'), ('UNSPECIFIED'), ('UNSPECIFIED') ) ;
#38 = MANIFOLD_SOLID_BREP ( 'Corps-Déplacer/Copier1[2]', #1 ) ;
#39 = EDGE_CURVE ( 'NONE', #157, #157, #43, .T. ) ;
#40 = CARTESIAN_POINT ( 'NONE',  ( 1.745740669421566678E-13, 8.998558695971067645E-33, 50.00000000000000000 ) ) ;
#41 = COORDINATED_UNIVERSAL_TIME_OFFSET ( 1, 0, .AHEAD. ) ;
#42 = FACE_OUTER_BOUND ( 'NONE', #124, .T. ) ;
#43 = CIRCLE ( 'NONE', #286, 0.7700000000000006839 ) ;
#44 = FACE_BOUND ( 'NONE', #21, .T. ) ;
#45 = DIRECTION ( 'NONE',  ( 0.0000000000000000000, 1.000000000000000000, 0.0000000000000000000 ) ) ;
#46 = CARTESIAN_POINT ( 'NONE',  ( 5.935518276033326704E-14, -2.168404344971008868E-15, 17.00000000000000000 ) ) ;
#47 = CIRCLE ( 'NONE', #234, 1.200000000000001732 ) ;
#48 = PERSON_AND_ORGANIZATION ( #37, #135 ) ;
#49 = EDGE_LOOP ( 'NONE', ( #169 ) ) ;
#50 = PERSON_AND_ORGANIZATION_ROLE ( 'design_owner' ) ;
#51 = CC_DESIGN_APPROVAL ( #96, ( #59 ) ) ;
#52 = VERTEX_POINT ( 'NONE', #54 ) ;
#53 = AXIS2_PLACEMENT_3D ( 'NONE', #246, #87, #172 ) ;
#54 = CARTESIAN_POINT ( 'NONE',  ( 6.056776150402963091E-14, 0.8003844939755777599, 17.34729635533384595 ) ) ;
#55 = PERSON_AND_ORGANIZATION_ROLE ( 'design_supplier' ) ;
#56 = EDGE_LOOP ( 'NONE', ( #290 ) ) ;
#57 = ORIENTED_EDGE ( 'NONE', *, *, #226, .F. ) ;
#58 = CIRCLE ( 'NONE', #223, 0.8003844939755799803 ) ;
#59 = PRODUCT_DEFINITION ( 'UNKNOWN', '', #63, #154 ) ;
#60 = DIRECTION ( 'NONE',  ( 4.275831445896958607E-31, 1.000000000000000000, 1.224646799147353454E-16 ) ) ;
#61 = CARTESIAN_POINT ( 'NONE',  ( -5.010511485299640378E-31, 1.757450851676724591E-32, -1.435067525510482066E-16 ) ) ;
#62 = ORIENTED_EDGE ( 'NONE', *, *, #165, .T. ) ;
#63 = PRODUCT_DEFINITION_FORMATION_WITH_SPECIFIED_SOURCE ( 'ANY', '', #303, .NOT_KNOWN. ) ;
#64 = DATE_TIME_ROLE ( 'classification_date' ) ;
#65 = PLANE ( 'NONE',  #263 ) ;
#66 = ADVANCED_BREP_SHAPE_REPRESENTATION ( '968498', ( #236, #38, #114 ), #128 ) ;
#67 = DIRECTION ( 'NONE',  ( 0.0000000000000000000, 1.000000000000000000, 0.0000000000000000000 ) ) ;
#68 = PERSON_AND_ORGANIZATION_ROLE ( 'creator' ) ;
#69 = CARTESIAN_POINT ( 'NONE',  ( 7.442097032003231370E-14, -2.610336251204648994E-15, 21.31501305537291913 ) ) ;
#70 = CC_DESIGN_SECURITY_CLASSIFICATION ( #294, ( #63 ) ) ;
#71 = DIRECTION ( 'NONE',  ( -3.491481338843133355E-15, 1.224646799147353207E-16, -1.000000000000000000 ) ) ;
#72 = CARTESIAN_POINT ( 'NONE',  ( 2.444036937190193349E-14, -8.572527594031473190E-16, 7.000000000000000000 ) ) ;
#73 = COORDINATED_UNIVERSAL_TIME_OFFSET ( 1, 0, .AHEAD. ) ;
#74 = EDGE_LOOP ( 'NONE', ( #261 ) ) ;
#75 = CONICAL_SURFACE ( 'NONE', #239, 0.8734999999999991660, 0.5235987755982925984 ) ;
#76 = CARTESIAN_POINT ( 'NONE',  ( 2.444036937190193349E-14, 0.8734999999999991660, 7.000000000000000000 ) ) ;
#77 = VERTEX_POINT ( 'NONE', #76 ) ;
#78 = SECURITY_CLASSIFICATION_LEVEL ( 'unclassified' ) ;
#79 = ORIENTED_EDGE ( 'NONE', *, *, #249, .T. ) ;
#80 = ORIENTED_EDGE ( 'NONE', *, *, #252, .T. ) ;
#81 = ADVANCED_FACE ( 'NONE', ( #105 ), #120, .F. ) ;
#82 = CARTESIAN_POINT ( 'NONE',  ( 0.0000000000000000000, 0.0000000000000000000, 0.0000000000000000000 ) ) ;
#83 = AXIS2_PLACEMENT_3D ( 'NONE', #125, #200, #251 ) ;
#84 = FACE_OUTER_BOUND ( 'NONE', #136, .T. ) ;
#85 = ORIENTED_EDGE ( 'NONE', *, *, #39, .T. ) ;
#86 = DATE_AND_TIME ( #13, #192 ) ;
#87 = DIRECTION ( 'NONE',  ( 3.491481338843133355E-15, -1.224646799147353207E-16, 1.000000000000000000 ) ) ;
#88 = CIRCLE ( 'NONE', #293, 0.8735000000000000542 ) ;
#89 = PERSON_AND_ORGANIZATION ( #37, #135 ) ;
#90 = DIRECTION ( 'NONE',  ( 0.0000000000000000000, 1.000000000000000000, 0.0000000000000000000 ) ) ;
#91 = APPROVAL_DATE_TIME ( #35, #170 ) ;
#92 = CARTESIAN_POINT ( 'NONE',  ( 1.745740669421566678E-13, -6.123233995736766085E-15, 50.00000000000000000 ) ) ;
#93 = EDGE_CURVE ( 'NONE', #77, #77, #88, .T. ) ;
#94 = CARTESIAN_POINT ( 'NONE',  ( 5.935518276033326704E-14, -2.081899558550500280E-15, 17.00000000000000000 ) ) ;
#95 = DIRECTION ( 'NONE',  ( -3.491481338843133355E-15, 1.224646799147353207E-16, -1.000000000000000000 ) ) ;
#96 = APPROVAL ( #302, 'UNSPECIFIED' ) ;
#97 = APPROVAL_STATUS ( 'not_yet_approved' ) ;
#98 = PERSON_AND_ORGANIZATION_ROLE ( 'creator' ) ;
#99 = APPROVAL_PERSON_ORGANIZATION ( #112, #170, #182 ) ;
#100 = APPLICATION_CONTEXT ( 'configuration controlled 3d designs of mechanical parts and assemblies' ) ;
#101 = EDGE_LOOP ( 'NONE', ( #241 ) ) ;
#102 = EDGE_LOOP ( 'NONE', ( #148 ) ) ;
#103 = ORIENTED_EDGE ( 'NONE', *, *, #249, .F. ) ;
#104 = DIRECTION ( 'NONE',  ( 4.275831445896958607E-31, 1.000000000000000000, 1.224646799147353454E-16 ) ) ;
#105 = FACE_OUTER_BOUND ( 'NONE', #102, .T. ) ;
#106 = CARTESIAN_POINT ( 'NONE',  ( 1.735266225405037467E-13, -6.086494591762345225E-15, 49.70000000000000284 ) ) ;
#107 = AXIS2_PLACEMENT_3D ( 'NONE', #33, #193, #29 ) ;
#108 = CARTESIAN_POINT ( 'NONE',  ( 0.0000000000000000000, 0.0000000000000000000, 0.0000000000000000000 ) ) ;
#109 = DIRECTION ( 'NONE',  ( 3.491481338843133355E-15, -1.224646799147353207E-16, 1.000000000000000000 ) ) ;
#110 = FACE_OUTER_BOUND ( 'NONE', #167, .T. ) ;
#111 =( NAMED_UNIT ( * ) SI_UNIT ( $, .STERADIAN. ) SOLID_ANGLE_UNIT ( ) );
#112 = PERSON_AND_ORGANIZATION ( #37, #135 ) ;
#113 = CARTESIAN_POINT ( 'NONE',  ( 2.506627765991136552E-14, 0.7699999999999997957, 7.179267258583378997 ) ) ;
#114 = AXIS2_PLACEMENT_3D ( 'NONE', #235, #185, #163 ) ;
#115 =( LENGTH_UNIT ( ) NAMED_UNIT ( * ) SI_UNIT ( .MILLI., .METRE. ) );
#116 = DATE_AND_TIME ( #2, #147 ) ;
#117 = CIRCLE ( 'NONE', #197, 1.500000000000001554 ) ;
#118 = PRODUCT_RELATED_PRODUCT_CATEGORY ( 'detail', '', ( #303 ) ) ;
#119 = CARTESIAN_POINT ( 'NONE',  ( -2.505255742649820189E-31, 8.787254258383622955E-33, -7.175337627552410331E-17 ) ) ;
#120 = PLANE ( 'NONE',  #217 ) ;
#121 = DIRECTION ( 'NONE',  ( 3.491481338843133355E-15, -1.224646799147353207E-16, 1.000000000000000000 ) ) ;
#122 = CC_DESIGN_PERSON_AND_ORGANIZATION_ASSIGNMENT ( #48, #98, ( #59 ) ) ;
#123 = ORIENTED_EDGE ( 'NONE', *, *, #178, .F. ) ;
#124 = EDGE_LOOP ( 'NONE', ( #123 ) ) ;
#125 = CARTESIAN_POINT ( 'NONE',  ( 2.444036937190193349E-14, -8.572527594031473190E-16, 7.000000000000000000 ) ) ;
#126 = DIRECTION ( 'NONE',  ( 0.0000000000000000000, 1.000000000000000000, 0.0000000000000000000 ) ) ;
#127 = ADVANCED_FACE ( 'NONE', ( #240, #31 ), #285, .T. ) ;
#128 =( GEOMETRIC_REPRESENTATION_CONTEXT ( 3 ) GLOBAL_UNCERTAINTY_ASSIGNED_CONTEXT ( ( #274 ) ) GLOBAL_UNIT_ASSIGNED_CONTEXT ( ( #115, #181, #111 ) ) REPRESENTATION_CONTEXT ( 'NONE', 'WORKASPACE' ) );
#129 = FACE_OUTER_BOUND ( 'NONE', #267, .T. ) ;
#130 = DIRECTION ( 'NONE',  ( 0.0000000000000000000, 1.000000000000000000, 0.0000000000000000000 ) ) ;
#131 = APPROVAL ( #199, 'UNSPECIFIED' ) ;
#132 = FACE_OUTER_BOUND ( 'NONE', #49, .T. ) ;
#133 = VERTEX_POINT ( 'NONE', #137 ) ;
#134 = ORIENTED_EDGE ( 'NONE', *, *, #178, .T. ) ;
#135 = ORGANIZATION ( 'UNSPECIFIED', 'UNSPECIFIED', '' ) ;
#136 = EDGE_LOOP ( 'NONE', ( #242 ) ) ;
#137 = CARTESIAN_POINT ( 'NONE',  ( 1.735266225405037467E-13, 1.499999999999995559, 49.70000000000000284 ) ) ;
#138 = COORDINATED_UNIVERSAL_TIME_OFFSET ( 1, 0, .AHEAD. ) ;
#139 = FACE_BOUND ( 'NONE', #194, .T. ) ;
#140 = AXIS2_PLACEMENT_3D ( 'NONE', #119, #121, #220 ) ;
#141 = LOCAL_TIME ( 9, 32, 52.00000000000000000, #138 ) ;
#142 = ORIENTED_EDGE ( 'NONE', *, *, #165, .F. ) ;
#143 = DIRECTION ( 'NONE',  ( -3.491481338843133355E-15, 1.224646799147353207E-16, -1.000000000000000000 ) ) ;
#144 = CC_DESIGN_DATE_AND_TIME_ASSIGNMENT ( #289, #64, ( #294 ) ) ;
#145 = DIRECTION ( 'NONE',  ( -3.491481338843133355E-15, 1.224646799147353207E-16, -1.000000000000000000 ) ) ;
#146 = PERSON_AND_ORGANIZATION ( #37, #135 ) ;
#147 = LOCAL_TIME ( 9, 32, 52.00000000000000000, #73 ) ;
#148 = ORIENTED_EDGE ( 'NONE', *, *, #93, .T. ) ;
#149 = DIRECTION ( 'NONE',  ( 0.0000000000000000000, 1.000000000000000000, 0.0000000000000000000 ) ) ;
#150 = APPROVAL_DATE_TIME ( #86, #131 ) ;
#151 = ADVANCED_FACE ( 'NONE', ( #110, #17 ), #159, .F. ) ;
#152 = FACE_BOUND ( 'NONE', #6, .T. ) ;
#153 = DIRECTION ( 'NONE',  ( 4.409685047251831898E-31, 1.000000000000000000, 1.241215995976537386E-16 ) ) ;
#154 = DESIGN_CONTEXT ( 'detailed design', #259, 'design' ) ;
#155 = CARTESIAN_POINT ( 'NONE',  ( 1.745740669421566678E-13, -6.123233995736766085E-15, 50.00000000000000000 ) ) ;
#156 = CYLINDRICAL_SURFACE ( 'NONE', #30, 0.7700000000000004619 ) ;
#157 = VERTEX_POINT ( 'NONE', #113 ) ;
#158 = ORIENTED_EDGE ( 'NONE', *, *, #23, .T. ) ;
#159 = TOROIDAL_SURFACE ( 'NONE', #179, 2.770000000000000018, 2.000000000000000000 ) ;
#160 = CARTESIAN_POINT ( 'NONE',  ( 5.935518276033326704E-14, 0.7699999999999981304, 17.00000000000000000 ) ) ;
#161 = CARTESIAN_POINT ( 'NONE',  ( 2.444036937190193349E-14, 0.8734999999999991660, 7.000000000000000000 ) ) ;
#162 = ADVANCED_FACE ( 'NONE', ( #273, #132 ), #156, .T. ) ;
#163 = DIRECTION ( 'NONE',  ( 1.000000000000000000, 0.0000000000000000000, 0.0000000000000000000 ) ) ;
#164 = VERTEX_POINT ( 'NONE', #27 ) ;
#165 = EDGE_CURVE ( 'NONE', #164, #164, #47, .T. ) ;
#166 = EDGE_LOOP ( 'NONE', ( #103 ) ) ;
#167 = EDGE_LOOP ( 'NONE', ( #57 ) ) ;
#168 = CIRCLE ( 'NONE', #275, 0.8734999999999991660 ) ;
#169 = ORIENTED_EDGE ( 'NONE', *, *, #39, .F. ) ;
#170 = APPROVAL ( #97, 'UNSPECIFIED' ) ;
#171 = EDGE_LOOP ( 'NONE', ( #142 ) ) ;
#172 = DIRECTION ( 'NONE',  ( -4.275831445896958607E-31, -1.000000000000000000, -1.224646799147353207E-16 ) ) ;
#173 = CC_DESIGN_PERSON_AND_ORGANIZATION_ASSIGNMENT ( #146, #260, ( #294 ) ) ;
#174 = DIRECTION ( 'NONE',  ( 4.275831445896958607E-31, 1.000000000000000000, 1.224646799147353207E-16 ) ) ;
#175 = APPROVAL_ROLE ( '' ) ;
#176 = DIRECTION ( 'NONE',  ( 4.275831445896958607E-31, 1.000000000000000000, 1.224646799147353207E-16 ) ) ;
#177 = DIRECTION ( 'NONE',  ( -3.491481338843133355E-15, 1.224646799147353207E-16, -1.000000000000000000 ) ) ;
#178 = EDGE_CURVE ( 'NONE', #233, #233, #168, .T. ) ;
#179 = AXIS2_PLACEMENT_3D ( 'NONE', #46, #71, #16 ) ;
#180 = CARTESIAN_POINT ( 'NONE',  ( 6.056776150402963091E-14, -2.124431095542013992E-15, 17.34729635533384595 ) ) ;
#181 =( NAMED_UNIT ( * ) PLANE_ANGLE_UNIT ( ) SI_UNIT ( $, .RADIAN. ) );
#182 = APPROVAL_ROLE ( '' ) ;
#183 = CIRCLE ( 'NONE', #14, 0.8735000000000000542 ) ;
#184 = ADVANCED_FACE ( 'NONE', ( #269, #270 ), #18, .T. ) ;
#185 = DIRECTION ( 'NONE',  ( 0.0000000000000000000, 0.0000000000000000000, 1.000000000000000000 ) ) ;
#186 = PRODUCT_DEFINITION_SHAPE ( 'NONE', 'NONE',  #59 ) ;
#187 = LOCAL_TIME ( 9, 32, 52.00000000000000000, #3 ) ;
#188 = PLANE ( 'NONE',  #140 ) ;
#189 = FACE_OUTER_BOUND ( 'NONE', #216, .T. ) ;
#190 = CC_DESIGN_PERSON_AND_ORGANIZATION_ASSIGNMENT ( #20, #50, ( #303 ) ) ;
#191 = CIRCLE ( 'NONE', #203, 0.7700000000000001288 ) ;
#192 = LOCAL_TIME ( 9, 32, 52.00000000000000000, #41 ) ;
#193 = DIRECTION ( 'NONE',  ( 3.491481338843133355E-15, -1.224646799147353207E-16, 1.000000000000000000 ) ) ;
#194 = EDGE_LOOP ( 'NONE', ( #244 ) ) ;
#195 = PERSON_AND_ORGANIZATION ( #37, #135 ) ;
#196 = DIRECTION ( 'NONE',  ( -3.491481338843133355E-15, 1.224646799147353207E-16, -1.000000000000000000 ) ) ;
#197 = AXIS2_PLACEMENT_3D ( 'NONE', #106, #19, #90 ) ;
#198 = PLANE ( 'NONE',  #53 ) ;
#199 = APPROVAL_STATUS ( 'not_yet_approved' ) ;
#200 = DIRECTION ( 'NONE',  ( -3.491481338843133355E-15, 1.224646799147353207E-16, -1.000000000000000000 ) ) ;
#201 = DIRECTION ( 'NONE',  ( 0.0000000000000000000, 1.000000000000000000, 0.0000000000000000000 ) ) ;
#202 = CARTESIAN_POINT ( 'NONE',  ( 8.728703347107829444E-16, -3.061616997868381785E-17, 0.2499999999999998890 ) ) ;
#203 = AXIS2_PLACEMENT_3D ( 'NONE', #94, #250, #149 ) ;
#204 = APPROVAL_DATE_TIME ( #280, #96 ) ;
#205 = VERTEX_POINT ( 'NONE', #160 ) ;
#206 = EDGE_CURVE ( 'NONE', #52, #52, #58, .T. ) ;
#207 = CARTESIAN_POINT ( 'NONE',  ( 7.442097032003231370E-14, 1.499999999999994005, 21.31501305537291913 ) ) ;
#208 = CALENDAR_DATE ( 2021, 30, 11 ) ;
#209 = ADVANCED_FACE ( 'NONE', ( #152, #276 ), #247, .T. ) ;
#210 = CARTESIAN_POINT ( 'NONE',  ( 8.728703347107833388E-16, 0.8734999999999991660, 0.2500000000000000000 ) ) ;
#211 = CALENDAR_DATE ( 2021, 30, 11 ) ;
#212 = LOCAL_TIME ( 9, 32, 52.00000000000000000, #279 ) ;
#213 = DIRECTION ( 'NONE',  ( -4.275831445896958607E-31, -1.000000000000000000, -1.224646799147353207E-16 ) ) ;
#214 = CARTESIAN_POINT ( 'NONE',  ( 2.444036937190193349E-14, 6.550200850775650157E-33, 7.000000000000000000 ) ) ;
#215 = EDGE_CURVE ( 'NONE', #258, #258, #5, .T. ) ;
#216 = EDGE_LOOP ( 'NONE', ( #158 ) ) ;
#217 = AXIS2_PLACEMENT_3D ( 'NONE', #214, #7, #213 ) ;
#218 = APPROVAL_PERSON_ORGANIZATION ( #237, #96, #24 ) ;
#219 = CARTESIAN_POINT ( 'NONE',  ( 2.506627765991136552E-14, -8.792066668447528551E-16, 7.179267258583378997 ) ) ;
#220 = DIRECTION ( 'NONE',  ( -4.275831445896958607E-31, -1.000000000000000000, -1.224646799147353207E-16 ) ) ;
#221 = DIRECTION ( 'NONE',  ( -3.491481338843133355E-15, 1.224646799147353207E-16, -1.000000000000000000 ) ) ;
#222 = PERSON_AND_ORGANIZATION ( #37, #135 ) ;
#223 = AXIS2_PLACEMENT_3D ( 'NONE', #180, #248, #126 ) ;
#224 = FACE_OUTER_BOUND ( 'NONE', #32, .T. ) ;
#225 = CARTESIAN_POINT ( 'NONE',  ( 8.728703347107829444E-16, -3.061616997868381785E-17, 0.2499999999999998890 ) ) ;
#226 = EDGE_CURVE ( 'NONE', #205, #205, #191, .T. ) ;
#227 = FACE_OUTER_BOUND ( 'NONE', #171, .T. ) ;
#228 = DIRECTION ( 'NONE',  ( -3.491481338843133355E-15, 1.224646799147353207E-16, -1.000000000000000000 ) ) ;
#229 = CIRCLE ( 'NONE', #299, 0.7291624327025947316 ) ;
#230 = DATE_TIME_ROLE ( 'creation_date' ) ;
#231 = CC_DESIGN_PERSON_AND_ORGANIZATION_ASSIGNMENT ( #222, #68, ( #63 ) ) ;
#232 = CARTESIAN_POINT ( 'NONE',  ( -1.892735826383160919E-31, 0.7291624327025947316, -5.421010862427520937E-17 ) ) ;
#233 = VERTEX_POINT ( 'NONE', #210 ) ;
#234 = AXIS2_PLACEMENT_3D ( 'NONE', #155, #177, #67 ) ;
#235 = CARTESIAN_POINT ( 'NONE',  ( 0.0000000000000000000, 0.0000000000000000000, 0.0000000000000000000 ) ) ;
#236 = MANIFOLD_SOLID_BREP ( 'Corps-Déplacer/Copier1[1]', #9 ) ;
#237 = PERSON_AND_ORGANIZATION ( #37, #135 ) ;
#238 = EDGE_LOOP ( 'NONE', ( #36 ) ) ;
#239 = AXIS2_PLACEMENT_3D ( 'NONE', #225, #109, #298 ) ;
#240 = FACE_OUTER_BOUND ( 'NONE', #56, .T. ) ;
#241 = ORIENTED_EDGE ( 'NONE', *, *, #93, .F. ) ;
#242 = ORIENTED_EDGE ( 'NONE', *, *, #215, .T. ) ;
#243 = CONICAL_SURFACE ( 'NONE', #107, 1.499999999999996669, 0.1745329251994263420 ) ;
#244 = ORIENTED_EDGE ( 'NONE', *, *, #206, .F. ) ;
#245 = DIRECTION ( 'NONE',  ( -3.491481338843133355E-15, 1.224646799147353207E-16, -1.000000000000000000 ) ) ;
#246 = CARTESIAN_POINT ( 'NONE',  ( 2.444036937190193349E-14, 6.550200850775650157E-33, 7.000000000000000000 ) ) ;
#247 = CONICAL_SURFACE ( 'NONE', #83, 0.8735000000000000542, 0.5235987755982955960 ) ;
#248 = DIRECTION ( 'NONE',  ( -3.491481338843133355E-15, 1.224646799147353207E-16, -1.000000000000000000 ) ) ;
#249 = EDGE_CURVE ( 'NONE', #133, #133, #117, .T. ) ;
#250 = DIRECTION ( 'NONE',  ( -3.491481338843133355E-15, 1.224646799147353207E-16, -1.000000000000000000 ) ) ;
#251 = DIRECTION ( 'NONE',  ( 0.0000000000000000000, 1.000000000000000000, 0.0000000000000000000 ) ) ;
#252 = EDGE_CURVE ( 'NONE', #301, #301, #183, .T. ) ;
#253 = APPLICATION_PROTOCOL_DEFINITION ( 'international standard', 'config_control_design', 1994, #100 ) ;
#254 = AXIS2_PLACEMENT_3D ( 'NONE', #92, #95, #201 ) ;
#255 = MECHANICAL_CONTEXT ( 'NONE', #100, 'mechanical' ) ;
#256 = CC_DESIGN_PERSON_AND_ORGANIZATION_ASSIGNMENT ( #89, #55, ( #63 ) ) ;
#257 = CC_DESIGN_APPROVAL ( #131, ( #294 ) ) ;
#258 = VERTEX_POINT ( 'NONE', #207 ) ;
#259 = APPLICATION_CONTEXT ( 'configuration controlled 3d designs of mechanical parts and assemblies' ) ;
#260 = PERSON_AND_ORGANIZATION_ROLE ( 'classification_officer' ) ;
#261 = ORIENTED_EDGE ( 'NONE', *, *, #226, .T. ) ;
#262 = DIRECTION ( 'NONE',  ( -3.491481338843133355E-15, 1.224646799147353207E-16, -1.000000000000000000 ) ) ;
#263 = AXIS2_PLACEMENT_3D ( 'NONE', #40, #295, #174 ) ;
#264 = CC_DESIGN_APPROVAL ( #170, ( #63 ) ) ;
#265 = ORIENTED_EDGE ( 'NONE', *, *, #206, .T. ) ;
#266 = ORIENTED_EDGE ( 'NONE', *, *, #23, .F. ) ;
#267 = EDGE_LOOP ( 'NONE', ( #134 ) ) ;
#268 = AXIS2_PLACEMENT_3D ( 'NONE', #108, #297, #176 ) ;
#269 = FACE_OUTER_BOUND ( 'NONE', #166, .T. ) ;
#270 = FACE_BOUND ( 'NONE', #288, .T. ) ;
#271 = SHAPE_DEFINITION_REPRESENTATION ( #186, #66 ) ;
#272 = ADVANCED_FACE ( 'NONE', ( #291 ), #198, .T. ) ;
#273 = FACE_OUTER_BOUND ( 'NONE', #74, .T. ) ;
#274 = UNCERTAINTY_MEASURE_WITH_UNIT (LENGTH_MEASURE( 1.000000000000000082E-05 ), #115, 'distance_accuracy_value', 'NONE');
#275 = AXIS2_PLACEMENT_3D ( 'NONE', #202, #245, #153 ) ;
#276 = FACE_OUTER_BOUND ( 'NONE', #101, .T. ) ;
#277 = ADVANCED_FACE ( 'NONE', ( #227 ), #65, .F. ) ;
#278 = APPLICATION_PROTOCOL_DEFINITION ( 'international standard', 'config_control_design', 1994, #259 ) ;
#279 = COORDINATED_UNIVERSAL_TIME_OFFSET ( 1, 0, .AHEAD. ) ;
#280 = DATE_AND_TIME ( #208, #187 ) ;
#281 = AXIS2_PLACEMENT_3D ( 'NONE', #69, #221, #45 ) ;
#282 = DIRECTION ( 'NONE',  ( -3.491481338843133355E-15, 1.224646799147353207E-16, -1.000000000000000000 ) ) ;
#283 = CC_DESIGN_DATE_AND_TIME_ASSIGNMENT ( #116, #230, ( #59 ) ) ;
#284 = DIRECTION ( 'NONE',  ( 0.0000000000000000000, 1.000000000000000000, 0.0000000000000000000 ) ) ;
#285 = CYLINDRICAL_SURFACE ( 'NONE', #34, 1.499999999999999112 ) ;
#286 = AXIS2_PLACEMENT_3D ( 'NONE', #219, #282, #11 ) ;
#287 = ADVANCED_FACE ( 'NONE', ( #42, #224 ), #15, .T. ) ;
#288 = EDGE_LOOP ( 'NONE', ( #62 ) ) ;
#289 = DATE_AND_TIME ( #292, #141 ) ;
#290 = ORIENTED_EDGE ( 'NONE', *, *, #215, .F. ) ;
#291 = FACE_OUTER_BOUND ( 'NONE', #238, .T. ) ;
#292 = CALENDAR_DATE ( 2021, 30, 11 ) ;
#293 = AXIS2_PLACEMENT_3D ( 'NONE', #10, #262, #284 ) ;
#294 = SECURITY_CLASSIFICATION ( '', '', #78 ) ;
#295 = DIRECTION ( 'NONE',  ( -3.491481338843133355E-15, 1.224646799147353207E-16, -1.000000000000000000 ) ) ;
#296 = ADVANCED_FACE ( 'NONE', ( #44, #129 ), #75, .T. ) ;
#297 = DIRECTION ( 'NONE',  ( -3.491481338843133355E-15, 1.224646799147353207E-16, -1.000000000000000000 ) ) ;
#298 = DIRECTION ( 'NONE',  ( -4.409685047251831898E-31, -1.000000000000000000, -1.241215995976537386E-16 ) ) ;
#299 = AXIS2_PLACEMENT_3D ( 'NONE', #61, #145, #60 ) ;
#300 = DIRECTION ( 'NONE',  ( 4.275831445896958607E-31, 1.000000000000000000, 1.224646799147353207E-16 ) ) ;
#301 = VERTEX_POINT ( 'NONE', #161 ) ;
#302 = APPROVAL_STATUS ( 'not_yet_approved' ) ;
#303 = PRODUCT ( '968498', '968498', '', ( #255 ) ) ;
ENDSEC;
END-ISO-10303-21;
