ISO-10303-21;
HEADER;
FILE_DESCRIPTION (( 'STEP AP203' ),
    '1' );
FILE_NAME ('968449.step',
    '2021-11-30T06:45:17',
    ( '' ),
    ( '' ),
    'SwSTEP 2.0',
    'SolidWorks 2019',
    '' );
FILE_SCHEMA (( 'CONFIG_CONTROL_DESIGN' ));
ENDSEC;

DATA;
#1 = ORIENTED_EDGE ( 'NONE', *, *, #196, .F. ) ;
#2 = ADVANCED_FACE ( 'NONE', ( #131 ), #78, .T. ) ;
#3 = DIRECTION ( 'NONE',  ( 4.275831445896959482E-31, 1.000000000000000000, 1.224646799147353207E-16 ) ) ;
#4 = EDGE_CURVE ( 'NONE', #43, #43, #189, .T. ) ;
#5 = ORIENTED_EDGE ( 'NONE', *, *, #265, .F. ) ;
#6 = DIRECTION ( 'NONE',  ( -3.491481338843133355E-15, 1.224646799147353207E-16, -1.000000000000000000 ) ) ;
#7 = EDGE_LOOP ( 'NONE', ( #1 ) ) ;
#8 = VERTEX_POINT ( 'NONE', #25 ) ;
#9 = ORIENTED_EDGE ( 'NONE', *, *, #23, .T. ) ;
#10 = DIRECTION ( 'NONE',  ( -4.275831445896958607E-31, -1.000000000000000000, -1.224646799147353207E-16 ) ) ;
#11 = CIRCLE ( 'NONE', #51, 1.200000000000001732 ) ;
#12 = DIRECTION ( 'NONE',  ( 0.0000000000000000000, 1.000000000000000000, 0.0000000000000000000 ) ) ;
#13 = EDGE_LOOP ( 'NONE', ( #187 ) ) ;
#14 = APPROVAL ( #303, 'UNSPECIFIED' ) ;
#15 = FACE_OUTER_BOUND ( 'NONE', #294, .T. ) ;
#16 = DATE_AND_TIME ( #296, #263 ) ;
#17 = CONICAL_SURFACE ( 'NONE', #151, 0.9399999999999987255, 0.5235987755982941527 ) ;
#18 = AXIS2_PLACEMENT_3D ( 'NONE', #230, #54, #156 ) ;
#19 = DIRECTION ( 'NONE',  ( 3.491481338843133355E-15, -1.224646799147353207E-16, 1.000000000000000000 ) ) ;
#20 = DIRECTION ( 'NONE',  ( 1.000000000000000000, 0.0000000000000000000, 0.0000000000000000000 ) ) ;
#21 = CARTESIAN_POINT ( 'NONE',  ( 1.745740669421566678E-13, 8.998558695971067645E-33, 50.00000000000000000 ) ) ;
#22 = PERSON_AND_ORGANIZATION ( #97, #197 ) ;
#23 = EDGE_CURVE ( 'NONE', #69, #69, #176, .T. ) ;
#24 = CONICAL_SURFACE ( 'NONE', #71, 1.499999999999996669, 0.1745329251994257314 ) ;
#25 = CARTESIAN_POINT ( 'NONE',  ( 2.886013015238225878E-14, 0.9399999999999978373, 8.265869798961826831 ) ) ;
#26 = ADVANCED_FACE ( 'NONE', ( #29, #193 ), #254, .T. ) ;
#27 = EDGE_LOOP ( 'NONE', ( #231 ) ) ;
#28 = CIRCLE ( 'NONE', #283, 1.500000000000001554 ) ;
#29 = FACE_OUTER_BOUND ( 'NONE', #13, .T. ) ;
#30 = CARTESIAN_POINT ( 'NONE',  ( 1.745740669421566678E-13, -6.123233995736766085E-15, 50.00000000000000000 ) ) ;
#31 = CARTESIAN_POINT ( 'NONE',  ( 0.0000000000000000000, 0.0000000000000000000, 0.0000000000000000000 ) ) ;
#32 = DIRECTION ( 'NONE',  ( -4.275831445896958607E-31, -1.000000000000000000, -1.224646799147353207E-16 ) ) ;
#33 = AXIS2_PLACEMENT_3D ( 'NONE', #133, #270, #118 ) ;
#34 = PERSON_AND_ORGANIZATION_ROLE ( 'creator' ) ;
#35 = CARTESIAN_POINT ( 'NONE',  ( 1.745740669421566678E-13, 1.199999999999995515, 50.00000000000000000 ) ) ;
#36 = APPROVAL_STATUS ( 'not_yet_approved' ) ;
#37 = AXIS2_PLACEMENT_3D ( 'NONE', #192, #274, #157 ) ;
#38 = UNCERTAINTY_MEASURE_WITH_UNIT (LENGTH_MEASURE( 1.000000000000000082E-05 ), #216, 'distance_accuracy_value', 'NONE');
#39 = COORDINATED_UNIVERSAL_TIME_OFFSET ( 1, 0, .AHEAD. ) ;
#40 = VERTEX_POINT ( 'NONE', #35 ) ;
#41 = CONICAL_SURFACE ( 'NONE', #262, 1.093499999999998806, 0.5235987755982922653 ) ;
#42 = CIRCLE ( 'NONE', #251, 0.9491624327025944829 ) ;
#43 = VERTEX_POINT ( 'NONE', #150 ) ;
#44 = APPROVAL_ROLE ( '' ) ;
#45 = EDGE_LOOP ( 'NONE', ( #74 ) ) ;
#46 = CARTESIAN_POINT ( 'NONE',  ( 8.728703347107833388E-16, 1.093499999999998806, 0.2500000000000000000 ) ) ;
#47 =( GEOMETRIC_REPRESENTATION_CONTEXT ( 3 ) GLOBAL_UNCERTAINTY_ASSIGNED_CONTEXT ( ( #38 ) ) GLOBAL_UNIT_ASSIGNED_CONTEXT ( ( #216, #242, #139 ) ) REPRESENTATION_CONTEXT ( 'NONE', 'WORKASPACE' ) );
#48 = EDGE_LOOP ( 'NONE', ( #292 ) ) ;
#49 = ADVANCED_FACE ( 'NONE', ( #237 ), #233, .F. ) ;
#50 = DIRECTION ( 'NONE',  ( -3.491481338843133355E-15, 1.224646799147353207E-16, -1.000000000000000000 ) ) ;
#51 = AXIS2_PLACEMENT_3D ( 'NONE', #30, #132, #191 ) ;
#52 = EDGE_LOOP ( 'NONE', ( #293 ) ) ;
#53 = PRODUCT_DEFINITION_SHAPE ( 'NONE', 'NONE',  #207 ) ;
#54 = DIRECTION ( 'NONE',  ( -3.491481338843133355E-15, 1.224646799147353207E-16, -1.000000000000000000 ) ) ;
#55 = CARTESIAN_POINT ( 'NONE',  ( 7.454625196998764291E-14, -2.614730539952603354E-15, 21.35089514603786753 ) ) ;
#56 = ORIENTED_EDGE ( 'NONE', *, *, #4, .F. ) ;
#57 = AXIS2_PLACEMENT_3D ( 'NONE', #55, #205, #79 ) ;
#58 = LOCAL_TIME ( 7, 45, 17.00000000000000000, #117 ) ;
#59 = PERSON_AND_ORGANIZATION ( #97, #197 ) ;
#60 = PRODUCT ( '968449', '968449', '', ( #282 ) ) ;
#61 = CYLINDRICAL_SURFACE ( 'NONE', #246, 1.499999999999999112 ) ;
#62 = CARTESIAN_POINT ( 'NONE',  ( 2.793185071074506684E-14, 1.093499999999998806, 8.000000000000000000 ) ) ;
#63 = FACE_OUTER_BOUND ( 'NONE', #96, .T. ) ;
#64 = DATE_AND_TIME ( #279, #147 ) ;
#65 = CIRCLE ( 'NONE', #72, 1.093499999999999917 ) ;
#66 = DIRECTION ( 'NONE',  ( 0.0000000000000000000, 1.000000000000000000, 0.0000000000000000000 ) ) ;
#67 = SECURITY_CLASSIFICATION_LEVEL ( 'unclassified' ) ;
#68 = CC_DESIGN_DATE_AND_TIME_ASSIGNMENT ( #16, #87, ( #207 ) ) ;
#69 = VERTEX_POINT ( 'NONE', #46 ) ;
#70 = CARTESIAN_POINT ( 'NONE',  ( 2.886013015238225878E-14, -1.012277099146737755E-15, 8.265869798961826831 ) ) ;
#71 = AXIS2_PLACEMENT_3D ( 'NONE', #144, #195, #140 ) ;
#72 = AXIS2_PLACEMENT_3D ( 'NONE', #129, #6, #289 ) ;
#73 = EDGE_CURVE ( 'NONE', #95, #95, #28, .T. ) ;
#74 = ORIENTED_EDGE ( 'NONE', *, *, #267, .F. ) ;
#75 = FACE_OUTER_BOUND ( 'NONE', #228, .T. ) ;
#76 = AXIS2_PLACEMENT_3D ( 'NONE', #81, #138, #239 ) ;
#77 = FACE_BOUND ( 'NONE', #185, .T. ) ;
#78 = PLANE ( 'NONE',  #219 ) ;
#79 = DIRECTION ( 'NONE',  ( 0.0000000000000000000, 1.000000000000000000, 0.0000000000000000000 ) ) ;
#80 = ADVANCED_FACE ( 'NONE', ( #258, #215 ), #24, .T. ) ;
#81 = CARTESIAN_POINT ( 'NONE',  ( 6.284666409917640040E-14, -2.168404344971008868E-15, 18.00000000000000000 ) ) ;
#82 = DIRECTION ( 'NONE',  ( -3.491481338843133355E-15, 1.224646799147353207E-16, -1.000000000000000000 ) ) ;
#83 = PERSON_AND_ORGANIZATION ( #97, #197 ) ;
#84 = DIRECTION ( 'NONE',  ( -3.491481338843133355E-15, 1.224646799147353207E-16, -1.000000000000000000 ) ) ;
#85 = PERSON_AND_ORGANIZATION ( #97, #197 ) ;
#86 = FACE_OUTER_BOUND ( 'NONE', #45, .T. ) ;
#87 = DATE_TIME_ROLE ( 'creation_date' ) ;
#88 = DIRECTION ( 'NONE',  ( -3.491481338843133355E-15, 1.224646799147353207E-16, -1.000000000000000000 ) ) ;
#89 = CALENDAR_DATE ( 2021, 30, 11 ) ;
#90 = TOROIDAL_SURFACE ( 'NONE', #76, 2.939999999999999947, 2.000000000000000000 ) ;
#91 = APPROVAL_PERSON_ORGANIZATION ( #162, #104, #143 ) ;
#92 = CYLINDRICAL_SURFACE ( 'NONE', #142, 0.9399999999999992806 ) ;
#93 = COORDINATED_UNIVERSAL_TIME_OFFSET ( 1, 0, .AHEAD. ) ;
#94 = APPLICATION_CONTEXT ( 'configuration controlled 3d designs of mechanical parts and assemblies' ) ;
#95 = VERTEX_POINT ( 'NONE', #126 ) ;
#96 = EDGE_LOOP ( 'NONE', ( #204 ) ) ;
#97 = PERSON ( 'UNSPECIFIED', 'UNSPECIFIED', 'UNSPECIFIED', ('UNSPECIFIED'), ('UNSPECIFIED'), ('UNSPECIFIED') ) ;
#98 = SHAPE_DEFINITION_REPRESENTATION ( #53, #194 ) ;
#99 = EDGE_LOOP ( 'NONE', ( #155 ) ) ;
#100 = EDGE_LOOP ( 'NONE', ( #202 ) ) ;
#101 = VERTEX_POINT ( 'NONE', #186 ) ;
#102 = CC_DESIGN_APPROVAL ( #104, ( #207 ) ) ;
#103 = ORIENTED_EDGE ( 'NONE', *, *, #267, .T. ) ;
#104 = APPROVAL ( #36, 'UNSPECIFIED' ) ;
#105 = ADVANCED_FACE ( 'NONE', ( #86 ), #298, .F. ) ;
#106 = CARTESIAN_POINT ( 'NONE',  ( 2.793185071074506684E-14, 8.199936611703689146E-33, 8.000000000000000000 ) ) ;
#107 = DIRECTION ( 'NONE',  ( -4.275831445896958607E-31, -1.000000000000000000, -1.224646799147353207E-16 ) ) ;
#108 = CARTESIAN_POINT ( 'NONE',  ( 2.793185071074506684E-14, 8.199936611703689146E-33, 8.000000000000000000 ) ) ;
#109 = CARTESIAN_POINT ( 'NONE',  ( 0.0000000000000000000, 0.0000000000000000000, 0.0000000000000000000 ) ) ;
#110 = APPLICATION_PROTOCOL_DEFINITION ( 'international standard', 'config_control_design', 1994, #115 ) ;
#111 = CC_DESIGN_PERSON_AND_ORGANIZATION_ASSIGNMENT ( #277, #34, ( #297 ) ) ;
#112 = AXIS2_PLACEMENT_3D ( 'NONE', #167, #235, #107 ) ;
#113 = PERSON_AND_ORGANIZATION_ROLE ( 'design_supplier' ) ;
#114 = CARTESIAN_POINT ( 'NONE',  ( 6.284666409917640040E-14, -2.204364238465235428E-15, 18.00000000000000000 ) ) ;
#115 = APPLICATION_CONTEXT ( 'configuration controlled 3d designs of mechanical parts and assemblies' ) ;
#116 = CARTESIAN_POINT ( 'NONE',  ( 6.405924284287273902E-14, -2.246895775456748746E-15, 18.34729635533384240 ) ) ;
#117 = COORDINATED_UNIVERSAL_TIME_OFFSET ( 1, 0, .AHEAD. ) ;
#118 = DIRECTION ( 'NONE',  ( 0.0000000000000000000, 1.000000000000000000, 0.0000000000000000000 ) ) ;
#119 = CARTESIAN_POINT ( 'NONE',  ( 0.0000000000000000000, 0.0000000000000000000, 0.0000000000000000000 ) ) ;
#120 = APPLICATION_PROTOCOL_DEFINITION ( 'international standard', 'config_control_design', 1994, #94 ) ;
#121 = CLOSED_SHELL ( 'NONE', ( #49, #236, #247, #135, #80, #165, #255, #105 ) ) ;
#122 = EDGE_CURVE ( 'NONE', #101, #101, #278, .T. ) ;
#123 = CONICAL_SURFACE ( 'NONE', #18, 1.200000000000001732, 0.7853981633974453924 ) ;
#124 = FACE_BOUND ( 'NONE', #27, .T. ) ;
#125 = CIRCLE ( 'NONE', #227, 0.9399999999999998357 ) ;
#126 = CARTESIAN_POINT ( 'NONE',  ( 1.735266225405037467E-13, 1.499999999999995559, 49.70000000000000284 ) ) ;
#127 = CC_DESIGN_PERSON_AND_ORGANIZATION_ASSIGNMENT ( #22, #266, ( #203 ) ) ;
#128 = CC_DESIGN_PERSON_AND_ORGANIZATION_ASSIGNMENT ( #85, #163, ( #60 ) ) ;
#129 = CARTESIAN_POINT ( 'NONE',  ( 2.793185071074506684E-14, -9.797174393178825657E-16, 8.000000000000000000 ) ) ;
#130 = EDGE_LOOP ( 'NONE', ( #206 ) ) ;
#131 = FACE_OUTER_BOUND ( 'NONE', #226, .T. ) ;
#132 = DIRECTION ( 'NONE',  ( -3.491481338843133355E-15, 1.224646799147353207E-16, -1.000000000000000000 ) ) ;
#133 = CARTESIAN_POINT ( 'NONE',  ( 2.793185071074506684E-14, -9.797174393178825657E-16, 8.000000000000000000 ) ) ;
#134 = DIRECTION ( 'NONE',  ( 3.491481338843133355E-15, -1.224646799147353207E-16, 1.000000000000000000 ) ) ;
#135 = ADVANCED_FACE ( 'NONE', ( #280, #161 ), #90, .F. ) ;
#136 = PLANE ( 'NONE',  #112 ) ;
#137 = DIRECTION ( 'NONE',  ( -3.491481338843133355E-15, 1.224646799147353207E-16, -1.000000000000000000 ) ) ;
#138 = DIRECTION ( 'NONE',  ( -3.491481338843133355E-15, 1.224646799147353207E-16, -1.000000000000000000 ) ) ;
#139 =( NAMED_UNIT ( * ) SI_UNIT ( $, .STERADIAN. ) SOLID_ANGLE_UNIT ( ) );
#140 = DIRECTION ( 'NONE',  ( 0.0000000000000000000, -1.000000000000000000, 0.0000000000000000000 ) ) ;
#141 = COORDINATED_UNIVERSAL_TIME_OFFSET ( 1, 0, .AHEAD. ) ;
#142 = AXIS2_PLACEMENT_3D ( 'NONE', #119, #50, #3 ) ;
#143 = APPROVAL_ROLE ( '' ) ;
#144 = CARTESIAN_POINT ( 'NONE',  ( 7.454625196998764291E-14, -2.614730539952603354E-15, 21.35089514603786753 ) ) ;
#145 = DATE_AND_TIME ( #89, #234 ) ;
#146 = DATE_TIME_ROLE ( 'classification_date' ) ;
#147 = LOCAL_TIME ( 7, 45, 17.00000000000000000, #141 ) ;
#148 = FACE_OUTER_BOUND ( 'NONE', #232, .T. ) ;
#149 = DIRECTION ( 'NONE',  ( -3.491481338843133355E-15, 1.224646799147353207E-16, -1.000000000000000000 ) ) ;
#150 = CARTESIAN_POINT ( 'NONE',  ( 7.454625196998764291E-14, 1.499999999999994005, 21.35089514603786753 ) ) ;
#151 = AXIS2_PLACEMENT_3D ( 'NONE', #171, #178, #224 ) ;
#152 = COORDINATED_UNIVERSAL_TIME_OFFSET ( 1, 0, .AHEAD. ) ;
#153 = CIRCLE ( 'NONE', #200, 0.9399999999999987255 ) ;
#154 = APPROVAL_PERSON_ORGANIZATION ( #168, #180, #264 ) ;
#155 = ORIENTED_EDGE ( 'NONE', *, *, #210, .F. ) ;
#156 = DIRECTION ( 'NONE',  ( 0.0000000000000000000, 1.000000000000000000, 0.0000000000000000000 ) ) ;
#157 = DIRECTION ( 'NONE',  ( 3.522505613876978321E-31, 1.000000000000000000, 9.914971856291774894E-17 ) ) ;
#158 = ORIENTED_EDGE ( 'NONE', *, *, #196, .T. ) ;
#159 = MANIFOLD_SOLID_BREP ( 'Corps-Déplacer/Copier1[1]', #121 ) ;
#160 = VERTEX_POINT ( 'NONE', #62 ) ;
#161 = FACE_OUTER_BOUND ( 'NONE', #288, .T. ) ;
#162 = PERSON_AND_ORGANIZATION ( #97, #197 ) ;
#163 = PERSON_AND_ORGANIZATION_ROLE ( 'design_owner' ) ;
#164 = CARTESIAN_POINT ( 'NONE',  ( 6.284666409917640040E-14, 0.9399999999999977263, 18.00000000000000000 ) ) ;
#165 = ADVANCED_FACE ( 'NONE', ( #15, #301 ), #61, .T. ) ;
#166 = CLOSED_SHELL ( 'NONE', ( #213, #184, #26, #2 ) ) ;
#167 = CARTESIAN_POINT ( 'NONE',  ( -2.975597201698485215E-31, 1.043699001931166605E-32, -8.522449106614498341E-17 ) ) ;
#168 = PERSON_AND_ORGANIZATION ( #97, #197 ) ;
#169 = CARTESIAN_POINT ( 'NONE',  ( -5.951194403396970431E-31, 2.087398003862333210E-32, -1.704489821322899668E-16 ) ) ;
#170 = DATE_AND_TIME ( #302, #58 ) ;
#171 = CARTESIAN_POINT ( 'NONE',  ( 2.886013015238225878E-14, -1.012277099146737755E-15, 8.265869798961826831 ) ) ;
#172 = MANIFOLD_SOLID_BREP ( 'Corps-Déplacer/Copier1[2]', #166 ) ;
#173 = VERTEX_POINT ( 'NONE', #295 ) ;
#174 = CC_DESIGN_DATE_AND_TIME_ASSIGNMENT ( #170, #146, ( #203 ) ) ;
#175 = FACE_OUTER_BOUND ( 'NONE', #209, .T. ) ;
#176 = CIRCLE ( 'NONE', #37, 1.093499999999998806 ) ;
#177 = DIRECTION ( 'NONE',  ( -3.491481338843133355E-15, 1.224646799147353207E-16, -1.000000000000000000 ) ) ;
#178 = DIRECTION ( 'NONE',  ( -3.491481338843133355E-15, 1.224646799147353207E-16, -1.000000000000000000 ) ) ;
#179 = EDGE_LOOP ( 'NONE', ( #290 ) ) ;
#180 = APPROVAL ( #285, 'UNSPECIFIED' ) ;
#181 = DATE_AND_TIME ( #248, #252 ) ;
#182 = AXIS2_PLACEMENT_3D ( 'NONE', #108, #253, #10 ) ;
#183 = AXIS2_PLACEMENT_3D ( 'NONE', #212, #221, #20 ) ;
#184 = ADVANCED_FACE ( 'NONE', ( #211, #217 ), #41, .T. ) ;
#185 = EDGE_LOOP ( 'NONE', ( #103 ) ) ;
#186 = CARTESIAN_POINT ( 'NONE',  ( 6.405924284287273902E-14, 0.9703844939755791321, 18.34729635533384240 ) ) ;
#187 = ORIENTED_EDGE ( 'NONE', *, *, #23, .F. ) ;
#188 = EDGE_LOOP ( 'NONE', ( #256 ) ) ;
#189 = CIRCLE ( 'NONE', #57, 1.499999999999996669 ) ;
#190 = CC_DESIGN_APPROVAL ( #180, ( #297 ) ) ;
#191 = DIRECTION ( 'NONE',  ( 0.0000000000000000000, 1.000000000000000000, 0.0000000000000000000 ) ) ;
#192 = CARTESIAN_POINT ( 'NONE',  ( 8.728703347107829444E-16, -3.061616997868381785E-17, 0.2499999999999998890 ) ) ;
#193 = FACE_OUTER_BOUND ( 'NONE', #48, .T. ) ;
#194 = ADVANCED_BREP_SHAPE_REPRESENTATION ( '968449', ( #159, #172, #183 ), #47 ) ;
#195 = DIRECTION ( 'NONE',  ( 3.491481338843133355E-15, -1.224646799147353207E-16, 1.000000000000000000 ) ) ;
#196 = EDGE_CURVE ( 'NONE', #241, #241, #125, .T. ) ;
#197 = ORGANIZATION ( 'UNSPECIFIED', 'UNSPECIFIED', '' ) ;
#198 = CARTESIAN_POINT ( 'NONE',  ( 2.793185071074506684E-14, 1.093499999999998806, 8.000000000000000000 ) ) ;
#199 = DIRECTION ( 'NONE',  ( 4.275831445896958607E-31, 1.000000000000000000, 1.224646799147353207E-16 ) ) ;
#200 = AXIS2_PLACEMENT_3D ( 'NONE', #70, #177, #268 ) ;
#201 = APPROVAL_PERSON_ORGANIZATION ( #59, #14, #44 ) ;
#202 = ORIENTED_EDGE ( 'NONE', *, *, #73, .T. ) ;
#203 = SECURITY_CLASSIFICATION ( '', '', #67 ) ;
#204 = ORIENTED_EDGE ( 'NONE', *, *, #210, .T. ) ;
#205 = DIRECTION ( 'NONE',  ( -3.491481338843133355E-15, 1.224646799147353207E-16, -1.000000000000000000 ) ) ;
#206 = ORIENTED_EDGE ( 'NONE', *, *, #122, .F. ) ;
#207 = PRODUCT_DEFINITION ( 'UNKNOWN', '', #297, #243 ) ;
#208 = FACE_OUTER_BOUND ( 'NONE', #179, .T. ) ;
#209 = EDGE_LOOP ( 'NONE', ( #158 ) ) ;
#210 = EDGE_CURVE ( 'NONE', #173, #173, #42, .T. ) ;
#211 = FACE_BOUND ( 'NONE', #99, .T. ) ;
#212 = CARTESIAN_POINT ( 'NONE',  ( 0.0000000000000000000, 0.0000000000000000000, 0.0000000000000000000 ) ) ;
#213 = ADVANCED_FACE ( 'NONE', ( #63 ), #136, .F. ) ;
#214 = AXIS2_PLACEMENT_3D ( 'NONE', #116, #84, #240 ) ;
#215 = FACE_OUTER_BOUND ( 'NONE', #52, .T. ) ;
#216 =( LENGTH_UNIT ( ) NAMED_UNIT ( * ) SI_UNIT ( .MILLI., .METRE. ) );
#217 = FACE_OUTER_BOUND ( 'NONE', #291, .T. ) ;
#218 = PERSON_AND_ORGANIZATION ( #97, #197 ) ;
#219 = AXIS2_PLACEMENT_3D ( 'NONE', #106, #134, #32 ) ;
#220 = CC_DESIGN_SECURITY_CLASSIFICATION ( #203, ( #297 ) ) ;
#221 = DIRECTION ( 'NONE',  ( 0.0000000000000000000, 0.0000000000000000000, 1.000000000000000000 ) ) ;
#222 = CC_DESIGN_PERSON_AND_ORGANIZATION_ASSIGNMENT ( #83, #113, ( #297 ) ) ;
#223 = CARTESIAN_POINT ( 'NONE',  ( 1.735266225405037467E-13, -6.086494591762345225E-15, 49.70000000000000284 ) ) ;
#224 = DIRECTION ( 'NONE',  ( 0.0000000000000000000, 1.000000000000000000, 0.0000000000000000000 ) ) ;
#225 = APPROVAL_DATE_TIME ( #181, #14 ) ;
#226 = EDGE_LOOP ( 'NONE', ( #5 ) ) ;
#227 = AXIS2_PLACEMENT_3D ( 'NONE', #114, #88, #66 ) ;
#228 = EDGE_LOOP ( 'NONE', ( #269 ) ) ;
#229 = CC_DESIGN_APPROVAL ( #14, ( #203 ) ) ;
#230 = CARTESIAN_POINT ( 'NONE',  ( 1.745740669421566678E-13, -6.123233995736766085E-15, 50.00000000000000000 ) ) ;
#231 = ORIENTED_EDGE ( 'NONE', *, *, #238, .T. ) ;
#232 = EDGE_LOOP ( 'NONE', ( #272 ) ) ;
#233 = PLANE ( 'NONE',  #182 ) ;
#234 = LOCAL_TIME ( 7, 45, 17.00000000000000000, #39 ) ;
#235 = DIRECTION ( 'NONE',  ( 3.491481338843133355E-15, -1.224646799147353207E-16, 1.000000000000000000 ) ) ;
#236 = ADVANCED_FACE ( 'NONE', ( #208, #124 ), #17, .T. ) ;
#237 = FACE_OUTER_BOUND ( 'NONE', #188, .T. ) ;
#238 = EDGE_CURVE ( 'NONE', #8, #8, #153, .T. ) ;
#239 = DIRECTION ( 'NONE',  ( 4.275831445896958607E-31, 1.000000000000000000, 1.224646799147353207E-16 ) ) ;
#240 = DIRECTION ( 'NONE',  ( 0.0000000000000000000, 1.000000000000000000, 0.0000000000000000000 ) ) ;
#241 = VERTEX_POINT ( 'NONE', #164 ) ;
#242 =( NAMED_UNIT ( * ) PLANE_ANGLE_UNIT ( ) SI_UNIT ( $, .RADIAN. ) );
#243 = DESIGN_CONTEXT ( 'detailed design', #94, 'design' ) ;
#244 = APPROVAL_DATE_TIME ( #145, #180 ) ;
#245 = VERTEX_POINT ( 'NONE', #198 ) ;
#246 = AXIS2_PLACEMENT_3D ( 'NONE', #109, #82, #261 ) ;
#247 = ADVANCED_FACE ( 'NONE', ( #148, #175 ), #92, .T. ) ;
#248 = CALENDAR_DATE ( 2021, 30, 11 ) ;
#249 = AXIS2_PLACEMENT_3D ( 'NONE', #31, #137, #275 ) ;
#250 = CC_DESIGN_PERSON_AND_ORGANIZATION_ASSIGNMENT ( #218, #300, ( #207 ) ) ;
#251 = AXIS2_PLACEMENT_3D ( 'NONE', #169, #299, #199 ) ;
#252 = LOCAL_TIME ( 7, 45, 17.00000000000000000, #152 ) ;
#253 = DIRECTION ( 'NONE',  ( 3.491481338843133355E-15, -1.224646799147353207E-16, 1.000000000000000000 ) ) ;
#254 = CYLINDRICAL_SURFACE ( 'NONE', #249, 1.093499999999999472 ) ;
#255 = ADVANCED_FACE ( 'NONE', ( #75, #77 ), #123, .T. ) ;
#256 = ORIENTED_EDGE ( 'NONE', *, *, #286, .T. ) ;
#257 = AXIS2_PLACEMENT_3D ( 'NONE', #21, #284, #276 ) ;
#258 = FACE_BOUND ( 'NONE', #130, .T. ) ;
#259 = APPROVAL_DATE_TIME ( #64, #104 ) ;
#260 = CARTESIAN_POINT ( 'NONE',  ( 8.728703347107829444E-16, -3.061616997868381785E-17, 0.2499999999999998890 ) ) ;
#261 = DIRECTION ( 'NONE',  ( 4.275831445896958607E-31, 1.000000000000000000, 1.224646799147353454E-16 ) ) ;
#262 = AXIS2_PLACEMENT_3D ( 'NONE', #260, #19, #281 ) ;
#263 = LOCAL_TIME ( 7, 45, 17.00000000000000000, #93 ) ;
#264 = APPROVAL_ROLE ( '' ) ;
#265 = EDGE_CURVE ( 'NONE', #160, #160, #287, .T. ) ;
#266 = PERSON_AND_ORGANIZATION_ROLE ( 'classification_officer' ) ;
#267 = EDGE_CURVE ( 'NONE', #40, #40, #11, .T. ) ;
#268 = DIRECTION ( 'NONE',  ( 0.0000000000000000000, 1.000000000000000000, 0.0000000000000000000 ) ) ;
#269 = ORIENTED_EDGE ( 'NONE', *, *, #73, .F. ) ;
#270 = DIRECTION ( 'NONE',  ( -3.491481338843133355E-15, 1.224646799147353207E-16, -1.000000000000000000 ) ) ;
#271 = PRODUCT_RELATED_PRODUCT_CATEGORY ( 'detail', '', ( #60 ) ) ;
#272 = ORIENTED_EDGE ( 'NONE', *, *, #238, .F. ) ;
#273 = ORIENTED_EDGE ( 'NONE', *, *, #122, .T. ) ;
#274 = DIRECTION ( 'NONE',  ( -3.491481338843133355E-15, 1.224646799147353207E-16, -1.000000000000000000 ) ) ;
#275 = DIRECTION ( 'NONE',  ( 4.275831445896957731E-31, 1.000000000000000000, 1.224646799147353207E-16 ) ) ;
#276 = DIRECTION ( 'NONE',  ( 4.275831445896958607E-31, 1.000000000000000000, 1.224646799147353207E-16 ) ) ;
#277 = PERSON_AND_ORGANIZATION ( #97, #197 ) ;
#278 = CIRCLE ( 'NONE', #214, 0.9703844939755813526 ) ;
#279 = CALENDAR_DATE ( 2021, 30, 11 ) ;
#280 = FACE_OUTER_BOUND ( 'NONE', #7, .T. ) ;
#281 = DIRECTION ( 'NONE',  ( -3.522505613876978321E-31, -1.000000000000000000, -9.914971856291774894E-17 ) ) ;
#282 = MECHANICAL_CONTEXT ( 'NONE', #115, 'mechanical' ) ;
#283 = AXIS2_PLACEMENT_3D ( 'NONE', #223, #149, #12 ) ;
#284 = DIRECTION ( 'NONE',  ( -3.491481338843133355E-15, 1.224646799147353207E-16, -1.000000000000000000 ) ) ;
#285 = APPROVAL_STATUS ( 'not_yet_approved' ) ;
#286 = EDGE_CURVE ( 'NONE', #245, #245, #65, .T. ) ;
#287 = CIRCLE ( 'NONE', #33, 1.093499999999999917 ) ;
#288 = EDGE_LOOP ( 'NONE', ( #273 ) ) ;
#289 = DIRECTION ( 'NONE',  ( 0.0000000000000000000, 1.000000000000000000, 0.0000000000000000000 ) ) ;
#290 = ORIENTED_EDGE ( 'NONE', *, *, #286, .F. ) ;
#291 = EDGE_LOOP ( 'NONE', ( #9 ) ) ;
#292 = ORIENTED_EDGE ( 'NONE', *, *, #265, .T. ) ;
#293 = ORIENTED_EDGE ( 'NONE', *, *, #4, .T. ) ;
#294 = EDGE_LOOP ( 'NONE', ( #56 ) ) ;
#295 = CARTESIAN_POINT ( 'NONE',  ( -1.892735826383161356E-31, 0.9491624327025944829, -5.421010862427522170E-17 ) ) ;
#296 = CALENDAR_DATE ( 2021, 30, 11 ) ;
#297 = PRODUCT_DEFINITION_FORMATION_WITH_SPECIFIED_SOURCE ( 'ANY', '', #60, .NOT_KNOWN. ) ;
#298 = PLANE ( 'NONE',  #257 ) ;
#299 = DIRECTION ( 'NONE',  ( -3.491481338843133355E-15, 1.224646799147353207E-16, -1.000000000000000000 ) ) ;
#300 = PERSON_AND_ORGANIZATION_ROLE ( 'creator' ) ;
#301 = FACE_OUTER_BOUND ( 'NONE', #100, .T. ) ;
#302 = CALENDAR_DATE ( 2021, 30, 11 ) ;
#303 = APPROVAL_STATUS ( 'not_yet_approved' ) ;
ENDSEC;
END-ISO-10303-21;
