ISO-10303-21;
HEADER;
FILE_DESCRIPTION (( 'STEP AP203' ),
    '1' );
FILE_NAME ('968242.step',
    '2021-11-29T14:58:50',
    ( '' ),
    ( '' ),
    'SwSTEP 2.0',
    'SolidWorks 2019',
    '' );
FILE_SCHEMA (( 'CONFIG_CONTROL_DESIGN' ));
ENDSEC;

DATA;
#1 = EDGE_LOOP ( 'NONE', ( #264 ) ) ;
#2 = CLOSED_SHELL ( 'NONE', ( #26, #254, #170, #123 ) ) ;
#3 = AXIS2_PLACEMENT_3D ( 'NONE', #147, #92, #166 ) ;
#4 = DIRECTION ( 'NONE',  ( -3.491481338843133355E-15, 1.224646799147352961E-16, -1.000000000000000000 ) ) ;
#5 = EDGE_LOOP ( 'NONE', ( #172 ) ) ;
#6 = CALENDAR_DATE ( 2021, 29, 11 ) ;
#7 = DIRECTION ( 'NONE',  ( -4.275831445896957731E-31, -1.000000000000000000, -1.224646799147352961E-16 ) ) ;
#8 = CARTESIAN_POINT ( 'NONE',  ( 2.130266228280327256E-14, -7.471968097814934922E-16, 6.101324972242782252 ) ) ;
#9 = SECURITY_CLASSIFICATION_LEVEL ( 'unclassified' ) ;
#10 = CARTESIAN_POINT ( 'NONE',  ( 6.332621528753465015E-14, -2.221184629893844062E-15, 18.13734891921752279 ) ) ;
#11 = PLANE ( 'NONE',  #151 ) ;
#12 = CONICAL_SURFACE ( 'NONE', #263, 0.6834999999999992193, 0.5235987755982925984 ) ;
#13 = EDGE_LOOP ( 'NONE', ( #85 ) ) ;
#14 = PRODUCT_DEFINITION ( 'UNKNOWN', '', #136, #148 ) ;
#15 = DIRECTION ( 'NONE',  ( 0.0000000000000000000, 1.000000000000000000, 0.0000000000000000000 ) ) ;
#16 = FACE_OUTER_BOUND ( 'NONE', #59, .T. ) ;
#17 = PERSON_AND_ORGANIZATION ( #28, #242 ) ;
#18 = CARTESIAN_POINT ( 'NONE',  ( 4.538925740496073362E-14, -1.592040838891558701E-15, 13.00000000000000000 ) ) ;
#19 = VERTEX_POINT ( 'NONE', #209 ) ;
#20 = PERSON_AND_ORGANIZATION ( #28, #242 ) ;
#21 = ADVANCED_FACE ( 'NONE', ( #80 ), #175, .F. ) ;
#22 = TOROIDAL_SURFACE ( 'NONE', #57, 2.625000000000000000, 2.000000000000000000 ) ;
#23 = FACE_OUTER_BOUND ( 'NONE', #282, .T. ) ;
#24 = SHAPE_DEFINITION_REPRESENTATION ( #284, #110 ) ;
#25 = VERTEX_POINT ( 'NONE', #115 ) ;
#26 = ADVANCED_FACE ( 'NONE', ( #174 ), #132, .F. ) ;
#27 = CC_DESIGN_APPROVAL ( #239, ( #185 ) ) ;
#28 = PERSON ( 'UNSPECIFIED', 'UNSPECIFIED', 'UNSPECIFIED', ('UNSPECIFIED'), ('UNSPECIFIED'), ('UNSPECIFIED') ) ;
#29 = DIRECTION ( 'NONE',  ( -3.491481338843133355E-15, 1.224646799147352961E-16, -1.000000000000000000 ) ) ;
#30 = ORIENTED_EDGE ( 'NONE', *, *, #197, .F. ) ;
#31 = EDGE_CURVE ( 'NONE', #279, #279, #164, .T. ) ;
#32 = FACE_OUTER_BOUND ( 'NONE', #222, .T. ) ;
#33 = AXIS2_PLACEMENT_3D ( 'NONE', #50, #121, #120 ) ;
#34 = FACE_OUTER_BOUND ( 'NONE', #37, .T. ) ;
#35 = EDGE_LOOP ( 'NONE', ( #131 ) ) ;
#36 = APPROVAL_ROLE ( '' ) ;
#37 = EDGE_LOOP ( 'NONE', ( #77 ) ) ;
#38 = PERSON_AND_ORGANIZATION ( #28, #242 ) ;
#39 = EDGE_LOOP ( 'NONE', ( #240 ) ) ;
#40 = CALENDAR_DATE ( 2021, 29, 11 ) ;
#41 = CIRCLE ( 'NONE', #33, 0.5391624327025947849 ) ;
#42 = VERTEX_POINT ( 'NONE', #140 ) ;
#43 = CALENDAR_DATE ( 2021, 29, 11 ) ;
#44 = EDGE_CURVE ( 'NONE', #73, #73, #82, .T. ) ;
#45 = CARTESIAN_POINT ( 'NONE',  ( 1.316288464743861212E-13, 1.499999999999998668, 37.69999999999999574 ) ) ;
#46 = APPLICATION_CONTEXT ( 'configuration controlled 3d designs of mechanical parts and assemblies' ) ;
#47 = AXIS2_PLACEMENT_3D ( 'NONE', #18, #113, #192 ) ;
#48 = CIRCLE ( 'NONE', #217, 0.6834999999999992193 ) ;
#49 = DIRECTION ( 'NONE',  ( -3.491481338843133355E-15, 1.224646799147352961E-16, -1.000000000000000000 ) ) ;
#50 = CARTESIAN_POINT ( 'NONE',  ( -4.198103510579218611E-31, 1.472496492970971481E-32, -1.202384633672484979E-16 ) ) ;
#51 = APPROVAL ( #60, 'UNSPECIFIED' ) ;
#52 = AXIS2_PLACEMENT_3D ( 'NONE', #102, #267, #288 ) ;
#53 = EDGE_CURVE ( 'NONE', #167, #167, #143, .T. ) ;
#54 = AXIS2_PLACEMENT_3D ( 'NONE', #145, #277, #118 ) ;
#55 = CYLINDRICAL_SURFACE ( 'NONE', #171, 0.6249999999999995559 ) ;
#56 = EDGE_LOOP ( 'NONE', ( #129 ) ) ;
#57 = AXIS2_PLACEMENT_3D ( 'NONE', #220, #62, #156 ) ;
#58 = DIRECTION ( 'NONE',  ( -4.275831445896957731E-31, -1.000000000000000000, -1.224646799147352961E-16 ) ) ;
#59 = EDGE_LOOP ( 'NONE', ( #243 ) ) ;
#60 = APPROVAL_STATUS ( 'not_yet_approved' ) ;
#61 = CC_DESIGN_DATE_AND_TIME_ASSIGNMENT ( #181, #81, ( #14 ) ) ;
#62 = DIRECTION ( 'NONE',  ( -3.491481338843133355E-15, 1.224646799147352961E-16, -1.000000000000000000 ) ) ;
#63 = ORIENTED_EDGE ( 'NONE', *, *, #265, .F. ) ;
#64 = DIRECTION ( 'NONE',  ( 0.0000000000000000000, 0.0000000000000000000, 1.000000000000000000 ) ) ;
#65 = APPROVAL_DATE_TIME ( #270, #51 ) ;
#66 = DIRECTION ( 'NONE',  ( 0.0000000000000000000, -1.000000000000000000, 0.0000000000000000000 ) ) ;
#67 = PERSON_AND_ORGANIZATION ( #28, #242 ) ;
#68 = FACE_BOUND ( 'NONE', #285, .T. ) ;
#69 = COORDINATED_UNIVERSAL_TIME_OFFSET ( 1, 0, .AHEAD. ) ;
#70 = CARTESIAN_POINT ( 'NONE',  ( 2.094888803305880013E-14, 0.6834999999999992193, 6.000000000000000000 ) ) ;
#71 = DIRECTION ( 'NONE',  ( -5.635493619275019885E-31, -1.000000000000000000, -1.586250435238486713E-16 ) ) ;
#72 = EDGE_CURVE ( 'NONE', #25, #25, #241, .T. ) ;
#73 = VERTEX_POINT ( 'NONE', #274 ) ;
#74 = UNCERTAINTY_MEASURE_WITH_UNIT (LENGTH_MEASURE( 1.000000000000000082E-05 ), #280, 'distance_accuracy_value', 'NONE');
#75 = CARTESIAN_POINT ( 'NONE',  ( 4.660183614865709118E-14, -1.634572375883072414E-15, 13.34729635533384595 ) ) ;
#76 = LOCAL_TIME ( 15, 58, 50.00000000000000000, #160 ) ;
#77 = ORIENTED_EDGE ( 'NONE', *, *, #72, .T. ) ;
#78 = CARTESIAN_POINT ( 'NONE',  ( 0.0000000000000000000, 0.0000000000000000000, 0.0000000000000000000 ) ) ;
#79 = EDGE_LOOP ( 'NONE', ( #150 ) ) ;
#80 = FACE_OUTER_BOUND ( 'NONE', #1, .T. ) ;
#81 = DATE_TIME_ROLE ( 'creation_date' ) ;
#82 = CIRCLE ( 'NONE', #266, 1.499999999999997558 ) ;
#83 = AXIS2_PLACEMENT_3D ( 'NONE', #84, #137, #206 ) ;
#84 = CARTESIAN_POINT ( 'NONE',  ( 1.326762908760390423E-13, -4.653657836759941152E-15, 38.00000000000000000 ) ) ;
#85 = ORIENTED_EDGE ( 'NONE', *, *, #258, .T. ) ;
#86 = CARTESIAN_POINT ( 'NONE',  ( 0.0000000000000000000, 0.0000000000000000000, 0.0000000000000000000 ) ) ;
#87 = APPROVAL_STATUS ( 'not_yet_approved' ) ;
#88 = AXIS2_PLACEMENT_3D ( 'NONE', #104, #202, #289 ) ;
#89 = EDGE_CURVE ( 'NONE', #249, #249, #253, .T. ) ;
#90 = AXIS2_PLACEMENT_3D ( 'NONE', #215, #98, #281 ) ;
#91 = DIRECTION ( 'NONE',  ( 4.275831445896957731E-31, 1.000000000000000000, 1.224646799147352961E-16 ) ) ;
#92 = DIRECTION ( 'NONE',  ( -3.491481338843133355E-15, 1.224646799147352961E-16, -1.000000000000000000 ) ) ;
#93 = FACE_OUTER_BOUND ( 'NONE', #79, .T. ) ;
#94 = CARTESIAN_POINT ( 'NONE',  ( 2.094888803305880013E-14, -7.347880794884118750E-16, 6.000000000000000000 ) ) ;
#95 = LOCAL_TIME ( 15, 58, 50.00000000000000000, #69 ) ;
#96 = DIRECTION ( 'NONE',  ( 4.275831445896957731E-31, 1.000000000000000000, 1.224646799147352714E-16 ) ) ;
#97 = CC_DESIGN_PERSON_AND_ORGANIZATION_ASSIGNMENT ( #17, #157, ( #136 ) ) ;
#98 = DIRECTION ( 'NONE',  ( -3.491481338843133355E-15, 1.224646799147352961E-16, -1.000000000000000000 ) ) ;
#99 = APPLICATION_CONTEXT ( 'configuration controlled 3d designs of mechanical parts and assemblies' ) ;
#100 = AXIS2_PLACEMENT_3D ( 'NONE', #298, #117, #96 ) ;
#101 = EDGE_CURVE ( 'NONE', #42, #42, #116, .T. ) ;
#102 = CARTESIAN_POINT ( 'NONE',  ( 2.094888803305880013E-14, 5.125429057246884608E-33, 6.000000000000000000 ) ) ;
#103 = APPROVAL_DATE_TIME ( #183, #208 ) ;
#104 = CARTESIAN_POINT ( 'NONE',  ( 2.094888803305880013E-14, -7.347880794884118750E-16, 6.000000000000000000 ) ) ;
#105 = ORIENTED_EDGE ( 'NONE', *, *, #44, .F. ) ;
#106 = APPROVAL_DATE_TIME ( #177, #239 ) ;
#107 = CC_DESIGN_APPROVAL ( #208, ( #14 ) ) ;
#108 = FACE_OUTER_BOUND ( 'NONE', #287, .T. ) ;
#109 = PERSON_AND_ORGANIZATION_ROLE ( 'classification_officer' ) ;
#110 = ADVANCED_BREP_SHAPE_REPRESENTATION ( '968242', ( #262, #257, #165 ), #127 ) ;
#111 = CARTESIAN_POINT ( 'NONE',  ( 2.130266228280327256E-14, -7.471968097814934922E-16, 6.101324972242782252 ) ) ;
#112 = COORDINATED_UNIVERSAL_TIME_OFFSET ( 1, 0, .AHEAD. ) ;
#113 = DIRECTION ( 'NONE',  ( -3.491481338843133355E-15, 1.224646799147352961E-16, -1.000000000000000000 ) ) ;
#114 = PRODUCT_RELATED_PRODUCT_CATEGORY ( 'detail', '', ( #302 ) ) ;
#115 = CARTESIAN_POINT ( 'NONE',  ( 4.538925740496073362E-14, 0.6249999999999983347, 13.00000000000000000 ) ) ;
#116 = CIRCLE ( 'NONE', #90, 1.200000000000003286 ) ;
#117 = DIRECTION ( 'NONE',  ( -3.491481338843133355E-15, 1.224646799147352961E-16, -1.000000000000000000 ) ) ;
#118 = DIRECTION ( 'NONE',  ( 4.275831445896957731E-31, 1.000000000000000000, 1.224646799147353207E-16 ) ) ;
#119 = ADVANCED_FACE ( 'NONE', ( #205, #225 ), #190, .T. ) ;
#120 = DIRECTION ( 'NONE',  ( 4.275831445896957731E-31, 1.000000000000000000, 1.224646799147353207E-16 ) ) ;
#121 = DIRECTION ( 'NONE',  ( -3.491481338843133355E-15, 1.224646799147352961E-16, -1.000000000000000000 ) ) ;
#122 = APPROVAL_PERSON_ORGANIZATION ( #38, #51, #36 ) ;
#123 = ADVANCED_FACE ( 'NONE', ( #32 ), #11, .T. ) ;
#124 = ORIENTED_EDGE ( 'NONE', *, *, #89, .F. ) ;
#125 = EDGE_LOOP ( 'NONE', ( #203 ) ) ;
#126 = DIRECTION ( 'NONE',  ( 3.491481338843133355E-15, -1.224646799147352961E-16, 1.000000000000000000 ) ) ;
#127 =( GEOMETRIC_REPRESENTATION_CONTEXT ( 3 ) GLOBAL_UNCERTAINTY_ASSIGNED_CONTEXT ( ( #74 ) ) GLOBAL_UNIT_ASSIGNED_CONTEXT ( ( #280, #168, #169 ) ) REPRESENTATION_CONTEXT ( 'NONE', 'WORKASPACE' ) );
#128 = DIRECTION ( 'NONE',  ( -3.491481338843133355E-15, 1.224646799147352961E-16, -1.000000000000000000 ) ) ;
#129 = ORIENTED_EDGE ( 'NONE', *, *, #31, .F. ) ;
#130 = APPROVAL_ROLE ( '' ) ;
#131 = ORIENTED_EDGE ( 'NONE', *, *, #101, .T. ) ;
#132 = PLANE ( 'NONE',  #219 ) ;
#133 = EDGE_LOOP ( 'NONE', ( #227 ) ) ;
#134 = CALENDAR_DATE ( 2021, 29, 11 ) ;
#135 = LOCAL_TIME ( 15, 58, 50.00000000000000000, #112 ) ;
#136 = PRODUCT_DEFINITION_FORMATION_WITH_SPECIFIED_SOURCE ( 'ANY', '', #302, .NOT_KNOWN. ) ;
#137 = DIRECTION ( 'NONE',  ( -3.491481338843133355E-15, 1.224646799147352961E-16, -1.000000000000000000 ) ) ;
#138 = ADVANCED_FACE ( 'NONE', ( #178, #199 ), #22, .F. ) ;
#139 = MECHANICAL_CONTEXT ( 'NONE', #99, 'mechanical' ) ;
#140 = CARTESIAN_POINT ( 'NONE',  ( 1.326762908760390423E-13, 1.199999999999998845, 38.00000000000000000 ) ) ;
#141 = DATE_AND_TIME ( #43, #76 ) ;
#142 = VERTEX_POINT ( 'NONE', #234 ) ;
#143 = CIRCLE ( 'NONE', #176, 0.6249999999999991118 ) ;
#144 = CONICAL_SURFACE ( 'NONE', #295, 1.499999999999997558, 0.1745329251994260922 ) ;
#145 = CARTESIAN_POINT ( 'NONE',  ( 0.0000000000000000000, 0.0000000000000000000, 0.0000000000000000000 ) ) ;
#146 = CARTESIAN_POINT ( 'NONE',  ( 6.332621528753465015E-14, -2.221184629893844062E-15, 18.13734891921752279 ) ) ;
#147 = CARTESIAN_POINT ( 'NONE',  ( 1.316288464743861212E-13, -4.616918432785520292E-15, 37.69999999999999574 ) ) ;
#148 = DESIGN_CONTEXT ( 'detailed design', #46, 'design' ) ;
#149 = ADVANCED_FACE ( 'NONE', ( #108, #247 ), #193, .T. ) ;
#150 = ORIENTED_EDGE ( 'NONE', *, *, #258, .F. ) ;
#151 = AXIS2_PLACEMENT_3D ( 'NONE', #291, #126, #58 ) ;
#152 = CARTESIAN_POINT ( 'NONE',  ( -2.099051755289609305E-31, 7.362482464854857407E-33, -6.011923168362424895E-17 ) ) ;
#153 = PERSON_AND_ORGANIZATION ( #28, #242 ) ;
#154 = ORIENTED_EDGE ( 'NONE', *, *, #276, .F. ) ;
#155 = DIRECTION ( 'NONE',  ( 1.000000000000000000, 0.0000000000000000000, 0.0000000000000000000 ) ) ;
#156 = DIRECTION ( 'NONE',  ( 4.275831445896957731E-31, 1.000000000000000000, 1.224646799147352961E-16 ) ) ;
#157 = PERSON_AND_ORGANIZATION_ROLE ( 'creator' ) ;
#158 = CIRCLE ( 'NONE', #3, 1.500000000000003331 ) ;
#159 = DIRECTION ( 'NONE',  ( -3.491481338843133355E-15, 1.224646799147352961E-16, -1.000000000000000000 ) ) ;
#160 = COORDINATED_UNIVERSAL_TIME_OFFSET ( 1, 0, .AHEAD. ) ;
#161 = CARTESIAN_POINT ( 'NONE',  ( -1.892735826383161794E-31, 0.5391624327025947849, -5.421010862427522170E-17 ) ) ;
#162 = ADVANCED_FACE ( 'NONE', ( #16, #34 ), #55, .T. ) ;
#163 = PLANE ( 'NONE',  #300 ) ;
#164 = CIRCLE ( 'NONE', #88, 0.6834999999999999964 ) ;
#165 = AXIS2_PLACEMENT_3D ( 'NONE', #86, #64, #155 ) ;
#166 = DIRECTION ( 'NONE',  ( 0.0000000000000000000, 1.000000000000000000, 0.0000000000000000000 ) ) ;
#167 = VERTEX_POINT ( 'NONE', #256 ) ;
#168 =( NAMED_UNIT ( * ) PLANE_ANGLE_UNIT ( ) SI_UNIT ( $, .RADIAN. ) );
#169 =( NAMED_UNIT ( * ) SI_UNIT ( $, .STERADIAN. ) SOLID_ANGLE_UNIT ( ) );
#170 = ADVANCED_FACE ( 'NONE', ( #93, #23 ), #186, .T. ) ;
#171 = AXIS2_PLACEMENT_3D ( 'NONE', #78, #4, #173 ) ;
#172 = ORIENTED_EDGE ( 'NONE', *, *, #89, .T. ) ;
#173 = DIRECTION ( 'NONE',  ( 4.275831445896958607E-31, 1.000000000000000000, 1.224646799147353207E-16 ) ) ;
#174 = FACE_OUTER_BOUND ( 'NONE', #125, .T. ) ;
#175 = PLANE ( 'NONE',  #52 ) ;
#176 = AXIS2_PLACEMENT_3D ( 'NONE', #111, #231, #182 ) ;
#177 = DATE_AND_TIME ( #6, #283 ) ;
#178 = FACE_OUTER_BOUND ( 'NONE', #133, .T. ) ;
#179 = EDGE_LOOP ( 'NONE', ( #105 ) ) ;
#180 = COORDINATED_UNIVERSAL_TIME_OFFSET ( 1, 0, .AHEAD. ) ;
#181 = DATE_AND_TIME ( #269, #278 ) ;
#182 = DIRECTION ( 'NONE',  ( 0.0000000000000000000, 1.000000000000000000, 0.0000000000000000000 ) ) ;
#183 = DATE_AND_TIME ( #40, #95 ) ;
#184 = CLOSED_SHELL ( 'NONE', ( #21, #119, #162, #138, #236, #250, #149, #216 ) ) ;
#185 = SECURITY_CLASSIFICATION ( '', '', #9 ) ;
#186 = CYLINDRICAL_SURFACE ( 'NONE', #100, 0.6834999999999996634 ) ;
#187 = PERSON_AND_ORGANIZATION ( #28, #242 ) ;
#188 = DIRECTION ( 'NONE',  ( 5.635493619275019885E-31, 1.000000000000000000, 1.586250435238486713E-16 ) ) ;
#189 = FACE_OUTER_BOUND ( 'NONE', #179, .T. ) ;
#190 = CONICAL_SURFACE ( 'NONE', #259, 0.6249999999999991118, 0.5235987755982943748 ) ;
#191 = DIRECTION ( 'NONE',  ( -3.491481338843133355E-15, 1.224646799147352961E-16, -1.000000000000000000 ) ) ;
#192 = DIRECTION ( 'NONE',  ( 0.0000000000000000000, 1.000000000000000000, 0.0000000000000000000 ) ) ;
#193 = CONICAL_SURFACE ( 'NONE', #83, 1.200000000000003286, 0.7853981633974453924 ) ;
#194 = CC_DESIGN_PERSON_AND_ORGANIZATION_ASSIGNMENT ( #210, #201, ( #302 ) ) ;
#195 = EDGE_LOOP ( 'NONE', ( #200 ) ) ;
#196 = CIRCLE ( 'NONE', #261, 0.6834999999999999964 ) ;
#197 = EDGE_CURVE ( 'NONE', #232, #232, #41, .T. ) ;
#198 = ORIENTED_EDGE ( 'NONE', *, *, #276, .T. ) ;
#199 = FACE_OUTER_BOUND ( 'NONE', #5, .T. ) ;
#200 = ORIENTED_EDGE ( 'NONE', *, *, #101, .F. ) ;
#201 = PERSON_AND_ORGANIZATION_ROLE ( 'design_owner' ) ;
#202 = DIRECTION ( 'NONE',  ( -3.491481338843133355E-15, 1.224646799147352961E-16, -1.000000000000000000 ) ) ;
#203 = ORIENTED_EDGE ( 'NONE', *, *, #197, .T. ) ;
#204 = AXIS2_PLACEMENT_3D ( 'NONE', #75, #29, #218 ) ;
#205 = FACE_OUTER_BOUND ( 'NONE', #56, .T. ) ;
#206 = DIRECTION ( 'NONE',  ( 0.0000000000000000000, 1.000000000000000000, 0.0000000000000000000 ) ) ;
#207 = PERSON_AND_ORGANIZATION ( #28, #242 ) ;
#208 = APPROVAL ( #87, 'UNSPECIFIED' ) ;
#209 = CARTESIAN_POINT ( 'NONE',  ( 8.728703347107835360E-16, 0.6834999999999992193, 0.2500000000000000555 ) ) ;
#210 = PERSON_AND_ORGANIZATION ( #28, #242 ) ;
#211 = FACE_OUTER_BOUND ( 'NONE', #195, .T. ) ;
#212 = FACE_OUTER_BOUND ( 'NONE', #13, .T. ) ;
#213 = FACE_BOUND ( 'NONE', #226, .T. ) ;
#214 = CC_DESIGN_APPROVAL ( #51, ( #136 ) ) ;
#215 = CARTESIAN_POINT ( 'NONE',  ( 1.326762908760390423E-13, -4.653657836759941152E-15, 38.00000000000000000 ) ) ;
#216 = ADVANCED_FACE ( 'NONE', ( #211 ), #163, .F. ) ;
#217 = AXIS2_PLACEMENT_3D ( 'NONE', #299, #159, #188 ) ;
#218 = DIRECTION ( 'NONE',  ( 0.0000000000000000000, 1.000000000000000000, 0.0000000000000000000 ) ) ;
#219 = AXIS2_PLACEMENT_3D ( 'NONE', #152, #224, #7 ) ;
#220 = CARTESIAN_POINT ( 'NONE',  ( 4.538925740496073362E-14, -1.734723475976807094E-15, 13.00000000000000000 ) ) ;
#221 = DIRECTION ( 'NONE',  ( 0.0000000000000000000, 1.000000000000000000, 0.0000000000000000000 ) ) ;
#222 = EDGE_LOOP ( 'NONE', ( #154 ) ) ;
#223 = COORDINATED_UNIVERSAL_TIME_OFFSET ( 1, 0, .AHEAD. ) ;
#224 = DIRECTION ( 'NONE',  ( 3.491481338843133355E-15, -1.224646799147352961E-16, 1.000000000000000000 ) ) ;
#225 = FACE_BOUND ( 'NONE', #245, .T. ) ;
#226 = EDGE_LOOP ( 'NONE', ( #30 ) ) ;
#227 = ORIENTED_EDGE ( 'NONE', *, *, #72, .F. ) ;
#228 = APPLICATION_PROTOCOL_DEFINITION ( 'international standard', 'config_control_design', 1994, #46 ) ;
#229 = APPROVAL_PERSON_ORGANIZATION ( #187, #208, #246 ) ;
#230 = DIRECTION ( 'NONE',  ( -3.491481338843133355E-15, 1.224646799147352961E-16, -1.000000000000000000 ) ) ;
#231 = DIRECTION ( 'NONE',  ( -3.491481338843133355E-15, 1.224646799147352961E-16, -1.000000000000000000 ) ) ;
#232 = VERTEX_POINT ( 'NONE', #161 ) ;
#233 = DATE_TIME_ROLE ( 'classification_date' ) ;
#234 = CARTESIAN_POINT ( 'NONE',  ( 2.094888803305880013E-14, 0.6834999999999992193, 6.000000000000000000 ) ) ;
#235 = CARTESIAN_POINT ( 'NONE',  ( 1.326762908760390423E-13, 8.998558695971099120E-33, 38.00000000000000000 ) ) ;
#236 = ADVANCED_FACE ( 'NONE', ( #68, #255 ), #144, .T. ) ;
#237 = DIRECTION ( 'NONE',  ( 3.491481338843133355E-15, -1.224646799147352961E-16, 1.000000000000000000 ) ) ;
#238 = CC_DESIGN_SECURITY_CLASSIFICATION ( #185, ( #136 ) ) ;
#239 = APPROVAL ( #296, 'UNSPECIFIED' ) ;
#240 = ORIENTED_EDGE ( 'NONE', *, *, #44, .T. ) ;
#241 = CIRCLE ( 'NONE', #47, 0.6250000000000000000 ) ;
#242 = ORGANIZATION ( 'UNSPECIFIED', 'UNSPECIFIED', '' ) ;
#243 = ORIENTED_EDGE ( 'NONE', *, *, #53, .F. ) ;
#244 = PERSON_AND_ORGANIZATION_ROLE ( 'creator' ) ;
#245 = EDGE_LOOP ( 'NONE', ( #303 ) ) ;
#246 = APPROVAL_ROLE ( '' ) ;
#247 = FACE_BOUND ( 'NONE', #35, .T. ) ;
#248 = APPROVAL_PERSON_ORGANIZATION ( #20, #239, #130 ) ;
#249 = VERTEX_POINT ( 'NONE', #294 ) ;
#250 = ADVANCED_FACE ( 'NONE', ( #189, #297 ), #252, .T. ) ;
#251 = VERTEX_POINT ( 'NONE', #45 ) ;
#252 = CYLINDRICAL_SURFACE ( 'NONE', #54, 1.500000000000000444 ) ;
#253 = CIRCLE ( 'NONE', #204, 0.6553844939755811838 ) ;
#254 = ADVANCED_FACE ( 'NONE', ( #213, #212 ), #12, .T. ) ;
#255 = FACE_OUTER_BOUND ( 'NONE', #39, .T. ) ;
#256 = CARTESIAN_POINT ( 'NONE',  ( 2.130266228280327256E-14, 0.6249999999999983347, 6.101324972242782252 ) ) ;
#257 = MANIFOLD_SOLID_BREP ( 'Corps-Déplacer/Copier1[2]', #2 ) ;
#258 = EDGE_CURVE ( 'NONE', #19, #19, #48, .T. ) ;
#259 = AXIS2_PLACEMENT_3D ( 'NONE', #8, #128, #221 ) ;
#260 = CC_DESIGN_PERSON_AND_ORGANIZATION_ASSIGNMENT ( #153, #244, ( #14 ) ) ;
#261 = AXIS2_PLACEMENT_3D ( 'NONE', #94, #191, #275 ) ;
#262 = MANIFOLD_SOLID_BREP ( 'Corps-Déplacer/Copier1[1]', #184 ) ;
#263 = AXIS2_PLACEMENT_3D ( 'NONE', #301, #237, #71 ) ;
#264 = ORIENTED_EDGE ( 'NONE', *, *, #31, .T. ) ;
#265 = EDGE_CURVE ( 'NONE', #251, #251, #158, .T. ) ;
#266 = AXIS2_PLACEMENT_3D ( 'NONE', #10, #230, #15 ) ;
#267 = DIRECTION ( 'NONE',  ( 3.491481338843133355E-15, -1.224646799147352961E-16, 1.000000000000000000 ) ) ;
#268 = EDGE_LOOP ( 'NONE', ( #290 ) ) ;
#269 = CALENDAR_DATE ( 2021, 29, 11 ) ;
#270 = DATE_AND_TIME ( #134, #135 ) ;
#271 = CC_DESIGN_DATE_AND_TIME_ASSIGNMENT ( #141, #233, ( #185 ) ) ;
#272 = DIRECTION ( 'NONE',  ( 3.491481338843133355E-15, -1.224646799147352961E-16, 1.000000000000000000 ) ) ;
#273 = PERSON_AND_ORGANIZATION_ROLE ( 'design_supplier' ) ;
#274 = CARTESIAN_POINT ( 'NONE',  ( 6.332621528753465015E-14, 1.499999999999995559, 18.13734891921752279 ) ) ;
#275 = DIRECTION ( 'NONE',  ( 0.0000000000000000000, 1.000000000000000000, 0.0000000000000000000 ) ) ;
#276 = EDGE_CURVE ( 'NONE', #142, #142, #196, .T. ) ;
#277 = DIRECTION ( 'NONE',  ( -3.491481338843133355E-15, 1.224646799147352961E-16, -1.000000000000000000 ) ) ;
#278 = LOCAL_TIME ( 15, 58, 50.00000000000000000, #180 ) ;
#279 = VERTEX_POINT ( 'NONE', #70 ) ;
#280 =( LENGTH_UNIT ( ) NAMED_UNIT ( * ) SI_UNIT ( .MILLI., .METRE. ) );
#281 = DIRECTION ( 'NONE',  ( 0.0000000000000000000, 1.000000000000000000, 0.0000000000000000000 ) ) ;
#282 = EDGE_LOOP ( 'NONE', ( #198 ) ) ;
#283 = LOCAL_TIME ( 15, 58, 50.00000000000000000, #223 ) ;
#284 = PRODUCT_DEFINITION_SHAPE ( 'NONE', 'NONE',  #14 ) ;
#285 = EDGE_LOOP ( 'NONE', ( #124 ) ) ;
#286 = CC_DESIGN_PERSON_AND_ORGANIZATION_ASSIGNMENT ( #67, #109, ( #185 ) ) ;
#287 = EDGE_LOOP ( 'NONE', ( #63 ) ) ;
#288 = DIRECTION ( 'NONE',  ( -4.275831445896957731E-31, -1.000000000000000000, -1.224646799147352961E-16 ) ) ;
#289 = DIRECTION ( 'NONE',  ( 0.0000000000000000000, 1.000000000000000000, 0.0000000000000000000 ) ) ;
#290 = ORIENTED_EDGE ( 'NONE', *, *, #265, .T. ) ;
#291 = CARTESIAN_POINT ( 'NONE',  ( 2.094888803305880013E-14, 5.125429057246884608E-33, 6.000000000000000000 ) ) ;
#292 = APPLICATION_PROTOCOL_DEFINITION ( 'international standard', 'config_control_design', 1994, #99 ) ;
#293 = CC_DESIGN_PERSON_AND_ORGANIZATION_ASSIGNMENT ( #207, #273, ( #136 ) ) ;
#294 = CARTESIAN_POINT ( 'NONE',  ( 4.660183614865709118E-14, 0.6553844939755796295, 13.34729635533384595 ) ) ;
#295 = AXIS2_PLACEMENT_3D ( 'NONE', #146, #272, #66 ) ;
#296 = APPROVAL_STATUS ( 'not_yet_approved' ) ;
#297 = FACE_OUTER_BOUND ( 'NONE', #268, .T. ) ;
#298 = CARTESIAN_POINT ( 'NONE',  ( 0.0000000000000000000, 0.0000000000000000000, 0.0000000000000000000 ) ) ;
#299 = CARTESIAN_POINT ( 'NONE',  ( 8.728703347107831416E-16, -3.061616997868381785E-17, 0.2499999999999999445 ) ) ;
#300 = AXIS2_PLACEMENT_3D ( 'NONE', #235, #49, #91 ) ;
#301 = CARTESIAN_POINT ( 'NONE',  ( 8.728703347107831416E-16, -3.061616997868381785E-17, 0.2499999999999999445 ) ) ;
#302 = PRODUCT ( '968242', '968242', '', ( #139 ) ) ;
#303 = ORIENTED_EDGE ( 'NONE', *, *, #53, .T. ) ;
ENDSEC;
END-ISO-10303-21;
