ISO-10303-21;
HEADER;
FILE_DESCRIPTION (( 'STEP AP203' ),
    '1' );
FILE_NAME ('968156.step',
    '2021-11-30T06:45:16',
    ( '' ),
    ( '' ),
    'SwSTEP 2.0',
    'SolidWorks 2019',
    '' );
FILE_SCHEMA (( 'CONFIG_CONTROL_DESIGN' ));
ENDSEC;

DATA;
#1 = EDGE_LOOP ( 'NONE', ( #94 ) ) ;
#2 = PLANE ( 'NONE',  #266 ) ;
#3 = CC_DESIGN_PERSON_AND_ORGANIZATION_ASSIGNMENT ( #227, #207, ( #189 ) ) ;
#4 = DIRECTION ( 'NONE',  ( 4.275831445896958607E-31, 1.000000000000000000, 1.224646799147353454E-16 ) ) ;
#5 = CARTESIAN_POINT ( 'NONE',  ( 0.0000000000000000000, 0.0000000000000000000, 0.0000000000000000000 ) ) ;
#6 = ORIENTED_EDGE ( 'NONE', *, *, #42, .F. ) ;
#7 = VERTEX_POINT ( 'NONE', #65 ) ;
#8 = AXIS2_PLACEMENT_3D ( 'NONE', #176, #57, #104 ) ;
#9 = ORIENTED_EDGE ( 'NONE', *, *, #282, .F. ) ;
#10 = CARTESIAN_POINT ( 'NONE',  ( 2.793185071074506684E-14, 1.083499999999998797, 8.000000000000000000 ) ) ;
#11 = DATE_AND_TIME ( #252, #236 ) ;
#12 = EDGE_LOOP ( 'NONE', ( #116 ) ) ;
#13 = FACE_OUTER_BOUND ( 'NONE', #101, .T. ) ;
#14 = DATE_AND_TIME ( #16, #250 ) ;
#15 = FACE_OUTER_BOUND ( 'NONE', #12, .T. ) ;
#16 = CALENDAR_DATE ( 2021, 30, 11 ) ;
#17 = CIRCLE ( 'NONE', #244, 0.9299999999999988276 ) ;
#18 = VERTEX_POINT ( 'NONE', #125 ) ;
#19 = DATE_AND_TIME ( #111, #184 ) ;
#20 = ADVANCED_FACE ( 'NONE', ( #28, #243 ), #197, .T. ) ;
#21 = AXIS2_PLACEMENT_3D ( 'NONE', #35, #63, #202 ) ;
#22 = ORIENTED_EDGE ( 'NONE', *, *, #70, .F. ) ;
#23 = FACE_OUTER_BOUND ( 'NONE', #281, .T. ) ;
#24 = CC_DESIGN_PERSON_AND_ORGANIZATION_ASSIGNMENT ( #46, #288, ( #189 ) ) ;
#25 = CARTESIAN_POINT ( 'NONE',  ( 8.728703347107829444E-16, -3.061616997868381785E-17, 0.2499999999999998890 ) ) ;
#26 = CONICAL_SURFACE ( 'NONE', #131, 1.200000000000001732, 0.7853981633974453924 ) ;
#27 = DIRECTION ( 'NONE',  ( -3.491481338843133355E-15, 1.224646799147353207E-16, -1.000000000000000000 ) ) ;
#28 = FACE_OUTER_BOUND ( 'NONE', #149, .T. ) ;
#29 = DIRECTION ( 'NONE',  ( 0.0000000000000000000, 1.000000000000000000, 0.0000000000000000000 ) ) ;
#30 = PLANE ( 'NONE',  #160 ) ;
#31 = PLANE ( 'NONE',  #21 ) ;
#32 = CONICAL_SURFACE ( 'NONE', #157, 1.083499999999998797, 0.5235987755982922653 ) ;
#33 = ORIENTED_EDGE ( 'NONE', *, *, #137, .F. ) ;
#34 = DIRECTION ( 'NONE',  ( 3.491481338843133355E-15, -1.224646799147353207E-16, 1.000000000000000000 ) ) ;
#35 = CARTESIAN_POINT ( 'NONE',  ( 1.745740669421566678E-13, 8.998558695971067645E-33, 50.00000000000000000 ) ) ;
#36 = APPROVAL_DATE_TIME ( #19, #52 ) ;
#37 = DIRECTION ( 'NONE',  ( 3.491481338843133355E-15, -1.224646799147353207E-16, 1.000000000000000000 ) ) ;
#38 = PERSON_AND_ORGANIZATION ( #41, #230 ) ;
#39 = FACE_BOUND ( 'NONE', #276, .T. ) ;
#40 =( LENGTH_UNIT ( ) NAMED_UNIT ( * ) SI_UNIT ( .MILLI., .METRE. ) );
#41 = PERSON ( 'UNSPECIFIED', 'UNSPECIFIED', 'UNSPECIFIED', ('UNSPECIFIED'), ('UNSPECIFIED'), ('UNSPECIFIED') ) ;
#42 = EDGE_CURVE ( 'NONE', #112, #112, #138, .T. ) ;
#43 = CLOSED_SHELL ( 'NONE', ( #108, #191, #20, #261 ) ) ;
#44 = APPROVAL_PERSON_ORGANIZATION ( #134, #52, #271 ) ;
#45 = UNCERTAINTY_MEASURE_WITH_UNIT (LENGTH_MEASURE( 1.000000000000000082E-05 ), #40, 'distance_accuracy_value', 'NONE');
#46 = PERSON_AND_ORGANIZATION ( #41, #230 ) ;
#47 = APPROVAL_PERSON_ORGANIZATION ( #92, #84, #90 ) ;
#48 = PRODUCT ( '968156', '968156', '', ( #150 ) ) ;
#49 = AXIS2_PLACEMENT_3D ( 'NONE', #263, #37, #198 ) ;
#50 = FACE_OUTER_BOUND ( 'NONE', #51, .T. ) ;
#51 = EDGE_LOOP ( 'NONE', ( #164 ) ) ;
#52 = APPROVAL ( #113, 'UNSPECIFIED' ) ;
#53 = MANIFOLD_SOLID_BREP ( 'Corps-Déplacer/Copier1[1]', #72 ) ;
#54 = AXIS2_PLACEMENT_3D ( 'NONE', #106, #122, #215 ) ;
#55 = CC_DESIGN_SECURITY_CLASSIFICATION ( #80, ( #189 ) ) ;
#56 = DIRECTION ( 'NONE',  ( 0.0000000000000000000, -1.000000000000000000, 0.0000000000000000000 ) ) ;
#57 = DIRECTION ( 'NONE',  ( -3.491481338843133355E-15, 1.224646799147353207E-16, -1.000000000000000000 ) ) ;
#58 = DIRECTION ( 'NONE',  ( -3.491481338843133355E-15, 1.224646799147353207E-16, -1.000000000000000000 ) ) ;
#59 = EDGE_LOOP ( 'NONE', ( #93 ) ) ;
#60 = CARTESIAN_POINT ( 'NONE',  ( 2.886013015238225878E-14, 0.9299999999999979394, 8.265869798961826831 ) ) ;
#61 = AXIS2_PLACEMENT_3D ( 'NONE', #147, #240, #29 ) ;
#62 = AXIS2_PLACEMENT_3D ( 'NONE', #148, #223, #89 ) ;
#63 = DIRECTION ( 'NONE',  ( -3.491481338843133355E-15, 1.224646799147353207E-16, -1.000000000000000000 ) ) ;
#64 = CALENDAR_DATE ( 2021, 30, 11 ) ;
#65 = CARTESIAN_POINT ( 'NONE',  ( 6.405924284287275164E-14, 0.9603844939755769028, 18.34729635533384595 ) ) ;
#66 = VERTEX_POINT ( 'NONE', #292 ) ;
#67 = AXIS2_PLACEMENT_3D ( 'NONE', #200, #289, #156 ) ;
#68 = SHAPE_DEFINITION_REPRESENTATION ( #135, #221 ) ;
#69 = CC_DESIGN_APPROVAL ( #219, ( #231 ) ) ;
#70 = EDGE_CURVE ( 'NONE', #66, #66, #78, .T. ) ;
#71 = FACE_BOUND ( 'NONE', #1, .T. ) ;
#72 = CLOSED_SHELL ( 'NONE', ( #159, #204, #239, #167, #182, #158, #127, #294 ) ) ;
#73 = DIRECTION ( 'NONE',  ( -3.491481338843133355E-15, 1.224646799147353207E-16, -1.000000000000000000 ) ) ;
#74 = EDGE_CURVE ( 'NONE', #290, #290, #136, .T. ) ;
#75 = DIRECTION ( 'NONE',  ( -3.491481338843133355E-15, 1.224646799147353207E-16, -1.000000000000000000 ) ) ;
#76 = EDGE_LOOP ( 'NONE', ( #145 ) ) ;
#77 = DIRECTION ( 'NONE',  ( 3.491481338843133355E-15, -1.224646799147353207E-16, 1.000000000000000000 ) ) ;
#78 = CIRCLE ( 'NONE', #8, 1.200000000000001732 ) ;
#79 = DIRECTION ( 'NONE',  ( 0.0000000000000000000, 1.000000000000000000, 0.0000000000000000000 ) ) ;
#80 = SECURITY_CLASSIFICATION ( '', '', #291 ) ;
#81 = DIRECTION ( 'NONE',  ( -3.491481338843133355E-15, 1.224646799147353207E-16, -1.000000000000000000 ) ) ;
#82 = DIRECTION ( 'NONE',  ( -3.491481338843133355E-15, 1.224646799147353207E-16, -1.000000000000000000 ) ) ;
#83 = EDGE_LOOP ( 'NONE', ( #9 ) ) ;
#84 = APPROVAL ( #155, 'UNSPECIFIED' ) ;
#85 =( NAMED_UNIT ( * ) SI_UNIT ( $, .STERADIAN. ) SOLID_ANGLE_UNIT ( ) );
#86 = DATE_TIME_ROLE ( 'classification_date' ) ;
#87 = VERTEX_POINT ( 'NONE', #10 ) ;
#88 = AXIS2_PLACEMENT_3D ( 'NONE', #166, #118, #256 ) ;
#89 = DIRECTION ( 'NONE',  ( 4.275831445896958607E-31, 1.000000000000000000, 1.224646799147353207E-16 ) ) ;
#90 = APPROVAL_ROLE ( '' ) ;
#91 = VERTEX_POINT ( 'NONE', #196 ) ;
#92 = PERSON_AND_ORGANIZATION ( #41, #230 ) ;
#93 = ORIENTED_EDGE ( 'NONE', *, *, #287, .T. ) ;
#94 = ORIENTED_EDGE ( 'NONE', *, *, #287, .F. ) ;
#95 = DIRECTION ( 'NONE',  ( 0.0000000000000000000, 1.000000000000000000, 0.0000000000000000000 ) ) ;
#96 = EDGE_LOOP ( 'NONE', ( #255 ) ) ;
#97 = DIRECTION ( 'NONE',  ( 0.0000000000000000000, 1.000000000000000000, 0.0000000000000000000 ) ) ;
#98 = FACE_BOUND ( 'NONE', #76, .T. ) ;
#99 = ORIENTED_EDGE ( 'NONE', *, *, #199, .F. ) ;
#100 = FACE_BOUND ( 'NONE', #83, .T. ) ;
#101 = EDGE_LOOP ( 'NONE', ( #285 ) ) ;
#102 = AXIS2_PLACEMENT_3D ( 'NONE', #303, #146, #79 ) ;
#103 = DIRECTION ( 'NONE',  ( 4.275831445896958607E-31, 1.000000000000000000, 1.224646799147353207E-16 ) ) ;
#104 = DIRECTION ( 'NONE',  ( 0.0000000000000000000, 1.000000000000000000, 0.0000000000000000000 ) ) ;
#105 = COORDINATED_UNIVERSAL_TIME_OFFSET ( 1, 0, .AHEAD. ) ;
#106 = CARTESIAN_POINT ( 'NONE',  ( 0.0000000000000000000, 0.0000000000000000000, 0.0000000000000000000 ) ) ;
#107 = CARTESIAN_POINT ( 'NONE',  ( 1.735266225405037467E-13, 1.499999999999995559, 49.70000000000000284 ) ) ;
#108 = ADVANCED_FACE ( 'NONE', ( #264 ), #30, .F. ) ;
#109 = COORDINATED_UNIVERSAL_TIME_OFFSET ( 1, 0, .AHEAD. ) ;
#110 = FACE_OUTER_BOUND ( 'NONE', #141, .T. ) ;
#111 = CALENDAR_DATE ( 2021, 30, 11 ) ;
#112 = VERTEX_POINT ( 'NONE', #177 ) ;
#113 = APPROVAL_STATUS ( 'not_yet_approved' ) ;
#114 = CC_DESIGN_DATE_AND_TIME_ASSIGNMENT ( #132, #247, ( #231 ) ) ;
#115 = AXIS2_PLACEMENT_3D ( 'NONE', #187, #283, #190 ) ;
#116 = ORIENTED_EDGE ( 'NONE', *, *, #74, .T. ) ;
#117 = CIRCLE ( 'NONE', #62, 0.9391624327025944741 ) ;
#118 = DIRECTION ( 'NONE',  ( -3.491481338843133355E-15, 1.224646799147353207E-16, -1.000000000000000000 ) ) ;
#119 = DIRECTION ( 'NONE',  ( 3.491481338843133355E-15, -1.224646799147353207E-16, 1.000000000000000000 ) ) ;
#120 = CARTESIAN_POINT ( 'NONE',  ( 2.886013015238225878E-14, -1.012277099146737755E-15, 8.265869798961826831 ) ) ;
#121 = DIRECTION ( 'NONE',  ( -3.491481338843133355E-15, 1.224646799147353207E-16, -1.000000000000000000 ) ) ;
#122 = DIRECTION ( 'NONE',  ( -3.491481338843133355E-15, 1.224646799147353207E-16, -1.000000000000000000 ) ) ;
#123 = EDGE_LOOP ( 'NONE', ( #33 ) ) ;
#124 = CONICAL_SURFACE ( 'NONE', #296, 1.499999999999996669, 0.1745329251994265085 ) ;
#125 = CARTESIAN_POINT ( 'NONE',  ( -1.892735826383161356E-31, 0.9391624327025944741, -5.421010862427522170E-17 ) ) ;
#126 = ORIENTED_EDGE ( 'NONE', *, *, #199, .T. ) ;
#127 = ADVANCED_FACE ( 'NONE', ( #13, #39 ), #26, .T. ) ;
#128 = APPROVAL_STATUS ( 'not_yet_approved' ) ;
#129 = CARTESIAN_POINT ( 'NONE',  ( 6.405924284287275164E-14, -2.246895775456749140E-15, 18.34729635533384595 ) ) ;
#130 = PERSON_AND_ORGANIZATION_ROLE ( 'creator' ) ;
#131 = AXIS2_PLACEMENT_3D ( 'NONE', #299, #185, #259 ) ;
#132 = DATE_AND_TIME ( #64, #171 ) ;
#133 = PERSON_AND_ORGANIZATION_ROLE ( 'design_owner' ) ;
#134 = PERSON_AND_ORGANIZATION ( #41, #230 ) ;
#135 = PRODUCT_DEFINITION_SHAPE ( 'NONE', 'NONE',  #231 ) ;
#136 = CIRCLE ( 'NONE', #61, 0.9299999999999998268 ) ;
#137 = EDGE_CURVE ( 'NONE', #91, #91, #300, .T. ) ;
#138 = CIRCLE ( 'NONE', #188, 1.083499999999999908 ) ;
#139 = EDGE_LOOP ( 'NONE', ( #217 ) ) ;
#140 = DIRECTION ( 'NONE',  ( -4.275831445896958607E-31, -1.000000000000000000, -1.224646799147353207E-16 ) ) ;
#141 = EDGE_LOOP ( 'NONE', ( #22 ) ) ;
#142 = CC_DESIGN_APPROVAL ( #84, ( #189 ) ) ;
#143 = CARTESIAN_POINT ( 'NONE',  ( 7.474426371639281157E-14, -2.621675857080061326E-15, 21.40760796423404955 ) ) ;
#144 = EDGE_CURVE ( 'NONE', #87, #87, #170, .T. ) ;
#145 = ORIENTED_EDGE ( 'NONE', *, *, #233, .T. ) ;
#146 = DIRECTION ( 'NONE',  ( -3.491481338843133355E-15, 1.224646799147353207E-16, -1.000000000000000000 ) ) ;
#147 = CARTESIAN_POINT ( 'NONE',  ( 6.284666409917640040E-14, -2.204364238465235428E-15, 18.00000000000000000 ) ) ;
#148 = CARTESIAN_POINT ( 'NONE',  ( -5.908436088938001002E-31, 2.072400406035714524E-32, -1.692243353331426163E-16 ) ) ;
#149 = EDGE_LOOP ( 'NONE', ( #99 ) ) ;
#150 = MECHANICAL_CONTEXT ( 'NONE', #297, 'mechanical' ) ;
#151 = APPROVAL_PERSON_ORGANIZATION ( #208, #219, #270 ) ;
#152 = CALENDAR_DATE ( 2021, 30, 11 ) ;
#153 = VERTEX_POINT ( 'NONE', #267 ) ;
#154 = CARTESIAN_POINT ( 'NONE',  ( -2.954218044469000501E-31, 1.036200203017857262E-32, -8.461216766657130817E-17 ) ) ;
#155 = APPROVAL_STATUS ( 'not_yet_approved' ) ;
#156 = DIRECTION ( 'NONE',  ( 1.000000000000000000, 0.0000000000000000000, 0.0000000000000000000 ) ) ;
#157 = AXIS2_PLACEMENT_3D ( 'NONE', #25, #119, #162 ) ;
#158 = ADVANCED_FACE ( 'NONE', ( #238, #172 ), #260, .T. ) ;
#159 = ADVANCED_FACE ( 'NONE', ( #193 ), #2, .F. ) ;
#160 = AXIS2_PLACEMENT_3D ( 'NONE', #154, #34, #174 ) ;
#161 = CONICAL_SURFACE ( 'NONE', #254, 0.9299999999999988276, 0.5235987755982938197 ) ;
#162 = DIRECTION ( 'NONE',  ( -3.555016048707407486E-31, -1.000000000000000000, -1.000648059515925838E-16 ) ) ;
#163 = CIRCLE ( 'NONE', #88, 1.083499999999998797 ) ;
#164 = ORIENTED_EDGE ( 'NONE', *, *, #74, .F. ) ;
#165 = CC_DESIGN_PERSON_AND_ORGANIZATION_ASSIGNMENT ( #268, #130, ( #231 ) ) ;
#166 = CARTESIAN_POINT ( 'NONE',  ( 8.728703347107829444E-16, -3.061616997868381785E-17, 0.2499999999999998890 ) ) ;
#167 = ADVANCED_FACE ( 'NONE', ( #50, #168 ), #257, .F. ) ;
#168 = FACE_OUTER_BOUND ( 'NONE', #169, .T. ) ;
#169 = EDGE_LOOP ( 'NONE', ( #192 ) ) ;
#170 = CIRCLE ( 'NONE', #229, 1.083499999999999908 ) ;
#171 = LOCAL_TIME ( 7, 45, 16.00000000000000000, #222 ) ;
#172 = FACE_OUTER_BOUND ( 'NONE', #96, .T. ) ;
#173 = EDGE_LOOP ( 'NONE', ( #232 ) ) ;
#174 = DIRECTION ( 'NONE',  ( -4.275831445896958607E-31, -1.000000000000000000, -1.224646799147353207E-16 ) ) ;
#175 = VERTEX_POINT ( 'NONE', #60 ) ;
#176 = CARTESIAN_POINT ( 'NONE',  ( 1.745740669421566678E-13, -6.123233995736766085E-15, 50.00000000000000000 ) ) ;
#177 = CARTESIAN_POINT ( 'NONE',  ( 2.793185071074506684E-14, 1.083499999999998797, 8.000000000000000000 ) ) ;
#178 = CC_DESIGN_PERSON_AND_ORGANIZATION_ASSIGNMENT ( #298, #133, ( #48 ) ) ;
#179 = CARTESIAN_POINT ( 'NONE',  ( 6.284666409917640040E-14, 0.9299999999999977174, 18.00000000000000000 ) ) ;
#180 = PERSON_AND_ORGANIZATION_ROLE ( 'classification_officer' ) ;
#181 = AXIS2_PLACEMENT_3D ( 'NONE', #279, #75, #95 ) ;
#182 = ADVANCED_FACE ( 'NONE', ( #100, #23 ), #124, .T. ) ;
#183 = DESIGN_CONTEXT ( 'detailed design', #228, 'design' ) ;
#184 = LOCAL_TIME ( 7, 45, 16.00000000000000000, #109 ) ;
#185 = DIRECTION ( 'NONE',  ( -3.491481338843133355E-15, 1.224646799147353207E-16, -1.000000000000000000 ) ) ;
#186 = ORIENTED_EDGE ( 'NONE', *, *, #70, .T. ) ;
#187 = CARTESIAN_POINT ( 'NONE',  ( 6.284666409917640040E-14, -2.168404344971008868E-15, 18.00000000000000000 ) ) ;
#188 = AXIS2_PLACEMENT_3D ( 'NONE', #284, #81, #262 ) ;
#189 = PRODUCT_DEFINITION_FORMATION_WITH_SPECIFIED_SOURCE ( 'ANY', '', #48, .NOT_KNOWN. ) ;
#190 = DIRECTION ( 'NONE',  ( 4.275831445896958607E-31, 1.000000000000000000, 1.224646799147353207E-16 ) ) ;
#191 = ADVANCED_FACE ( 'NONE', ( #71, #234 ), #32, .T. ) ;
#192 = ORIENTED_EDGE ( 'NONE', *, *, #282, .T. ) ;
#193 = FACE_OUTER_BOUND ( 'NONE', #220, .T. ) ;
#194 = EDGE_LOOP ( 'NONE', ( #6 ) ) ;
#195 = AXIS2_PLACEMENT_3D ( 'NONE', #216, #58, #103 ) ;
#196 = CARTESIAN_POINT ( 'NONE',  ( 7.474426371639281157E-14, 1.499999999999994005, 21.40760796423404955 ) ) ;
#197 = CYLINDRICAL_SURFACE ( 'NONE', #54, 1.083499999999999464 ) ;
#198 = DIRECTION ( 'NONE',  ( -4.275831445896958607E-31, -1.000000000000000000, -1.224646799147353207E-16 ) ) ;
#199 = EDGE_CURVE ( 'NONE', #153, #153, #163, .T. ) ;
#200 = CARTESIAN_POINT ( 'NONE',  ( 0.0000000000000000000, 0.0000000000000000000, 0.0000000000000000000 ) ) ;
#201 = LOCAL_TIME ( 7, 45, 16.00000000000000000, #206 ) ;
#202 = DIRECTION ( 'NONE',  ( 4.275831445896958607E-31, 1.000000000000000000, 1.224646799147353207E-16 ) ) ;
#203 = DATE_AND_TIME ( #152, #201 ) ;
#204 = ADVANCED_FACE ( 'NONE', ( #211, #98 ), #161, .T. ) ;
#205 = FACE_OUTER_BOUND ( 'NONE', #173, .T. ) ;
#206 = COORDINATED_UNIVERSAL_TIME_OFFSET ( 1, 0, .AHEAD. ) ;
#207 = PERSON_AND_ORGANIZATION_ROLE ( 'design_supplier' ) ;
#208 = PERSON_AND_ORGANIZATION ( #41, #230 ) ;
#209 = EDGE_CURVE ( 'NONE', #269, #269, #301, .T. ) ;
#210 = ORIENTED_EDGE ( 'NONE', *, *, #42, .T. ) ;
#211 = FACE_OUTER_BOUND ( 'NONE', #194, .T. ) ;
#212 = CARTESIAN_POINT ( 'NONE',  ( 2.793185071074506684E-14, -9.797174393178825657E-16, 8.000000000000000000 ) ) ;
#213 = AXIS2_PLACEMENT_3D ( 'NONE', #129, #82, #286 ) ;
#214 = DIRECTION ( 'NONE',  ( 3.491481338843133355E-15, -1.224646799147353207E-16, 1.000000000000000000 ) ) ;
#215 = DIRECTION ( 'NONE',  ( 4.275831445896957731E-31, 1.000000000000000000, 1.224646799147353207E-16 ) ) ;
#216 = CARTESIAN_POINT ( 'NONE',  ( 0.0000000000000000000, 0.0000000000000000000, 0.0000000000000000000 ) ) ;
#217 = ORIENTED_EDGE ( 'NONE', *, *, #144, .F. ) ;
#218 = CC_DESIGN_APPROVAL ( #52, ( #80 ) ) ;
#219 = APPROVAL ( #128, 'UNSPECIFIED' ) ;
#220 = EDGE_LOOP ( 'NONE', ( #210 ) ) ;
#221 = ADVANCED_BREP_SHAPE_REPRESENTATION ( '968156', ( #53, #245, #67 ), #225 ) ;
#222 = COORDINATED_UNIVERSAL_TIME_OFFSET ( 1, 0, .AHEAD. ) ;
#223 = DIRECTION ( 'NONE',  ( -3.491481338843133355E-15, 1.224646799147353207E-16, -1.000000000000000000 ) ) ;
#224 = COORDINATED_UNIVERSAL_TIME_OFFSET ( 1, 0, .AHEAD. ) ;
#225 =( GEOMETRIC_REPRESENTATION_CONTEXT ( 3 ) GLOBAL_UNCERTAINTY_ASSIGNED_CONTEXT ( ( #45 ) ) GLOBAL_UNIT_ASSIGNED_CONTEXT ( ( #40, #251, #85 ) ) REPRESENTATION_CONTEXT ( 'NONE', 'WORKASPACE' ) );
#226 = APPLICATION_PROTOCOL_DEFINITION ( 'international standard', 'config_control_design', 1994, #228 ) ;
#227 = PERSON_AND_ORGANIZATION ( #41, #230 ) ;
#228 = APPLICATION_CONTEXT ( 'configuration controlled 3d designs of mechanical parts and assemblies' ) ;
#229 = AXIS2_PLACEMENT_3D ( 'NONE', #212, #121, #280 ) ;
#230 = ORGANIZATION ( 'UNSPECIFIED', 'UNSPECIFIED', '' ) ;
#231 = PRODUCT_DEFINITION ( 'UNKNOWN', '', #189, #183 ) ;
#232 = ORIENTED_EDGE ( 'NONE', *, *, #233, .F. ) ;
#233 = EDGE_CURVE ( 'NONE', #175, #175, #17, .T. ) ;
#234 = FACE_OUTER_BOUND ( 'NONE', #278, .T. ) ;
#235 = DIRECTION ( 'NONE',  ( 0.0000000000000000000, 1.000000000000000000, 0.0000000000000000000 ) ) ;
#236 = LOCAL_TIME ( 7, 45, 16.00000000000000000, #224 ) ;
#237 = ORIENTED_EDGE ( 'NONE', *, *, #144, .T. ) ;
#238 = FACE_OUTER_BOUND ( 'NONE', #123, .T. ) ;
#239 = ADVANCED_FACE ( 'NONE', ( #205, #15 ), #241, .T. ) ;
#240 = DIRECTION ( 'NONE',  ( -3.491481338843133355E-15, 1.224646799147353207E-16, -1.000000000000000000 ) ) ;
#241 = CYLINDRICAL_SURFACE ( 'NONE', #195, 0.9299999999999993827 ) ;
#242 = CC_DESIGN_PERSON_AND_ORGANIZATION_ASSIGNMENT ( #38, #180, ( #80 ) ) ;
#243 = FACE_OUTER_BOUND ( 'NONE', #302, .T. ) ;
#244 = AXIS2_PLACEMENT_3D ( 'NONE', #258, #73, #235 ) ;
#245 = MANIFOLD_SOLID_BREP ( 'Corps-Déplacer/Copier1[2]', #43 ) ;
#246 = FACE_OUTER_BOUND ( 'NONE', #139, .T. ) ;
#247 = DATE_TIME_ROLE ( 'creation_date' ) ;
#248 = PLANE ( 'NONE',  #49 ) ;
#249 = AXIS2_PLACEMENT_3D ( 'NONE', #5, #27, #4 ) ;
#250 = LOCAL_TIME ( 7, 45, 16.00000000000000000, #105 ) ;
#251 =( NAMED_UNIT ( * ) PLANE_ANGLE_UNIT ( ) SI_UNIT ( $, .RADIAN. ) );
#252 = CALENDAR_DATE ( 2021, 30, 11 ) ;
#253 = CC_DESIGN_DATE_AND_TIME_ASSIGNMENT ( #14, #86, ( #80 ) ) ;
#254 = AXIS2_PLACEMENT_3D ( 'NONE', #120, #277, #97 ) ;
#255 = ORIENTED_EDGE ( 'NONE', *, *, #209, .T. ) ;
#256 = DIRECTION ( 'NONE',  ( 3.555016048707407486E-31, 1.000000000000000000, 1.000648059515925838E-16 ) ) ;
#257 = TOROIDAL_SURFACE ( 'NONE', #115, 2.929999999999999716, 2.000000000000000888 ) ;
#258 = CARTESIAN_POINT ( 'NONE',  ( 2.886013015238225878E-14, -1.012277099146737755E-15, 8.265869798961826831 ) ) ;
#259 = DIRECTION ( 'NONE',  ( 0.0000000000000000000, 1.000000000000000000, 0.0000000000000000000 ) ) ;
#260 = CYLINDRICAL_SURFACE ( 'NONE', #249, 1.499999999999999112 ) ;
#261 = ADVANCED_FACE ( 'NONE', ( #246 ), #248, .T. ) ;
#262 = DIRECTION ( 'NONE',  ( 0.0000000000000000000, 1.000000000000000000, 0.0000000000000000000 ) ) ;
#263 = CARTESIAN_POINT ( 'NONE',  ( 2.793185071074506684E-14, 8.124948622570597087E-33, 8.000000000000000000 ) ) ;
#264 = FACE_OUTER_BOUND ( 'NONE', #59, .T. ) ;
#265 = APPLICATION_PROTOCOL_DEFINITION ( 'international standard', 'config_control_design', 1994, #297 ) ;
#266 = AXIS2_PLACEMENT_3D ( 'NONE', #275, #77, #140 ) ;
#267 = CARTESIAN_POINT ( 'NONE',  ( 8.728703347107833388E-16, 1.083499999999998797, 0.2500000000000000000 ) ) ;
#268 = PERSON_AND_ORGANIZATION ( #41, #230 ) ;
#269 = VERTEX_POINT ( 'NONE', #107 ) ;
#270 = APPROVAL_ROLE ( '' ) ;
#271 = APPROVAL_ROLE ( '' ) ;
#272 = PRODUCT_RELATED_PRODUCT_CATEGORY ( 'detail', '', ( #48 ) ) ;
#273 = CIRCLE ( 'NONE', #213, 0.9603844939755792343 ) ;
#274 = ORIENTED_EDGE ( 'NONE', *, *, #137, .T. ) ;
#275 = CARTESIAN_POINT ( 'NONE',  ( 2.793185071074506684E-14, 8.124948622570597087E-33, 8.000000000000000000 ) ) ;
#276 = EDGE_LOOP ( 'NONE', ( #186 ) ) ;
#277 = DIRECTION ( 'NONE',  ( -3.491481338843133355E-15, 1.224646799147353207E-16, -1.000000000000000000 ) ) ;
#278 = EDGE_LOOP ( 'NONE', ( #126 ) ) ;
#279 = CARTESIAN_POINT ( 'NONE',  ( 1.735266225405037467E-13, -6.086494591762345225E-15, 49.70000000000000284 ) ) ;
#280 = DIRECTION ( 'NONE',  ( 0.0000000000000000000, 1.000000000000000000, 0.0000000000000000000 ) ) ;
#281 = EDGE_LOOP ( 'NONE', ( #274 ) ) ;
#282 = EDGE_CURVE ( 'NONE', #7, #7, #273, .T. ) ;
#283 = DIRECTION ( 'NONE',  ( -3.491481338843133355E-15, 1.224646799147353207E-16, -1.000000000000000000 ) ) ;
#284 = CARTESIAN_POINT ( 'NONE',  ( 2.793185071074506684E-14, -9.797174393178825657E-16, 8.000000000000000000 ) ) ;
#285 = ORIENTED_EDGE ( 'NONE', *, *, #209, .F. ) ;
#286 = DIRECTION ( 'NONE',  ( 0.0000000000000000000, 1.000000000000000000, 0.0000000000000000000 ) ) ;
#287 = EDGE_CURVE ( 'NONE', #18, #18, #117, .T. ) ;
#288 = PERSON_AND_ORGANIZATION_ROLE ( 'creator' ) ;
#289 = DIRECTION ( 'NONE',  ( 0.0000000000000000000, 0.0000000000000000000, 1.000000000000000000 ) ) ;
#290 = VERTEX_POINT ( 'NONE', #179 ) ;
#291 = SECURITY_CLASSIFICATION_LEVEL ( 'unclassified' ) ;
#292 = CARTESIAN_POINT ( 'NONE',  ( 1.745740669421566678E-13, 1.199999999999995515, 50.00000000000000000 ) ) ;
#293 = APPROVAL_DATE_TIME ( #11, #84 ) ;
#294 = ADVANCED_FACE ( 'NONE', ( #110 ), #31, .F. ) ;
#295 = APPROVAL_DATE_TIME ( #203, #219 ) ;
#296 = AXIS2_PLACEMENT_3D ( 'NONE', #143, #214, #56 ) ;
#297 = APPLICATION_CONTEXT ( 'configuration controlled 3d designs of mechanical parts and assemblies' ) ;
#298 = PERSON_AND_ORGANIZATION ( #41, #230 ) ;
#299 = CARTESIAN_POINT ( 'NONE',  ( 1.745740669421566678E-13, -6.123233995736766085E-15, 50.00000000000000000 ) ) ;
#300 = CIRCLE ( 'NONE', #102, 1.499999999999996669 ) ;
#301 = CIRCLE ( 'NONE', #181, 1.500000000000001554 ) ;
#302 = EDGE_LOOP ( 'NONE', ( #237 ) ) ;
#303 = CARTESIAN_POINT ( 'NONE',  ( 7.474426371639281157E-14, -2.621675857080061326E-15, 21.40760796423404955 ) ) ;
ENDSEC;
END-ISO-10303-21;
