ISO-10303-21;
HEADER;
FILE_DESCRIPTION (( 'STEP AP203' ),
    '1' );
FILE_NAME ('968093.step',
    '2021-12-01T14:04:25',
    ( '' ),
    ( '' ),
    'SwSTEP 2.0',
    'SolidWorks 2019',
    '' );
FILE_SCHEMA (( 'CONFIG_CONTROL_DESIGN' ));
ENDSEC;

DATA;
#1 = AXIS2_PLACEMENT_3D ( 'NONE', #65, #97, #13 ) ;
#2 = CARTESIAN_POINT ( 'NONE',  ( 0.0000000000000000000, 0.0000000000000000000, 0.0000000000000000000 ) ) ;
#3 = CC_DESIGN_PERSON_AND_ORGANIZATION_ASSIGNMENT ( #213, #187, ( #262 ) ) ;
#4 = VERTEX_POINT ( 'NONE', #105 ) ;
#5 = DIRECTION ( 'NONE',  ( -3.491481338843133355E-15, 1.224646799147353207E-16, -1.000000000000000000 ) ) ;
#6 = FACE_OUTER_BOUND ( 'NONE', #35, .T. ) ;
#7 = DIRECTION ( 'NONE',  ( -4.275831445896958607E-31, -1.000000000000000000, -1.224646799147353207E-16 ) ) ;
#8 = CIRCLE ( 'NONE', #14, 1.200000000000001732 ) ;
#9 = APPLICATION_PROTOCOL_DEFINITION ( 'international standard', 'config_control_design', 1994, #180 ) ;
#10 = EDGE_LOOP ( 'NONE', ( #162 ) ) ;
#11 = DIRECTION ( 'NONE',  ( -4.275831445896958607E-31, -1.000000000000000000, -1.224646799147353207E-16 ) ) ;
#12 = FACE_BOUND ( 'NONE', #297, .T. ) ;
#13 = DIRECTION ( 'NONE',  ( 0.0000000000000000000, 1.000000000000000000, 0.0000000000000000000 ) ) ;
#14 = AXIS2_PLACEMENT_3D ( 'NONE', #93, #58, #63 ) ;
#15 = COORDINATED_UNIVERSAL_TIME_OFFSET ( 1, 0, .AHEAD. ) ;
#16 = MANIFOLD_SOLID_BREP ( 'Corps-Déplacer/Copier1[2]', #192 ) ;
#17 = ORIENTED_EDGE ( 'NONE', *, *, #124, .T. ) ;
#18 = PRODUCT_DEFINITION_SHAPE ( 'NONE', 'NONE',  #120 ) ;
#19 = ORIENTED_EDGE ( 'NONE', *, *, #51, .F. ) ;
#20 = DATE_AND_TIME ( #273, #130 ) ;
#21 = DIRECTION ( 'NONE',  ( 0.0000000000000000000, 1.000000000000000000, 0.0000000000000000000 ) ) ;
#22 = ADVANCED_FACE ( 'NONE', ( #79, #6 ), #76, .T. ) ;
#23 = CARTESIAN_POINT ( 'NONE',  ( 0.0000000000000000000, 0.0000000000000000000, 0.0000000000000000000 ) ) ;
#24 = PLANE ( 'NONE',  #57 ) ;
#25 = CONICAL_SURFACE ( 'NONE', #122, 1.499999999999996669, 0.1745329251994262310 ) ;
#26 = CIRCLE ( 'NONE', #158, 0.9253844939755797583 ) ;
#27 = CARTESIAN_POINT ( 'NONE',  ( 2.883896417162832445E-14, -1.011534696479630343E-15, 8.259807621135337286 ) ) ;
#28 = FACE_OUTER_BOUND ( 'NONE', #142, .T. ) ;
#29 = ORIENTED_EDGE ( 'NONE', *, *, #253, .F. ) ;
#30 = VERTEX_POINT ( 'NONE', #126 ) ;
#31 = CARTESIAN_POINT ( 'NONE',  ( 6.284666409917640040E-14, -2.204364238465235428E-15, 18.00000000000000000 ) ) ;
#32 = CARTESIAN_POINT ( 'NONE',  ( 2.883896417162832445E-14, -1.011534696479630343E-15, 8.259807621135337286 ) ) ;
#33 = CARTESIAN_POINT ( 'NONE',  ( 2.883896417162832445E-14, 0.8949999999999979083, 8.259807621135337286 ) ) ;
#34 = CC_DESIGN_APPROVAL ( #169, ( #116 ) ) ;
#35 = EDGE_LOOP ( 'NONE', ( #206 ) ) ;
#36 = CARTESIAN_POINT ( 'NONE',  ( 1.745740669421566678E-13, 1.199999999999995515, 50.00000000000000000 ) ) ;
#37 = DIRECTION ( 'NONE',  ( 0.0000000000000000000, 1.000000000000000000, 0.0000000000000000000 ) ) ;
#38 = EDGE_LOOP ( 'NONE', ( #281 ) ) ;
#39 = FACE_OUTER_BOUND ( 'NONE', #84, .T. ) ;
#40 = APPROVAL ( #241, 'UNSPECIFIED' ) ;
#41 = APPROVAL_PERSON_ORGANIZATION ( #117, #40, #258 ) ;
#42 = DATE_TIME_ROLE ( 'creation_date' ) ;
#43 = EDGE_LOOP ( 'NONE', ( #19 ) ) ;
#44 = ORIENTED_EDGE ( 'NONE', *, *, #172, .T. ) ;
#45 = ORIENTED_EDGE ( 'NONE', *, *, #210, .T. ) ;
#46 = EDGE_LOOP ( 'NONE', ( #44 ) ) ;
#47 = PERSON_AND_ORGANIZATION ( #248, #232 ) ;
#48 = EDGE_LOOP ( 'NONE', ( #70 ) ) ;
#49 = DIRECTION ( 'NONE',  ( -3.491481338843133355E-15, 1.224646799147353207E-16, -1.000000000000000000 ) ) ;
#50 = APPROVAL_STATUS ( 'not_yet_approved' ) ;
#51 = EDGE_CURVE ( 'NONE', #205, #205, #165, .T. ) ;
#52 = TOROIDAL_SURFACE ( 'NONE', #190, 2.895000000000000018, 2.000000000000000888 ) ;
#53 = APPROVAL_DATE_TIME ( #20, #128 ) ;
#54 = DIRECTION ( 'NONE',  ( -3.491481338843133355E-15, 1.224646799147353207E-16, -1.000000000000000000 ) ) ;
#55 = DIRECTION ( 'NONE',  ( 0.0000000000000000000, 1.000000000000000000, 0.0000000000000000000 ) ) ;
#56 = CARTESIAN_POINT ( 'NONE',  ( 1.745740669421566678E-13, -6.123233995736766085E-15, 50.00000000000000000 ) ) ;
#57 = AXIS2_PLACEMENT_3D ( 'NONE', #123, #102, #7 ) ;
#58 = DIRECTION ( 'NONE',  ( -3.491481338843133355E-15, 1.224646799147353207E-16, -1.000000000000000000 ) ) ;
#59 = LOCAL_TIME ( 15, 4, 25.00000000000000000, #145 ) ;
#60 = AXIS2_PLACEMENT_3D ( 'NONE', #32, #235, #131 ) ;
#61 = DIRECTION ( 'NONE',  ( 0.0000000000000000000, 1.000000000000000000, 0.0000000000000000000 ) ) ;
#62 = VERTEX_POINT ( 'NONE', #234 ) ;
#63 = DIRECTION ( 'NONE',  ( 0.0000000000000000000, 1.000000000000000000, 0.0000000000000000000 ) ) ;
#64 = CARTESIAN_POINT ( 'NONE',  ( 6.405924284287273902E-14, 0.9253844939755774268, 18.34729635533384240 ) ) ;
#65 = CARTESIAN_POINT ( 'NONE',  ( 2.793185071074506684E-14, -9.797174393178825657E-16, 8.000000000000000000 ) ) ;
#66 = DIRECTION ( 'NONE',  ( 0.0000000000000000000, 1.000000000000000000, 0.0000000000000000000 ) ) ;
#67 = APPROVAL_DATE_TIME ( #294, #169 ) ;
#68 = CIRCLE ( 'NONE', #242, 1.500000000000001554 ) ;
#69 = PERSON_AND_ORGANIZATION_ROLE ( 'classification_officer' ) ;
#70 = ORIENTED_EDGE ( 'NONE', *, *, #253, .T. ) ;
#71 = EDGE_LOOP ( 'NONE', ( #183 ) ) ;
#72 = ADVANCED_FACE ( 'NONE', ( #152 ), #24, .F. ) ;
#73 = APPROVAL_STATUS ( 'not_yet_approved' ) ;
#74 = LOCAL_TIME ( 15, 4, 25.00000000000000000, #139 ) ;
#75 = EDGE_LOOP ( 'NONE', ( #222 ) ) ;
#76 = CYLINDRICAL_SURFACE ( 'NONE', #277, 1.499999999999999112 ) ;
#77 = UNCERTAINTY_MEASURE_WITH_UNIT (LENGTH_MEASURE( 1.000000000000000082E-05 ), #186, 'distance_accuracy_value', 'NONE');
#78 = FACE_BOUND ( 'NONE', #303, .T. ) ;
#79 = FACE_OUTER_BOUND ( 'NONE', #151, .T. ) ;
#80 = VERTEX_POINT ( 'NONE', #181 ) ;
#81 = AXIS2_PLACEMENT_3D ( 'NONE', #101, #216, #233 ) ;
#82 = FACE_OUTER_BOUND ( 'NONE', #75, .T. ) ;
#83 = FACE_OUTER_BOUND ( 'NONE', #168, .T. ) ;
#84 = EDGE_LOOP ( 'NONE', ( #45 ) ) ;
#85 = VERTEX_POINT ( 'NONE', #64 ) ;
#86 = CC_DESIGN_SECURITY_CLASSIFICATION ( #116, ( #262 ) ) ;
#87 = DATE_AND_TIME ( #91, #212 ) ;
#88 = PERSON_AND_ORGANIZATION ( #248, #232 ) ;
#89 = ADVANCED_FACE ( 'NONE', ( #137, #12 ), #197, .T. ) ;
#90 = LOCAL_TIME ( 15, 4, 25.00000000000000000, #15 ) ;
#91 = CALENDAR_DATE ( 2021, 1, 12 ) ;
#92 = DIRECTION ( 'NONE',  ( 4.275831445896958607E-31, 1.000000000000000000, 1.224646799147353207E-16 ) ) ;
#93 = CARTESIAN_POINT ( 'NONE',  ( 1.745740669421566678E-13, -6.123233995736766085E-15, 50.00000000000000000 ) ) ;
#94 = PERSON_AND_ORGANIZATION ( #248, #232 ) ;
#95 = CARTESIAN_POINT ( 'NONE',  ( 2.793185071074506684E-14, 7.836244864408189306E-33, 8.000000000000000000 ) ) ;
#96 = CC_DESIGN_PERSON_AND_ORGANIZATION_ASSIGNMENT ( #188, #69, ( #116 ) ) ;
#97 = DIRECTION ( 'NONE',  ( -3.491481338843133355E-15, 1.224646799147353207E-16, -1.000000000000000000 ) ) ;
#98 = CARTESIAN_POINT ( 'NONE',  ( 2.793185071074506684E-14, -9.797174393178825657E-16, 8.000000000000000000 ) ) ;
#99 = PRODUCT_RELATED_PRODUCT_CATEGORY ( 'detail', '', ( #163 ) ) ;
#100 = FACE_OUTER_BOUND ( 'NONE', #160, .T. ) ;
#101 = CARTESIAN_POINT ( 'NONE',  ( 8.728703347107829444E-16, -3.061616997868381785E-17, 0.2499999999999998890 ) ) ;
#102 = DIRECTION ( 'NONE',  ( 3.491481338843133355E-15, -1.224646799147353207E-16, 1.000000000000000000 ) ) ;
#103 = ORIENTED_EDGE ( 'NONE', *, *, #173, .T. ) ;
#104 = DIRECTION ( 'NONE',  ( -3.491481338843133355E-15, 1.224646799147353207E-16, -1.000000000000000000 ) ) ;
#105 = CARTESIAN_POINT ( 'NONE',  ( 2.793185071074506684E-14, 1.044999999999998819, 8.000000000000000000 ) ) ;
#106 = CARTESIAN_POINT ( 'NONE',  ( 1.745740669421566678E-13, 8.998558695971067645E-33, 50.00000000000000000 ) ) ;
#107 = FACE_OUTER_BOUND ( 'NONE', #48, .T. ) ;
#108 = DATE_AND_TIME ( #269, #90 ) ;
#109 = AXIS2_PLACEMENT_3D ( 'NONE', #23, #279, #221 ) ;
#110 = ORIENTED_EDGE ( 'NONE', *, *, #173, .F. ) ;
#111 = EDGE_LOOP ( 'NONE', ( #136 ) ) ;
#112 = ADVANCED_FACE ( 'NONE', ( #204 ), #285, .F. ) ;
#113 = DATE_TIME_ROLE ( 'classification_date' ) ;
#114 = ORIENTED_EDGE ( 'NONE', *, *, #184, .F. ) ;
#115 = DATE_AND_TIME ( #270, #74 ) ;
#116 = SECURITY_CLASSIFICATION ( '', '', #218 ) ;
#117 = PERSON_AND_ORGANIZATION ( #248, #232 ) ;
#118 = APPLICATION_CONTEXT ( 'configuration controlled 3d designs of mechanical parts and assemblies' ) ;
#119 = FACE_OUTER_BOUND ( 'NONE', #71, .T. ) ;
#120 = PRODUCT_DEFINITION ( 'UNKNOWN', '', #262, #246 ) ;
#121 = DIRECTION ( 'NONE',  ( 4.275831445896958607E-31, 1.000000000000000000, 1.224646799147352961E-16 ) ) ;
#122 = AXIS2_PLACEMENT_3D ( 'NONE', #291, #154, #257 ) ;
#123 = CARTESIAN_POINT ( 'NONE',  ( -1.925540375943903038E-31, 6.753886471608715179E-33, -5.514966826607503220E-17 ) ) ;
#124 = EDGE_CURVE ( 'NONE', #132, #132, #133, .T. ) ;
#125 = DIRECTION ( 'NONE',  ( -4.275831445896958607E-31, -1.000000000000000000, -1.224646799147353207E-16 ) ) ;
#126 = CARTESIAN_POINT ( 'NONE',  ( 8.728703347107833388E-16, 1.044999999999998819, 0.2500000000000000000 ) ) ;
#127 = ADVANCED_FACE ( 'NONE', ( #28 ), #134, .F. ) ;
#128 = APPROVAL ( #50, 'UNSPECIFIED' ) ;
#129 = DIRECTION ( 'NONE',  ( -3.491481338843133355E-15, 1.224646799147353207E-16, -1.000000000000000000 ) ) ;
#130 = LOCAL_TIME ( 15, 4, 25.00000000000000000, #214 ) ;
#131 = DIRECTION ( 'NONE',  ( 0.0000000000000000000, 1.000000000000000000, 0.0000000000000000000 ) ) ;
#132 = VERTEX_POINT ( 'NONE', #267 ) ;
#133 = CIRCLE ( 'NONE', #287, 0.9006624327025944954 ) ;
#134 = PLANE ( 'NONE',  #149 ) ;
#135 = CARTESIAN_POINT ( 'NONE',  ( 7.543730482881088927E-14, -2.645984467026162847E-15, 21.60610282792067594 ) ) ;
#136 = ORIENTED_EDGE ( 'NONE', *, *, #264, .F. ) ;
#137 = FACE_OUTER_BOUND ( 'NONE', #141, .T. ) ;
#138 = VERTEX_POINT ( 'NONE', #251 ) ;
#139 = COORDINATED_UNIVERSAL_TIME_OFFSET ( 1, 0, .AHEAD. ) ;
#140 = CC_DESIGN_APPROVAL ( #128, ( #262 ) ) ;
#141 = EDGE_LOOP ( 'NONE', ( #244 ) ) ;
#142 = EDGE_LOOP ( 'NONE', ( #143 ) ) ;
#143 = ORIENTED_EDGE ( 'NONE', *, *, #144, .T. ) ;
#144 = EDGE_CURVE ( 'NONE', #138, #138, #171, .T. ) ;
#145 = COORDINATED_UNIVERSAL_TIME_OFFSET ( 1, 0, .AHEAD. ) ;
#146 = ADVANCED_FACE ( 'NONE', ( #275, #39 ), #148, .T. ) ;
#147 = CONICAL_SURFACE ( 'NONE', #81, 1.044999999999998819, 0.5235987755982927094 ) ;
#148 = CYLINDRICAL_SURFACE ( 'NONE', #109, 1.044999999999999485 ) ;
#149 = AXIS2_PLACEMENT_3D ( 'NONE', #95, #231, #125 ) ;
#150 = CARTESIAN_POINT ( 'NONE',  ( -3.851080751887806076E-31, 1.350777294321743036E-32, -1.102993365321500644E-16 ) ) ;
#151 = EDGE_LOOP ( 'NONE', ( #29 ) ) ;
#153 = ORIENTED_EDGE ( 'NONE', *, *, #51, .T. ) ;
#152 = FACE_OUTER_BOUND ( 'NONE', #239, .T. ) ;
#154 = DIRECTION ( 'NONE',  ( 3.491481338843133355E-15, -1.224646799147353207E-16, 1.000000000000000000 ) ) ;
#155 = DIRECTION ( 'NONE',  ( 3.685990324186101370E-31, 1.000000000000000000, 1.037514040655986243E-16 ) ) ;
#156 = DIRECTION ( 'NONE',  ( 0.0000000000000000000, 1.000000000000000000, 0.0000000000000000000 ) ) ;
#157 = DIRECTION ( 'NONE',  ( -3.491481338843133355E-15, 1.224646799147353207E-16, -1.000000000000000000 ) ) ;
#158 = AXIS2_PLACEMENT_3D ( 'NONE', #263, #282, #21 ) ;
#159 = CARTESIAN_POINT ( 'NONE',  ( 6.284666409917640040E-14, 0.8949999999999977973, 18.00000000000000000 ) ) ;
#160 = EDGE_LOOP ( 'NONE', ( #301 ) ) ;
#161 = CYLINDRICAL_SURFACE ( 'NONE', #164, 0.8949999999999994627 ) ;
#162 = ORIENTED_EDGE ( 'NONE', *, *, #172, .F. ) ;
#163 = PRODUCT ( '968093', '968093', '', ( #295 ) ) ;
#164 = AXIS2_PLACEMENT_3D ( 'NONE', #265, #211, #284 ) ;
#165 = CIRCLE ( 'NONE', #293, 0.8949999999999989075 ) ;
#166 = ORIENTED_EDGE ( 'NONE', *, *, #124, .F. ) ;
#167 = PERSON_AND_ORGANIZATION ( #248, #232 ) ;
#168 = EDGE_LOOP ( 'NONE', ( #103 ) ) ;
#169 = APPROVAL ( #73, 'UNSPECIFIED' ) ;
#170 = SHAPE_DEFINITION_REPRESENTATION ( #18, #266 ) ;
#171 = CIRCLE ( 'NONE', #247, 1.044999999999999929 ) ;
#172 = EDGE_CURVE ( 'NONE', #30, #30, #200, .T. ) ;
#173 = EDGE_CURVE ( 'NONE', #85, #85, #26, .T. ) ;
#174 = CARTESIAN_POINT ( 'NONE',  ( 2.793185071074506684E-14, 7.836244864408189306E-33, 8.000000000000000000 ) ) ;
#175 = ADVANCED_FACE ( 'NONE', ( #119 ), #223, .T. ) ;
#176 = AXIS2_PLACEMENT_3D ( 'NONE', #174, #209, #11 ) ;
#177 = DIRECTION ( 'NONE',  ( 0.0000000000000000000, 1.000000000000000000, 0.0000000000000000000 ) ) ;
#178 = FACE_OUTER_BOUND ( 'NONE', #46, .T. ) ;
#179 = CARTESIAN_POINT ( 'NONE',  ( 1.735266225405037467E-13, -6.086494591762345225E-15, 49.70000000000000284 ) ) ;
#180 = APPLICATION_CONTEXT ( 'configuration controlled 3d designs of mechanical parts and assemblies' ) ;
#181 = CARTESIAN_POINT ( 'NONE',  ( 1.735266225405037467E-13, 1.499999999999995559, 49.70000000000000284 ) ) ;
#182 = DIRECTION ( 'NONE',  ( 4.275831445896958607E-31, 1.000000000000000000, 1.224646799147353207E-16 ) ) ;
#183 = ORIENTED_EDGE ( 'NONE', *, *, #210, .F. ) ;
#184 = EDGE_CURVE ( 'NONE', #230, #230, #8, .T. ) ;
#185 = AXIS2_PLACEMENT_3D ( 'NONE', #260, #261, #215 ) ;
#186 =( LENGTH_UNIT ( ) NAMED_UNIT ( * ) SI_UNIT ( .MILLI., .METRE. ) );
#187 = PERSON_AND_ORGANIZATION_ROLE ( 'design_supplier' ) ;
#188 = PERSON_AND_ORGANIZATION ( #248, #232 ) ;
#189 = APPROVAL_ROLE ( '' ) ;
#190 = AXIS2_PLACEMENT_3D ( 'NONE', #236, #202, #182 ) ;
#191 = EDGE_LOOP ( 'NONE', ( #166 ) ) ;
#192 = CLOSED_SHELL ( 'NONE', ( #72, #203, #146, #175 ) ) ;
#193 = COORDINATED_UNIVERSAL_TIME_OFFSET ( 1, 0, .AHEAD. ) ;
#194 = PERSON_AND_ORGANIZATION_ROLE ( 'creator' ) ;
#195 = CC_DESIGN_PERSON_AND_ORGANIZATION_ASSIGNMENT ( #94, #259, ( #163 ) ) ;
#196 = AXIS2_PLACEMENT_3D ( 'NONE', #135, #157, #66 ) ;
#197 = CONICAL_SURFACE ( 'NONE', #60, 0.8949999999999989075, 0.5235987755982934866 ) ;
#198 = ADVANCED_FACE ( 'NONE', ( #100, #290 ), #302, .T. ) ;
#199 = DIRECTION ( 'NONE',  ( -3.491481338843133355E-15, 1.224646799147353207E-16, -1.000000000000000000 ) ) ;
#200 = CIRCLE ( 'NONE', #220, 1.044999999999998819 ) ;
#201 = DIRECTION ( 'NONE',  ( 4.275831445896958607E-31, 1.000000000000000000, 1.224646799147353454E-16 ) ) ;
#202 = DIRECTION ( 'NONE',  ( -3.491481338843133355E-15, 1.224646799147353207E-16, -1.000000000000000000 ) ) ;
#203 = ADVANCED_FACE ( 'NONE', ( #250, #178 ), #147, .T. ) ;
#204 = FACE_OUTER_BOUND ( 'NONE', #225, .T. ) ;
#205 = VERTEX_POINT ( 'NONE', #33 ) ;
#206 = ORIENTED_EDGE ( 'NONE', *, *, #288, .T. ) ;
#207 = AXIS2_PLACEMENT_3D ( 'NONE', #31, #256, #37 ) ;
#208 =( NAMED_UNIT ( * ) SI_UNIT ( $, .STERADIAN. ) SOLID_ANGLE_UNIT ( ) );
#209 = DIRECTION ( 'NONE',  ( 3.491481338843133355E-15, -1.224646799147353207E-16, 1.000000000000000000 ) ) ;
#210 = EDGE_CURVE ( 'NONE', #4, #4, #292, .T. ) ;
#211 = DIRECTION ( 'NONE',  ( -3.491481338843133355E-15, 1.224646799147353207E-16, -1.000000000000000000 ) ) ;
#212 = LOCAL_TIME ( 15, 4, 25.00000000000000000, #193 ) ;
#213 = PERSON_AND_ORGANIZATION ( #248, #232 ) ;
#214 = COORDINATED_UNIVERSAL_TIME_OFFSET ( 1, 0, .AHEAD. ) ;
#215 = DIRECTION ( 'NONE',  ( 1.000000000000000000, 0.0000000000000000000, 0.0000000000000000000 ) ) ;
#216 = DIRECTION ( 'NONE',  ( 3.491481338843133355E-15, -1.224646799147353207E-16, 1.000000000000000000 ) ) ;
#217 = APPROVAL_DATE_TIME ( #108, #40 ) ;
#218 = SECURITY_CLASSIFICATION_LEVEL ( 'unclassified' ) ;
#219 = ADVANCED_FACE ( 'NONE', ( #289, #82 ), #161, .T. ) ;
#220 = AXIS2_PLACEMENT_3D ( 'NONE', #243, #5, #155 ) ;
#221 = DIRECTION ( 'NONE',  ( 4.275831445896958607E-31, 1.000000000000000000, 1.224646799147353454E-16 ) ) ;
#222 = ORIENTED_EDGE ( 'NONE', *, *, #264, .T. ) ;
#223 = PLANE ( 'NONE',  #176 ) ;
#224 = CC_DESIGN_PERSON_AND_ORGANIZATION_ASSIGNMENT ( #88, #194, ( #262 ) ) ;
#225 = EDGE_LOOP ( 'NONE', ( #114 ) ) ;
#226 = APPROVAL_PERSON_ORGANIZATION ( #167, #128, #299 ) ;
#227 = CLOSED_SHELL ( 'NONE', ( #127, #89, #219, #268, #245, #22, #198, #112 ) ) ;
#228 = DIRECTION ( 'NONE',  ( -3.491481338843133355E-15, 1.224646799147353207E-16, -1.000000000000000000 ) ) ;
#229 = MANIFOLD_SOLID_BREP ( 'Corps-Déplacer/Copier1[1]', #227 ) ;
#230 = VERTEX_POINT ( 'NONE', #36 ) ;
#231 = DIRECTION ( 'NONE',  ( 3.491481338843133355E-15, -1.224646799147353207E-16, 1.000000000000000000 ) ) ;
#232 = ORGANIZATION ( 'UNSPECIFIED', 'UNSPECIFIED', '' ) ;
#233 = DIRECTION ( 'NONE',  ( -3.685990324186101370E-31, -1.000000000000000000, -1.037514040655986243E-16 ) ) ;
#234 = CARTESIAN_POINT ( 'NONE',  ( 7.543730482881088927E-14, 1.499999999999994005, 21.60610282792067594 ) ) ;
#235 = DIRECTION ( 'NONE',  ( -3.491481338843133355E-15, 1.224646799147353207E-16, -1.000000000000000000 ) ) ;
#236 = CARTESIAN_POINT ( 'NONE',  ( 6.284666409917640040E-14, -2.168404344971008868E-15, 18.00000000000000000 ) ) ;
#237 = CC_DESIGN_APPROVAL ( #40, ( #120 ) ) ;
#238 = AXIS2_PLACEMENT_3D ( 'NONE', #106, #49, #92 ) ;
#239 = EDGE_LOOP ( 'NONE', ( #17 ) ) ;
#240 = CC_DESIGN_PERSON_AND_ORGANIZATION_ASSIGNMENT ( #47, #300, ( #120 ) ) ;
#241 = APPROVAL_STATUS ( 'not_yet_approved' ) ;
#242 = AXIS2_PLACEMENT_3D ( 'NONE', #179, #129, #156 ) ;
#243 = CARTESIAN_POINT ( 'NONE',  ( 8.728703347107829444E-16, -3.061616997868381785E-17, 0.2499999999999998890 ) ) ;
#244 = ORIENTED_EDGE ( 'NONE', *, *, #144, .F. ) ;
#245 = ADVANCED_FACE ( 'NONE', ( #78, #107 ), #25, .T. ) ;
#246 = DESIGN_CONTEXT ( 'detailed design', #118, 'design' ) ;
#247 = AXIS2_PLACEMENT_3D ( 'NONE', #98, #228, #61 ) ;
#248 = PERSON ( 'UNSPECIFIED', 'UNSPECIFIED', 'UNSPECIFIED', ('UNSPECIFIED'), ('UNSPECIFIED'), ('UNSPECIFIED') ) ;
#249 = CC_DESIGN_DATE_AND_TIME_ASSIGNMENT ( #115, #113, ( #116 ) ) ;
#250 = FACE_BOUND ( 'NONE', #191, .T. ) ;
#251 = CARTESIAN_POINT ( 'NONE',  ( 2.793185071074506684E-14, 1.044999999999998819, 8.000000000000000000 ) ) ;
#252 =( NAMED_UNIT ( * ) PLANE_ANGLE_UNIT ( ) SI_UNIT ( $, .RADIAN. ) );
#253 = EDGE_CURVE ( 'NONE', #62, #62, #255, .T. ) ;
#254 = FACE_OUTER_BOUND ( 'NONE', #111, .T. ) ;
#255 = CIRCLE ( 'NONE', #196, 1.499999999999996669 ) ;
#256 = DIRECTION ( 'NONE',  ( -3.491481338843133355E-15, 1.224646799147353207E-16, -1.000000000000000000 ) ) ;
#257 = DIRECTION ( 'NONE',  ( 0.0000000000000000000, -1.000000000000000000, 0.0000000000000000000 ) ) ;
#258 = APPROVAL_ROLE ( '' ) ;
#259 = PERSON_AND_ORGANIZATION_ROLE ( 'design_owner' ) ;
#260 = CARTESIAN_POINT ( 'NONE',  ( 0.0000000000000000000, 0.0000000000000000000, 0.0000000000000000000 ) ) ;
#261 = DIRECTION ( 'NONE',  ( 0.0000000000000000000, 0.0000000000000000000, 1.000000000000000000 ) ) ;
#262 = PRODUCT_DEFINITION_FORMATION_WITH_SPECIFIED_SOURCE ( 'ANY', '', #163, .NOT_KNOWN. ) ;
#263 = CARTESIAN_POINT ( 'NONE',  ( 6.405924284287273902E-14, -2.246895775456748746E-15, 18.34729635533384240 ) ) ;
#264 = EDGE_CURVE ( 'NONE', #286, #286, #280, .T. ) ;
#265 = CARTESIAN_POINT ( 'NONE',  ( 0.0000000000000000000, 0.0000000000000000000, 0.0000000000000000000 ) ) ;
#266 = ADVANCED_BREP_SHAPE_REPRESENTATION ( '968093', ( #229, #16, #185 ), #271 ) ;
#267 = CARTESIAN_POINT ( 'NONE',  ( 4.276423536147513034E-47, 0.9006624327025944954, 0.0000000000000000000 ) ) ;
#268 = ADVANCED_FACE ( 'NONE', ( #254, #83 ), #52, .F. ) ;
#269 = CALENDAR_DATE ( 2021, 1, 12 ) ;
#270 = CALENDAR_DATE ( 2021, 1, 12 ) ;
#271 =( GEOMETRIC_REPRESENTATION_CONTEXT ( 3 ) GLOBAL_UNCERTAINTY_ASSIGNED_CONTEXT ( ( #77 ) ) GLOBAL_UNIT_ASSIGNED_CONTEXT ( ( #186, #252, #208 ) ) REPRESENTATION_CONTEXT ( 'NONE', 'WORKASPACE' ) );
#272 = CALENDAR_DATE ( 2021, 1, 12 ) ;
#273 = CALENDAR_DATE ( 2021, 1, 12 ) ;
#274 = PERSON_AND_ORGANIZATION ( #248, #232 ) ;
#275 = FACE_OUTER_BOUND ( 'NONE', #10, .T. ) ;
#276 = AXIS2_PLACEMENT_3D ( 'NONE', #56, #54, #55 ) ;
#277 = AXIS2_PLACEMENT_3D ( 'NONE', #2, #199, #201 ) ;
#278 = CC_DESIGN_DATE_AND_TIME_ASSIGNMENT ( #87, #42, ( #120 ) ) ;
#279 = DIRECTION ( 'NONE',  ( -3.491481338843133355E-15, 1.224646799147353207E-16, -1.000000000000000000 ) ) ;
#280 = CIRCLE ( 'NONE', #207, 0.8950000000000000178 ) ;
#281 = ORIENTED_EDGE ( 'NONE', *, *, #184, .T. ) ;
#282 = DIRECTION ( 'NONE',  ( -3.491481338843133355E-15, 1.224646799147353207E-16, -1.000000000000000000 ) ) ;
#283 = DIRECTION ( 'NONE',  ( -3.491481338843133355E-15, 1.224646799147353207E-16, -1.000000000000000000 ) ) ;
#284 = DIRECTION ( 'NONE',  ( 4.275831445896958607E-31, 1.000000000000000000, 1.224646799147352961E-16 ) ) ;
#285 = PLANE ( 'NONE',  #238 ) ;
#286 = VERTEX_POINT ( 'NONE', #159 ) ;
#287 = AXIS2_PLACEMENT_3D ( 'NONE', #150, #104, #121 ) ;
#288 = EDGE_CURVE ( 'NONE', #80, #80, #68, .T. ) ;
#289 = FACE_OUTER_BOUND ( 'NONE', #43, .T. ) ;
#290 = FACE_BOUND ( 'NONE', #38, .T. ) ;
#291 = CARTESIAN_POINT ( 'NONE',  ( 7.543730482881088927E-14, -2.645984467026162847E-15, 21.60610282792067594 ) ) ;
#292 = CIRCLE ( 'NONE', #1, 1.044999999999999929 ) ;
#293 = AXIS2_PLACEMENT_3D ( 'NONE', #27, #283, #177 ) ;
#294 = DATE_AND_TIME ( #272, #59 ) ;
#295 = MECHANICAL_CONTEXT ( 'NONE', #180, 'mechanical' ) ;
#296 = APPLICATION_PROTOCOL_DEFINITION ( 'international standard', 'config_control_design', 1994, #118 ) ;
#297 = EDGE_LOOP ( 'NONE', ( #153 ) ) ;
#298 = APPROVAL_PERSON_ORGANIZATION ( #274, #169, #189 ) ;
#299 = APPROVAL_ROLE ( '' ) ;
#300 = PERSON_AND_ORGANIZATION_ROLE ( 'creator' ) ;
#301 = ORIENTED_EDGE ( 'NONE', *, *, #288, .F. ) ;
#302 = CONICAL_SURFACE ( 'NONE', #276, 1.200000000000001732, 0.7853981633974453924 ) ;
#303 = EDGE_LOOP ( 'NONE', ( #110 ) ) ;
ENDSEC;
END-ISO-10303-21;
