ISO-10303-21;
HEADER;
FILE_DESCRIPTION (( 'STEP AP203' ),
    '1' );
FILE_NAME ('968047.step',
    '2021-11-29T14:49:39',
    ( '' ),
    ( '' ),
    'SwSTEP 2.0',
    'SolidWorks 2019',
    '' );
FILE_SCHEMA (( 'CONFIG_CONTROL_DESIGN' ));
ENDSEC;

DATA;
#1 = MECHANICAL_CONTEXT ( 'NONE', #129, 'mechanical' ) ;
#2 = DIRECTION ( 'NONE',  ( 0.0000000000000000000, -1.000000000000000000, 0.0000000000000000000 ) ) ;
#3 = PERSON_AND_ORGANIZATION ( #178, #109 ) ;
#4 = CIRCLE ( 'NONE', #115, 0.5003844939755808241 ) ;
#5 = AXIS2_PLACEMENT_3D ( 'NONE', #241, #26, #220 ) ;
#6 = VERTEX_POINT ( 'NONE', #100 ) ;
#7 = EDGE_LOOP ( 'NONE', ( #40 ) ) ;
#8 = FACE_OUTER_BOUND ( 'NONE', #7, .T. ) ;
#9 = PERSON_AND_ORGANIZATION_ROLE ( 'creator' ) ;
#10 = AXIS2_PLACEMENT_3D ( 'NONE', #150, #246, #22 ) ;
#11 = CONICAL_SURFACE ( 'NONE', #242, 1.200000000000003286, 0.7853981633974453924 ) ;
#12 = VERTEX_POINT ( 'NONE', #193 ) ;
#13 = EDGE_LOOP ( 'NONE', ( #268 ) ) ;
#14 = CALENDAR_DATE ( 2021, 29, 11 ) ;
#15 = APPROVAL ( #149, 'UNSPECIFIED' ) ;
#16 = ORIENTED_EDGE ( 'NONE', *, *, #206, .T. ) ;
#17 = AXIS2_PLACEMENT_3D ( 'NONE', #283, #163, #113 ) ;
#18 = CARTESIAN_POINT ( 'NONE',  ( 1.745740669421566678E-14, -6.123233995736765296E-16, 5.000000000000000000 ) ) ;
#19 = LOCAL_TIME ( 15, 49, 39.00000000000000000, #86 ) ;
#20 = VERTEX_POINT ( 'NONE', #161 ) ;
#21 = EDGE_LOOP ( 'NONE', ( #41 ) ) ;
#22 = DIRECTION ( 'NONE',  ( 0.0000000000000000000, 1.000000000000000000, 0.0000000000000000000 ) ) ;
#23 = CIRCLE ( 'NONE', #145, 1.499999999999997558 ) ;
#24 = AXIS2_PLACEMENT_3D ( 'NONE', #91, #112, #240 ) ;
#25 = CARTESIAN_POINT ( 'NONE',  ( 3.840629472727446691E-14, -1.347111479062088207E-15, 11.00000000000000000 ) ) ;
#26 = DIRECTION ( 'NONE',  ( -3.491481338843133355E-15, 1.224646799147352961E-16, -1.000000000000000000 ) ) ;
#27 = CC_DESIGN_PERSON_AND_ORGANIZATION_ASSIGNMENT ( #274, #147, ( #121 ) ) ;
#28 = CARTESIAN_POINT ( 'NONE',  ( 3.961887347097082447E-14, -1.389643016053601920E-15, 11.34729635533384595 ) ) ;
#29 = CARTESIAN_POINT ( 'NONE',  ( 1.326762908760390423E-13, -4.653657836759941152E-15, 38.00000000000000000 ) ) ;
#30 = FACE_OUTER_BOUND ( 'NONE', #84, .T. ) ;
#31 = PERSON_AND_ORGANIZATION_ROLE ( 'design_owner' ) ;
#32 = CONICAL_SURFACE ( 'NONE', #17, 0.5384999999999994236, 0.5235987755982925984 ) ;
#33 = PRODUCT_DEFINITION_FORMATION_WITH_SPECIFIED_SOURCE ( 'ANY', '', #209, .NOT_KNOWN. ) ;
#34 = AXIS2_PLACEMENT_3D ( 'NONE', #43, #37, #225 ) ;
#35 = ORIENTED_EDGE ( 'NONE', *, *, #63, .T. ) ;
#36 = DIRECTION ( 'NONE',  ( 0.0000000000000000000, 1.000000000000000000, 0.0000000000000000000 ) ) ;
#37 = DIRECTION ( 'NONE',  ( -3.491481338843133355E-15, 1.224646799147352961E-16, -1.000000000000000000 ) ) ;
#38 = APPROVAL_STATUS ( 'not_yet_approved' ) ;
#39 = CYLINDRICAL_SURFACE ( 'NONE', #160, 0.4699999999999995848 ) ;
#40 = ORIENTED_EDGE ( 'NONE', *, *, #76, .T. ) ;
#41 = ORIENTED_EDGE ( 'NONE', *, *, #76, .F. ) ;
#42 = ADVANCED_FACE ( 'NONE', ( #188, #87 ), #32, .T. ) ;
#43 = CARTESIAN_POINT ( 'NONE',  ( 1.326762908760390423E-13, 8.998558695971099120E-33, 38.00000000000000000 ) ) ;
#44 = DIRECTION ( 'NONE',  ( 0.0000000000000000000, 1.000000000000000000, 0.0000000000000000000 ) ) ;
#45 = EDGE_LOOP ( 'NONE', ( #72 ) ) ;
#46 = DIRECTION ( 'NONE',  ( 0.0000000000000000000, 1.000000000000000000, 0.0000000000000000000 ) ) ;
#47 = AXIS2_PLACEMENT_3D ( 'NONE', #25, #281, #189 ) ;
#48 = EDGE_LOOP ( 'NONE', ( #155 ) ) ;
#49 = CARTESIAN_POINT ( 'NONE',  ( 3.840629472727446691E-14, 0.4699999999999986411, 11.00000000000000000 ) ) ;
#50 = CARTESIAN_POINT ( 'NONE',  ( 1.787165517468568929E-14, -6.268532803442081367E-16, 5.118645480318471108 ) ) ;
#51 = CC_DESIGN_PERSON_AND_ORGANIZATION_ASSIGNMENT ( #275, #31, ( #209 ) ) ;
#52 = AXIS2_PLACEMENT_3D ( 'NONE', #185, #67, #156 ) ;
#53 = DIRECTION ( 'NONE',  ( -3.491481338843133355E-15, 1.224646799147352961E-16, -1.000000000000000000 ) ) ;
#54 = CC_DESIGN_DATE_AND_TIME_ASSIGNMENT ( #177, #66, ( #121 ) ) ;
#55 = ORIENTED_EDGE ( 'NONE', *, *, #94, .T. ) ;
#56 = VERTEX_POINT ( 'NONE', #142 ) ;
#57 = PRODUCT_DEFINITION_SHAPE ( 'NONE', 'NONE',  #293 ) ;
#58 = COORDINATED_UNIVERSAL_TIME_OFFSET ( 1, 0, .AHEAD. ) ;
#59 = APPROVAL_PERSON_ORGANIZATION ( #226, #81, #82 ) ;
#60 = ORIENTED_EDGE ( 'NONE', *, *, #78, .T. ) ;
#61 = COORDINATED_UNIVERSAL_TIME_OFFSET ( 1, 0, .AHEAD. ) ;
#62 = ORIENTED_EDGE ( 'NONE', *, *, #250, .F. ) ;
#63 = EDGE_CURVE ( 'NONE', #12, #12, #23, .T. ) ;
#64 = PERSON_AND_ORGANIZATION_ROLE ( 'design_supplier' ) ;
#65 = CARTESIAN_POINT ( 'NONE',  ( 1.316288464743861212E-13, 1.499999999999998668, 37.69999999999999574 ) ) ;
#66 = DATE_TIME_ROLE ( 'classification_date' ) ;
#67 = DIRECTION ( 'NONE',  ( -3.491481338843133355E-15, 1.224646799147352961E-16, -1.000000000000000000 ) ) ;
#68 = ADVANCED_BREP_SHAPE_REPRESENTATION ( '968047', ( #162, #69, #234 ), #153 ) ;
#69 = MANIFOLD_SOLID_BREP ( 'Corps-Déplacer/Copier1[2]', #151 ) ;
#70 = ORIENTED_EDGE ( 'NONE', *, *, #206, .F. ) ;
#71 = DIRECTION ( 'NONE',  ( -4.275831445896957731E-31, -1.000000000000000000, -1.224646799147352961E-16 ) ) ;
#72 = ORIENTED_EDGE ( 'NONE', *, *, #78, .F. ) ;
#73 = FACE_OUTER_BOUND ( 'NONE', #270, .T. ) ;
#74 = DIRECTION ( 'NONE',  ( 4.275831445896957731E-31, 1.000000000000000000, 1.224646799147353207E-16 ) ) ;
#75 = DIRECTION ( 'NONE',  ( 3.491481338843133355E-15, -1.224646799147352961E-16, 1.000000000000000000 ) ) ;
#76 = EDGE_CURVE ( 'NONE', #284, #284, #139, .T. ) ;
#77 = EDGE_LOOP ( 'NONE', ( #251 ) ) ;
#78 = EDGE_CURVE ( 'NONE', #56, #56, #137, .T. ) ;
#79 = CYLINDRICAL_SURFACE ( 'NONE', #5, 0.5384999999999996456 ) ;
#80 = CIRCLE ( 'NONE', #252, 0.4699999999999991962 ) ;
#81 = APPROVAL ( #38, 'UNSPECIFIED' ) ;
#82 = APPROVAL_ROLE ( '' ) ;
#83 = AXIS2_PLACEMENT_3D ( 'NONE', #135, #211, #295 ) ;
#84 = EDGE_LOOP ( 'NONE', ( #124 ) ) ;
#85 = CALENDAR_DATE ( 2021, 29, 11 ) ;
#86 = COORDINATED_UNIVERSAL_TIME_OFFSET ( 1, 0, .AHEAD. ) ;
#87 = FACE_OUTER_BOUND ( 'NONE', #214, .T. ) ;
#88 = DIRECTION ( 'NONE',  ( -3.491481338843133355E-15, 1.224646799147352961E-16, -1.000000000000000000 ) ) ;
#89 = AXIS2_PLACEMENT_3D ( 'NONE', #159, #280, #247 ) ;
#90 = LOCAL_TIME ( 15, 49, 39.00000000000000000, #123 ) ;
#91 = CARTESIAN_POINT ( 'NONE',  ( 1.745740669421566678E-14, 4.038103214817040853E-33, 5.000000000000000000 ) ) ;
#92 = ORIENTED_EDGE ( 'NONE', *, *, #119, .F. ) ;
#93 = CARTESIAN_POINT ( 'NONE',  ( 1.316288464743861212E-13, -4.616918432785520292E-15, 37.69999999999999574 ) ) ;
#94 = EDGE_CURVE ( 'NONE', #6, #6, #190, .T. ) ;
#95 = FACE_OUTER_BOUND ( 'NONE', #224, .T. ) ;
#96 = DIRECTION ( 'NONE',  ( 3.491481338843133355E-15, -1.224646799147352961E-16, 1.000000000000000000 ) ) ;
#97 = CC_DESIGN_PERSON_AND_ORGANIZATION_ASSIGNMENT ( #269, #9, ( #33 ) ) ;
#98 = LOCAL_TIME ( 15, 49, 39.00000000000000000, #202 ) ;
#99 = PERSON_AND_ORGANIZATION ( #178, #109 ) ;
#100 = CARTESIAN_POINT ( 'NONE',  ( 1.745740669421566678E-14, 0.5384999999999994236, 5.000000000000000000 ) ) ;
#101 = PLANE ( 'NONE',  #169 ) ;
#102 = DATE_AND_TIME ( #14, #262 ) ;
#103 = CC_DESIGN_DATE_AND_TIME_ASSIGNMENT ( #174, #291, ( #293 ) ) ;
#104 = VERTEX_POINT ( 'NONE', #236 ) ;
#105 = ORIENTED_EDGE ( 'NONE', *, *, #250, .T. ) ;
#106 = CLOSED_SHELL ( 'NONE', ( #276, #125, #303, #167, #259, #191, #265, #218 ) ) ;
#107 = DATE_AND_TIME ( #288, #264 ) ;
#108 = CARTESIAN_POINT ( 'NONE',  ( 1.745740669421566678E-14, -6.123233995736765296E-16, 5.000000000000000000 ) ) ;
#109 = ORGANIZATION ( 'UNSPECIFIED', 'UNSPECIFIED', '' ) ;
#110 = VERTEX_POINT ( 'NONE', #49 ) ;
#111 =( NAMED_UNIT ( * ) PLANE_ANGLE_UNIT ( ) SI_UNIT ( $, .RADIAN. ) );
#112 = DIRECTION ( 'NONE',  ( 3.491481338843133355E-15, -1.224646799147352961E-16, 1.000000000000000000 ) ) ;
#113 = DIRECTION ( 'NONE',  ( -3.576471577320775973E-31, -1.000000000000000000, -1.006687253932688546E-16 ) ) ;
#114 =( LENGTH_UNIT ( ) NAMED_UNIT ( * ) SI_UNIT ( .MILLI., .METRE. ) );
#115 = AXIS2_PLACEMENT_3D ( 'NONE', #28, #53, #136 ) ;
#116 = CIRCLE ( 'NONE', #289, 0.5384999999999999787 ) ;
#117 = FACE_BOUND ( 'NONE', #131, .T. ) ;
#118 = DIRECTION ( 'NONE',  ( 0.0000000000000000000, 0.0000000000000000000, 1.000000000000000000 ) ) ;
#119 = EDGE_CURVE ( 'NONE', #195, #195, #116, .T. ) ;
#120 = CARTESIAN_POINT ( 'NONE',  ( 5.941243467912843460E-14, -2.083907685539968187E-15, 17.01639760125830492 ) ) ;
#121 = SECURITY_CLASSIFICATION ( '', '', #126 ) ;
#122 = FACE_OUTER_BOUND ( 'NONE', #199, .T. ) ;
#123 = COORDINATED_UNIVERSAL_TIME_OFFSET ( 1, 0, .AHEAD. ) ;
#124 = ORIENTED_EDGE ( 'NONE', *, *, #94, .F. ) ;
#125 = ADVANCED_FACE ( 'NONE', ( #179, #273 ), #245, .T. ) ;
#126 = SECURITY_CLASSIFICATION_LEVEL ( 'unclassified' ) ;
#127 = DIRECTION ( 'NONE',  ( -3.491481338843133355E-15, 1.224646799147352961E-16, -1.000000000000000000 ) ) ;
#128 = AXIS2_PLACEMENT_3D ( 'NONE', #184, #157, #71 ) ;
#129 = APPLICATION_CONTEXT ( 'configuration controlled 3d designs of mechanical parts and assemblies' ) ;
#130 = DIRECTION ( 'NONE',  ( -3.491481338843133355E-15, 1.224646799147352961E-16, -1.000000000000000000 ) ) ;
#131 = EDGE_LOOP ( 'NONE', ( #60 ) ) ;
#132 = EDGE_LOOP ( 'NONE', ( #175 ) ) ;
#133 = APPROVAL_PERSON_ORGANIZATION ( #271, #15, #152 ) ;
#134 = EDGE_LOOP ( 'NONE', ( #290 ) ) ;
#135 = CARTESIAN_POINT ( 'NONE',  ( -3.578107950924160585E-31, 1.255031324485002457E-32, -1.024810847796119034E-16 ) ) ;
#136 = DIRECTION ( 'NONE',  ( 0.0000000000000000000, 1.000000000000000000, 0.0000000000000000000 ) ) ;
#137 = CIRCLE ( 'NONE', #52, 1.200000000000003286 ) ;
#138 = CARTESIAN_POINT ( 'NONE',  ( 0.0000000000000000000, 0.0000000000000000000, 0.0000000000000000000 ) ) ;
#139 = CIRCLE ( 'NONE', #83, 0.3941624327025949892 ) ;
#140 = FACE_OUTER_BOUND ( 'NONE', #13, .T. ) ;
#141 = VERTEX_POINT ( 'NONE', #143 ) ;
#142 = CARTESIAN_POINT ( 'NONE',  ( 1.326762908760390423E-13, 1.199999999999998845, 38.00000000000000000 ) ) ;
#143 = CARTESIAN_POINT ( 'NONE',  ( 8.728703347107833388E-16, 0.5384999999999994236, 0.2500000000000000000 ) ) ;
#144 = EDGE_LOOP ( 'NONE', ( #237 ) ) ;
#145 = AXIS2_PLACEMENT_3D ( 'NONE', #263, #235, #298 ) ;
#146 = CONICAL_SURFACE ( 'NONE', #204, 1.499999999999997558, 0.1745329251994260922 ) ;
#147 = PERSON_AND_ORGANIZATION_ROLE ( 'classification_officer' ) ;
#148 = EDGE_LOOP ( 'NONE', ( #62 ) ) ;
#149 = APPROVAL_STATUS ( 'not_yet_approved' ) ;
#150 = CARTESIAN_POINT ( 'NONE',  ( 1.787165517468568929E-14, -6.268532803442081367E-16, 5.118645480318471108 ) ) ;
#151 = CLOSED_SHELL ( 'NONE', ( #239, #42, #256, #180 ) ) ;
#152 = APPROVAL_ROLE ( '' ) ;
#153 =( GEOMETRIC_REPRESENTATION_CONTEXT ( 3 ) GLOBAL_UNCERTAINTY_ASSIGNED_CONTEXT ( ( #210 ) ) GLOBAL_UNIT_ASSIGNED_CONTEXT ( ( #114, #111, #216 ) ) REPRESENTATION_CONTEXT ( 'NONE', 'WORKASPACE' ) );
#154 = DIRECTION ( 'NONE',  ( 1.000000000000000000, 0.0000000000000000000, 0.0000000000000000000 ) ) ;
#155 = ORIENTED_EDGE ( 'NONE', *, *, #63, .F. ) ;
#156 = DIRECTION ( 'NONE',  ( 0.0000000000000000000, 1.000000000000000000, 0.0000000000000000000 ) ) ;
#157 = DIRECTION ( 'NONE',  ( 3.491481338843133355E-15, -1.224646799147352961E-16, 1.000000000000000000 ) ) ;
#158 = FACE_OUTER_BOUND ( 'NONE', #144, .T. ) ;
#159 = CARTESIAN_POINT ( 'NONE',  ( 3.840629472727446691E-14, -1.301042606982605321E-15, 11.00000000000000000 ) ) ;
#160 = AXIS2_PLACEMENT_3D ( 'NONE', #203, #127, #227 ) ;
#161 = CARTESIAN_POINT ( 'NONE',  ( 3.961887347097082447E-14, 0.5003844939755793808, 11.34729635533384595 ) ) ;
#162 = MANIFOLD_SOLID_BREP ( 'Corps-Déplacer/Copier1[1]', #106 ) ;
#163 = DIRECTION ( 'NONE',  ( 3.491481338843133355E-15, -1.224646799147352961E-16, 1.000000000000000000 ) ) ;
#164 = DIRECTION ( 'NONE',  ( -3.491481338843133355E-15, 1.224646799147352961E-16, -1.000000000000000000 ) ) ;
#165 = PLANE ( 'NONE',  #34 ) ;
#166 = DIRECTION ( 'NONE',  ( 0.0000000000000000000, 1.000000000000000000, 0.0000000000000000000 ) ) ;
#167 = ADVANCED_FACE ( 'NONE', ( #73, #95 ), #228, .F. ) ;
#168 = FACE_OUTER_BOUND ( 'NONE', #132, .T. ) ;
#169 = AXIS2_PLACEMENT_3D ( 'NONE', #201, #75, #282 ) ;
#170 = CARTESIAN_POINT ( 'NONE',  ( -1.892735826383161356E-31, 0.3941624327025949892, -5.421010862427522170E-17 ) ) ;
#171 = APPLICATION_PROTOCOL_DEFINITION ( 'international standard', 'config_control_design', 1994, #215 ) ;
#172 = EDGE_LOOP ( 'NONE', ( #55 ) ) ;
#173 = CC_DESIGN_APPROVAL ( #15, ( #121 ) ) ;
#174 = DATE_AND_TIME ( #222, #90 ) ;
#175 = ORIENTED_EDGE ( 'NONE', *, *, #243, .F. ) ;
#176 = PLANE ( 'NONE',  #24 ) ;
#177 = DATE_AND_TIME ( #85, #98 ) ;
#178 = PERSON ( 'UNSPECIFIED', 'UNSPECIFIED', 'UNSPECIFIED', ('UNSPECIFIED'), ('UNSPECIFIED'), ('UNSPECIFIED') ) ;
#179 = FACE_OUTER_BOUND ( 'NONE', #296, .T. ) ;
#180 = ADVANCED_FACE ( 'NONE', ( #30 ), #258, .T. ) ;
#181 = APPROVAL_DATE_TIME ( #107, #81 ) ;
#182 = CARTESIAN_POINT ( 'NONE',  ( 0.0000000000000000000, 0.0000000000000000000, 0.0000000000000000000 ) ) ;
#183 = EDGE_LOOP ( 'NONE', ( #233 ) ) ;
#184 = CARTESIAN_POINT ( 'NONE',  ( 1.745740669421566678E-14, 4.038103214817040853E-33, 5.000000000000000000 ) ) ;
#185 = CARTESIAN_POINT ( 'NONE',  ( 1.326762908760390423E-13, -4.653657836759941152E-15, 38.00000000000000000 ) ) ;
#186 = CIRCLE ( 'NONE', #47, 0.4699999999999999734 ) ;
#187 = CC_DESIGN_PERSON_AND_ORGANIZATION_ASSIGNMENT ( #99, #205, ( #293 ) ) ;
#188 = FACE_BOUND ( 'NONE', #21, .T. ) ;
#189 = DIRECTION ( 'NONE',  ( 0.0000000000000000000, 1.000000000000000000, 0.0000000000000000000 ) ) ;
#190 = CIRCLE ( 'NONE', #192, 0.5384999999999999787 ) ;
#191 = ADVANCED_FACE ( 'NONE', ( #208, #158 ), #257, .T. ) ;
#192 = AXIS2_PLACEMENT_3D ( 'NONE', #18, #238, #44 ) ;
#193 = CARTESIAN_POINT ( 'NONE',  ( 5.941243467912843460E-14, 1.499999999999995559, 17.01639760125830492 ) ) ;
#194 = SHAPE_DEFINITION_REPRESENTATION ( #57, #68 ) ;
#195 = VERTEX_POINT ( 'NONE', #212 ) ;
#196 = APPROVAL ( #207, 'UNSPECIFIED' ) ;
#197 = DATE_AND_TIME ( #292, #19 ) ;
#198 = FACE_OUTER_BOUND ( 'NONE', #77, .T. ) ;
#199 = EDGE_LOOP ( 'NONE', ( #35 ) ) ;
#200 = APPLICATION_PROTOCOL_DEFINITION ( 'international standard', 'config_control_design', 1994, #129 ) ;
#201 = CARTESIAN_POINT ( 'NONE',  ( -1.789053975462080292E-31, 6.275156622425012283E-33, -5.124054238980595170E-17 ) ) ;
#202 = COORDINATED_UNIVERSAL_TIME_OFFSET ( 1, 0, .AHEAD. ) ;
#203 = CARTESIAN_POINT ( 'NONE',  ( 0.0000000000000000000, 0.0000000000000000000, 0.0000000000000000000 ) ) ;
#204 = AXIS2_PLACEMENT_3D ( 'NONE', #120, #96, #2 ) ;
#205 = PERSON_AND_ORGANIZATION_ROLE ( 'creator' ) ;
#206 = EDGE_CURVE ( 'NONE', #141, #141, #249, .T. ) ;
#207 = APPROVAL_STATUS ( 'not_yet_approved' ) ;
#208 = FACE_OUTER_BOUND ( 'NONE', #48, .T. ) ;
#209 = PRODUCT ( '968047', '968047', '', ( #1 ) ) ;
#210 = UNCERTAINTY_MEASURE_WITH_UNIT (LENGTH_MEASURE( 1.000000000000000082E-05 ), #114, 'distance_accuracy_value', 'NONE');
#211 = DIRECTION ( 'NONE',  ( -3.491481338843133355E-15, 1.224646799147352961E-16, -1.000000000000000000 ) ) ;
#212 = CARTESIAN_POINT ( 'NONE',  ( 1.745740669421566678E-14, 0.5384999999999994236, 5.000000000000000000 ) ) ;
#213 = CIRCLE ( 'NONE', #217, 1.500000000000003331 ) ;
#214 = EDGE_LOOP ( 'NONE', ( #16 ) ) ;
#215 = APPLICATION_CONTEXT ( 'configuration controlled 3d designs of mechanical parts and assemblies' ) ;
#216 =( NAMED_UNIT ( * ) SI_UNIT ( $, .STERADIAN. ) SOLID_ANGLE_UNIT ( ) );
#217 = AXIS2_PLACEMENT_3D ( 'NONE', #93, #164, #260 ) ;
#218 = ADVANCED_FACE ( 'NONE', ( #279 ), #165, .F. ) ;
#219 = DIRECTION ( 'NONE',  ( -3.491481338843133355E-15, 1.224646799147352961E-16, -1.000000000000000000 ) ) ;
#220 = DIRECTION ( 'NONE',  ( 4.275831445896958607E-31, 1.000000000000000000, 1.224646799147352961E-16 ) ) ;
#221 = EDGE_LOOP ( 'NONE', ( #70 ) ) ;
#222 = CALENDAR_DATE ( 2021, 29, 11 ) ;
#223 = PRODUCT_RELATED_PRODUCT_CATEGORY ( 'detail', '', ( #209 ) ) ;
#224 = EDGE_LOOP ( 'NONE', ( #105 ) ) ;
#225 = DIRECTION ( 'NONE',  ( 4.275831445896957731E-31, 1.000000000000000000, 1.224646799147352961E-16 ) ) ;
#226 = PERSON_AND_ORGANIZATION ( #178, #109 ) ;
#227 = DIRECTION ( 'NONE',  ( 4.275831445896957731E-31, 1.000000000000000000, 1.224646799147353207E-16 ) ) ;
#228 = TOROIDAL_SURFACE ( 'NONE', #89, 2.469999999999999751, 2.000000000000000000 ) ;
#229 = CC_DESIGN_APPROVAL ( #196, ( #293 ) ) ;
#230 = CARTESIAN_POINT ( 'NONE',  ( 8.728703347107831416E-16, -3.061616997868381785E-17, 0.2499999999999999445 ) ) ;
#231 = PERSON_AND_ORGANIZATION ( #178, #109 ) ;
#232 = DESIGN_CONTEXT ( 'detailed design', #215, 'design' ) ;
#233 = ORIENTED_EDGE ( 'NONE', *, *, #248, .T. ) ;
#234 = AXIS2_PLACEMENT_3D ( 'NONE', #138, #118, #154 ) ;
#235 = DIRECTION ( 'NONE',  ( -3.491481338843133355E-15, 1.224646799147352961E-16, -1.000000000000000000 ) ) ;
#236 = CARTESIAN_POINT ( 'NONE',  ( 1.787165517468568929E-14, 0.4699999999999985301, 5.118645480318471108 ) ) ;
#237 = ORIENTED_EDGE ( 'NONE', *, *, #243, .T. ) ;
#238 = DIRECTION ( 'NONE',  ( -3.491481338843133355E-15, 1.224646799147352961E-16, -1.000000000000000000 ) ) ;
#239 = ADVANCED_FACE ( 'NONE', ( #8 ), #101, .F. ) ;
#240 = DIRECTION ( 'NONE',  ( -4.275831445896957731E-31, -1.000000000000000000, -1.224646799147352961E-16 ) ) ;
#241 = CARTESIAN_POINT ( 'NONE',  ( 0.0000000000000000000, 0.0000000000000000000, 0.0000000000000000000 ) ) ;
#242 = AXIS2_PLACEMENT_3D ( 'NONE', #29, #130, #36 ) ;
#243 = EDGE_CURVE ( 'NONE', #286, #286, #213, .T. ) ;
#244 = FACE_OUTER_BOUND ( 'NONE', #221, .T. ) ;
#245 = CONICAL_SURFACE ( 'NONE', #10, 0.4699999999999991962, 0.5235987755982924874 ) ;
#246 = DIRECTION ( 'NONE',  ( -3.491481338843133355E-15, 1.224646799147352961E-16, -1.000000000000000000 ) ) ;
#247 = DIRECTION ( 'NONE',  ( 4.275831445896957731E-31, 1.000000000000000000, 1.224646799147352961E-16 ) ) ;
#248 = EDGE_CURVE ( 'NONE', #104, #104, #80, .T. ) ;
#249 = CIRCLE ( 'NONE', #294, 0.5384999999999994236 ) ;
#250 = EDGE_CURVE ( 'NONE', #20, #20, #4, .T. ) ;
#251 = ORIENTED_EDGE ( 'NONE', *, *, #248, .F. ) ;
#252 = AXIS2_PLACEMENT_3D ( 'NONE', #50, #261, #166 ) ;
#253 = CC_DESIGN_SECURITY_CLASSIFICATION ( #121, ( #33 ) ) ;
#254 = APPROVAL_DATE_TIME ( #197, #196 ) ;
#255 = ORIENTED_EDGE ( 'NONE', *, *, #297, .F. ) ;
#256 = ADVANCED_FACE ( 'NONE', ( #244, #302 ), #79, .T. ) ;
#257 = CYLINDRICAL_SURFACE ( 'NONE', #299, 1.500000000000000444 ) ;
#258 = PLANE ( 'NONE',  #128 ) ;
#259 = ADVANCED_FACE ( 'NONE', ( #300, #122 ), #146, .T. ) ;
#260 = DIRECTION ( 'NONE',  ( 0.0000000000000000000, 1.000000000000000000, 0.0000000000000000000 ) ) ;
#261 = DIRECTION ( 'NONE',  ( -3.491481338843133355E-15, 1.224646799147352961E-16, -1.000000000000000000 ) ) ;
#262 = LOCAL_TIME ( 15, 49, 39.00000000000000000, #58 ) ;
#263 = CARTESIAN_POINT ( 'NONE',  ( 5.941243467912843460E-14, -2.083907685539968187E-15, 17.01639760125830492 ) ) ;
#264 = LOCAL_TIME ( 15, 49, 39.00000000000000000, #61 ) ;
#265 = ADVANCED_FACE ( 'NONE', ( #168, #117 ), #11, .T. ) ;
#266 = APPROVAL_ROLE ( '' ) ;
#267 = CC_DESIGN_APPROVAL ( #81, ( #33 ) ) ;
#268 = ORIENTED_EDGE ( 'NONE', *, *, #297, .T. ) ;
#269 = PERSON_AND_ORGANIZATION ( #178, #109 ) ;
#270 = EDGE_LOOP ( 'NONE', ( #255 ) ) ;
#271 = PERSON_AND_ORGANIZATION ( #178, #109 ) ;
#272 = DIRECTION ( 'NONE',  ( 3.576471577320775973E-31, 1.000000000000000000, 1.006687253932688546E-16 ) ) ;
#273 = FACE_BOUND ( 'NONE', #183, .T. ) ;
#274 = PERSON_AND_ORGANIZATION ( #178, #109 ) ;
#275 = PERSON_AND_ORGANIZATION ( #178, #109 ) ;
#276 = ADVANCED_FACE ( 'NONE', ( #287 ), #176, .F. ) ;
#277 = DIRECTION ( 'NONE',  ( -3.491481338843133355E-15, 1.224646799147352961E-16, -1.000000000000000000 ) ) ;
#278 = APPROVAL_PERSON_ORGANIZATION ( #231, #196, #266 ) ;
#279 = FACE_OUTER_BOUND ( 'NONE', #45, .T. ) ;
#280 = DIRECTION ( 'NONE',  ( -3.491481338843133355E-15, 1.224646799147352961E-16, -1.000000000000000000 ) ) ;
#281 = DIRECTION ( 'NONE',  ( -3.491481338843133355E-15, 1.224646799147352961E-16, -1.000000000000000000 ) ) ;
#282 = DIRECTION ( 'NONE',  ( -4.275831445896957731E-31, -1.000000000000000000, -1.224646799147352961E-16 ) ) ;
#283 = CARTESIAN_POINT ( 'NONE',  ( 8.728703347107831416E-16, -3.061616997868381785E-17, 0.2499999999999999445 ) ) ;
#284 = VERTEX_POINT ( 'NONE', #170 ) ;
#285 = APPROVAL_DATE_TIME ( #102, #15 ) ;
#286 = VERTEX_POINT ( 'NONE', #65 ) ;
#287 = FACE_OUTER_BOUND ( 'NONE', #134, .T. ) ;
#288 = CALENDAR_DATE ( 2021, 29, 11 ) ;
#289 = AXIS2_PLACEMENT_3D ( 'NONE', #108, #88, #46 ) ;
#290 = ORIENTED_EDGE ( 'NONE', *, *, #119, .T. ) ;
#291 = DATE_TIME_ROLE ( 'creation_date' ) ;
#292 = CALENDAR_DATE ( 2021, 29, 11 ) ;
#293 = PRODUCT_DEFINITION ( 'UNKNOWN', '', #33, #232 ) ;
#294 = AXIS2_PLACEMENT_3D ( 'NONE', #230, #219, #272 ) ;
#295 = DIRECTION ( 'NONE',  ( 4.275831445896957731E-31, 1.000000000000000000, 1.224646799147352961E-16 ) ) ;
#296 = EDGE_LOOP ( 'NONE', ( #92 ) ) ;
#297 = EDGE_CURVE ( 'NONE', #110, #110, #186, .T. ) ;
#298 = DIRECTION ( 'NONE',  ( 0.0000000000000000000, 1.000000000000000000, 0.0000000000000000000 ) ) ;
#299 = AXIS2_PLACEMENT_3D ( 'NONE', #182, #277, #74 ) ;
#300 = FACE_BOUND ( 'NONE', #148, .T. ) ;
#301 = CC_DESIGN_PERSON_AND_ORGANIZATION_ASSIGNMENT ( #3, #64, ( #33 ) ) ;
#302 = FACE_OUTER_BOUND ( 'NONE', #172, .T. ) ;
#303 = ADVANCED_FACE ( 'NONE', ( #198, #140 ), #39, .T. ) ;
ENDSEC;
END-ISO-10303-21;
