ISO-10303-21;
HEADER;
FILE_DESCRIPTION (( 'STEP AP203' ),
    '1' );
FILE_NAME ('967590.step',
    '2021-11-30T06:45:16',
    ( '' ),
    ( '' ),
    'SwSTEP 2.0',
    'SolidWorks 2019',
    '' );
FILE_SCHEMA (( 'CONFIG_CONTROL_DESIGN' ));
ENDSEC;

DATA;
#1 = EDGE_LOOP ( 'NONE', ( #287 ) ) ;
#2 = CC_DESIGN_PERSON_AND_ORGANIZATION_ASSIGNMENT ( #255, #179, ( #147 ) ) ;
#3 = APPROVAL_PERSON_ORGANIZATION ( #235, #237, #185 ) ;
#4 = CARTESIAN_POINT ( 'NONE',  ( 8.728703347107831416E-16, -3.061616997868382402E-17, 0.2499999999999999445 ) ) ;
#5 = FACE_OUTER_BOUND ( 'NONE', #1, .T. ) ;
#6 = DIRECTION ( 'NONE',  ( 4.275831445896958607E-31, 1.000000000000000000, 1.224646799147353454E-16 ) ) ;
#7 = ORIENTED_EDGE ( 'NONE', *, *, #218, .T. ) ;
#8 = ADVANCED_BREP_SHAPE_REPRESENTATION ( '967590', ( #258, #53, #115 ), #49 ) ;
#9 = CC_DESIGN_SECURITY_CLASSIFICATION ( #147, ( #62 ) ) ;
#10 = EDGE_LOOP ( 'NONE', ( #83 ) ) ;
#11 = VERTEX_POINT ( 'NONE', #226 ) ;
#12 = EDGE_LOOP ( 'NONE', ( #127 ) ) ;
#13 = DIRECTION ( 'NONE',  ( -4.275831445896958607E-31, -1.000000000000000000, -1.224646799147353207E-16 ) ) ;
#14 = APPROVAL_ROLE ( '' ) ;
#15 = CONICAL_SURFACE ( 'NONE', #187, 1.200000000000001732, 0.7853981633974453924 ) ;
#16 = SHAPE_DEFINITION_REPRESENTATION ( #239, #8 ) ;
#17 = AXIS2_PLACEMENT_3D ( 'NONE', #57, #166, #262 ) ;
#18 = CARTESIAN_POINT ( 'NONE',  ( 1.745740669421566678E-13, 1.199999999999995515, 50.00000000000000000 ) ) ;
#19 = DATE_AND_TIME ( #296, #277 ) ;
#20 = APPLICATION_CONTEXT ( 'configuration controlled 3d designs of mechanical parts and assemblies' ) ;
#21 = DIRECTION ( 'NONE',  ( -3.604922684861466278E-31, -1.000000000000000000, -1.014695528765096719E-16 ) ) ;
#22 = CC_DESIGN_PERSON_AND_ORGANIZATION_ASSIGNMENT ( #213, #302, ( #190 ) ) ;
#23 = CYLINDRICAL_SURFACE ( 'NONE', #165, 1.068499999999999117 ) ;
#24 = ORIENTED_EDGE ( 'NONE', *, *, #72, .F. ) ;
#25 = CIRCLE ( 'NONE', #207, 1.200000000000001732 ) ;
#26 = AXIS2_PLACEMENT_3D ( 'NONE', #52, #123, #220 ) ;
#27 = DIRECTION ( 'NONE',  ( 0.0000000000000000000, 1.000000000000000000, 0.0000000000000000000 ) ) ;
#28 = EDGE_LOOP ( 'NONE', ( #268 ) ) ;
#29 = FACE_OUTER_BOUND ( 'NONE', #10, .T. ) ;
#30 = DIRECTION ( 'NONE',  ( 0.0000000000000000000, 1.000000000000000000, 0.0000000000000000000 ) ) ;
#31 = DIRECTION ( 'NONE',  ( -3.491481338843133355E-15, 1.224646799147353207E-16, -1.000000000000000000 ) ) ;
#32 = DIRECTION ( 'NONE',  ( 0.0000000000000000000, 1.000000000000000000, 0.0000000000000000000 ) ) ;
#33 = LOCAL_TIME ( 7, 45, 16.00000000000000000, #157 ) ;
#34 = DIRECTION ( 'NONE',  ( -3.491481338843133355E-15, 1.224646799147353207E-16, -1.000000000000000000 ) ) ;
#35 = FACE_OUTER_BOUND ( 'NONE', #79, .T. ) ;
#36 = CARTESIAN_POINT ( 'NONE',  ( 6.405924284287273902E-14, 0.9453844939755775556, 18.34729635533384240 ) ) ;
#37 = COORDINATED_UNIVERSAL_TIME_OFFSET ( 1, 0, .AHEAD. ) ;
#38 = DIRECTION ( 'NONE',  ( 3.491481338843133355E-15, -1.224646799147353207E-16, 1.000000000000000000 ) ) ;
#39 = COORDINATED_UNIVERSAL_TIME_OFFSET ( 1, 0, .AHEAD. ) ;
#40 = DIRECTION ( 'NONE',  ( 4.275831445896958607E-31, 1.000000000000000000, 1.224646799147353207E-16 ) ) ;
#41 = DIRECTION ( 'NONE',  ( 0.0000000000000000000, 1.000000000000000000, 0.0000000000000000000 ) ) ;
#42 = DATE_AND_TIME ( #94, #33 ) ;
#43 = PLANE ( 'NONE',  #257 ) ;
#44 = PERSON_AND_ORGANIZATION ( #117, #154 ) ;
#45 = CONICAL_SURFACE ( 'NONE', #243, 1.499999999999996669, 0.1745329251994260644 ) ;
#46 = EDGE_CURVE ( 'NONE', #111, #111, #25, .T. ) ;
#47 = EDGE_LOOP ( 'NONE', ( #128 ) ) ;
#48 = CIRCLE ( 'NONE', #224, 0.9150000000000000355 ) ;
#49 =( GEOMETRIC_REPRESENTATION_CONTEXT ( 3 ) GLOBAL_UNCERTAINTY_ASSIGNED_CONTEXT ( ( #233 ) ) GLOBAL_UNIT_ASSIGNED_CONTEXT ( ( #108, #156, #134 ) ) REPRESENTATION_CONTEXT ( 'NONE', 'WORKASPACE' ) );
#50 = DIRECTION ( 'NONE',  ( 4.275831445896958607E-31, 1.000000000000000000, 1.224646799147353207E-16 ) ) ;
#51 = APPROVAL ( #272, 'UNSPECIFIED' ) ;
#52 = CARTESIAN_POINT ( 'NONE',  ( 2.793185071074506684E-14, 8.012466638870956945E-33, 8.000000000000000000 ) ) ;
#53 = MANIFOLD_SOLID_BREP ( 'Corps-Déplacer/Copier1[2]', #160 ) ;
#54 = ORIENTED_EDGE ( 'NONE', *, *, #301, .F. ) ;
#55 = LOCAL_TIME ( 7, 45, 16.00000000000000000, #300 ) ;
#56 = FACE_OUTER_BOUND ( 'NONE', #244, .T. ) ;
#57 = CARTESIAN_POINT ( 'NONE',  ( 2.793185071074506684E-14, -9.797174393178825657E-16, 8.000000000000000000 ) ) ;
#58 = CARTESIAN_POINT ( 'NONE',  ( 1.745740669421566678E-13, -6.123233995736766085E-15, 50.00000000000000000 ) ) ;
#59 = DIRECTION ( 'NONE',  ( 1.000000000000000000, 0.0000000000000000000, 0.0000000000000000000 ) ) ;
#60 = FACE_OUTER_BOUND ( 'NONE', #247, .T. ) ;
#61 = CARTESIAN_POINT ( 'NONE',  ( 2.793185071074506684E-14, 8.012466638870956945E-33, 8.000000000000000000 ) ) ;
#62 = PRODUCT_DEFINITION_FORMATION_WITH_SPECIFIED_SOURCE ( 'ANY', '', #190, .NOT_KNOWN. ) ;
#63 = FACE_OUTER_BOUND ( 'NONE', #28, .T. ) ;
#64 = PERSON_AND_ORGANIZATION ( #117, #154 ) ;
#65 = DIRECTION ( 'NONE',  ( -3.491481338843133355E-15, 1.224646799147353207E-16, -1.000000000000000000 ) ) ;
#66 = CARTESIAN_POINT ( 'NONE',  ( 2.793185071074506684E-14, 1.068499999999998673, 8.000000000000000000 ) ) ;
#67 = CIRCLE ( 'NONE', #232, 0.9241624327025943497 ) ;
#68 = AXIS2_PLACEMENT_3D ( 'NONE', #4, #99, #21 ) ;
#69 = APPLICATION_CONTEXT ( 'configuration controlled 3d designs of mechanical parts and assemblies' ) ;
#70 = APPROVAL_ROLE ( '' ) ;
#71 = CIRCLE ( 'NONE', #105, 1.068499999999999783 ) ;
#72 = EDGE_CURVE ( 'NONE', #184, #184, #214, .T. ) ;
#73 = EDGE_LOOP ( 'NONE', ( #7 ) ) ;
#74 = CARTESIAN_POINT ( 'NONE',  ( 0.0000000000000000000, 0.0000000000000000000, 0.0000000000000000000 ) ) ;
#75 = APPROVAL_PERSON_ORGANIZATION ( #137, #51, #14 ) ;
#76 = DIRECTION ( 'NONE',  ( -3.491481338843133355E-15, 1.224646799147353207E-16, -1.000000000000000000 ) ) ;
#77 = ORIENTED_EDGE ( 'NONE', *, *, #141, .F. ) ;
#78 = DIRECTION ( 'NONE',  ( 0.0000000000000000000, -1.000000000000000000, 0.0000000000000000000 ) ) ;
#79 = EDGE_LOOP ( 'NONE', ( #281 ) ) ;
#80 = DIRECTION ( 'NONE',  ( 4.275831445896958607E-31, 1.000000000000000000, 1.224646799147353207E-16 ) ) ;
#81 = EDGE_LOOP ( 'NONE', ( #77 ) ) ;
#82 = CC_DESIGN_APPROVAL ( #51, ( #147 ) ) ;
#83 = ORIENTED_EDGE ( 'NONE', *, *, #299, .T. ) ;
#84 = CARTESIAN_POINT ( 'NONE',  ( 0.0000000000000000000, 0.0000000000000000000, 0.0000000000000000000 ) ) ;
#85 = DIRECTION ( 'NONE',  ( 4.275831445896958607E-31, 1.000000000000000000, 1.224646799147353454E-16 ) ) ;
#86 = ADVANCED_FACE ( 'NONE', ( #293, #151 ), #131, .T. ) ;
#87 = CARTESIAN_POINT ( 'NONE',  ( 2.793185071074506684E-14, -9.797174393178825657E-16, 8.000000000000000000 ) ) ;
#88 = COORDINATED_UNIVERSAL_TIME_OFFSET ( 1, 0, .AHEAD. ) ;
#89 = VERTEX_POINT ( 'NONE', #36 ) ;
#90 = CONICAL_SURFACE ( 'NONE', #198, 0.9149999999999985922, 0.5235987755982944858 ) ;
#91 = PERSON_AND_ORGANIZATION ( #117, #154 ) ;
#92 = DIRECTION ( 'NONE',  ( 0.0000000000000000000, 1.000000000000000000, 0.0000000000000000000 ) ) ;
#93 = DIRECTION ( 'NONE',  ( -4.275831445896958607E-31, -1.000000000000000000, -1.224646799147353207E-16 ) ) ;
#94 = CALENDAR_DATE ( 2021, 30, 11 ) ;
#95 = CIRCLE ( 'NONE', #253, 1.500000000000001554 ) ;
#96 = CIRCLE ( 'NONE', #266, 0.9453844939755797760 ) ;
#97 = EDGE_LOOP ( 'NONE', ( #24 ) ) ;
#98 = DIRECTION ( 'NONE',  ( -3.491481338843133355E-15, 1.224646799147353207E-16, -1.000000000000000000 ) ) ;
#99 = DIRECTION ( 'NONE',  ( 3.491481338843133355E-15, -1.224646799147353207E-16, 1.000000000000000000 ) ) ;
#100 = FACE_OUTER_BOUND ( 'NONE', #202, .T. ) ;
#101 = EDGE_LOOP ( 'NONE', ( #54 ) ) ;
#102 = PLANE ( 'NONE',  #26 ) ;
#103 = CARTESIAN_POINT ( 'NONE',  ( 2.886013015238225878E-14, -1.012277099146737755E-15, 8.265869798961826831 ) ) ;
#104 = ADVANCED_FACE ( 'NONE', ( #60 ), #110, .F. ) ;
#105 = AXIS2_PLACEMENT_3D ( 'NONE', #87, #65, #32 ) ;
#106 = DIRECTION ( 'NONE',  ( -3.491481338843133355E-15, 1.224646799147353207E-16, -1.000000000000000000 ) ) ;
#107 = DIRECTION ( 'NONE',  ( -3.491481338843133355E-15, 1.224646799147353207E-16, -1.000000000000000000 ) ) ;
#108 =( LENGTH_UNIT ( ) NAMED_UNIT ( * ) SI_UNIT ( .MILLI., .METRE. ) );
#109 = CALENDAR_DATE ( 2021, 30, 11 ) ;
#110 = PLANE ( 'NONE',  #242 ) ;
#111 = VERTEX_POINT ( 'NONE', #18 ) ;
#112 = ADVANCED_FACE ( 'NONE', ( #35 ), #175, .F. ) ;
#113 = AXIS2_PLACEMENT_3D ( 'NONE', #74, #264, #6 ) ;
#114 = AXIS2_PLACEMENT_3D ( 'NONE', #103, #107, #30 ) ;
#115 = AXIS2_PLACEMENT_3D ( 'NONE', #84, #269, #59 ) ;
#116 = CC_DESIGN_PERSON_AND_ORGANIZATION_ASSIGNMENT ( #64, #135, ( #62 ) ) ;
#117 = PERSON ( 'UNSPECIFIED', 'UNSPECIFIED', 'UNSPECIFIED', ('UNSPECIFIED'), ('UNSPECIFIED'), ('UNSPECIFIED') ) ;
#118 = ADVANCED_FACE ( 'NONE', ( #260, #142 ), #15, .T. ) ;
#119 = CIRCLE ( 'NONE', #240, 1.068499999999998673 ) ;
#120 = FACE_OUTER_BOUND ( 'NONE', #101, .T. ) ;
#121 = FACE_BOUND ( 'NONE', #263, .T. ) ;
#122 = AXIS2_PLACEMENT_3D ( 'NONE', #252, #106, #159 ) ;
#123 = DIRECTION ( 'NONE',  ( 3.491481338843133355E-15, -1.224646799147353207E-16, 1.000000000000000000 ) ) ;
#124 = EDGE_LOOP ( 'NONE', ( #261 ) ) ;
#125 = CARTESIAN_POINT ( 'NONE',  ( 0.0000000000000000000, 0.0000000000000000000, 0.0000000000000000000 ) ) ;
#126 = EDGE_CURVE ( 'NONE', #204, #204, #67, .T. ) ;
#127 = ORIENTED_EDGE ( 'NONE', *, *, #301, .T. ) ;
#128 = ORIENTED_EDGE ( 'NONE', *, *, #218, .F. ) ;
#129 = VERTEX_POINT ( 'NONE', #66 ) ;
#130 = APPROVAL_STATUS ( 'not_yet_approved' ) ;
#131 = CYLINDRICAL_SURFACE ( 'NONE', #153, 0.9149999999999993694 ) ;
#132 = VERTEX_POINT ( 'NONE', #180 ) ;
#133 = DATE_AND_TIME ( #109, #212 ) ;
#134 =( NAMED_UNIT ( * ) SI_UNIT ( $, .STERADIAN. ) SOLID_ANGLE_UNIT ( ) );
#135 = PERSON_AND_ORGANIZATION_ROLE ( 'creator' ) ;
#136 = VERTEX_POINT ( 'NONE', #250 ) ;
#137 = PERSON_AND_ORGANIZATION ( #117, #154 ) ;
#138 = APPLICATION_PROTOCOL_DEFINITION ( 'international standard', 'config_control_design', 1994, #69 ) ;
#139 = PERSON_AND_ORGANIZATION_ROLE ( 'creator' ) ;
#140 = CC_DESIGN_APPROVAL ( #237, ( #227 ) ) ;
#141 = EDGE_CURVE ( 'NONE', #275, #275, #95, .T. ) ;
#142 = FACE_BOUND ( 'NONE', #146, .T. ) ;
#143 = LOCAL_TIME ( 7, 45, 16.00000000000000000, #39 ) ;
#144 = DIRECTION ( 'NONE',  ( 3.604922684861466278E-31, 1.000000000000000000, 1.014695528765096719E-16 ) ) ;
#145 = AXIS2_PLACEMENT_3D ( 'NONE', #158, #31, #40 ) ;
#146 = EDGE_LOOP ( 'NONE', ( #172 ) ) ;
#147 = SECURITY_CLASSIFICATION ( '', '', #186 ) ;
#148 = DIRECTION ( 'NONE',  ( -3.491481338843133355E-15, 1.224646799147353207E-16, -1.000000000000000000 ) ) ;
#149 = CARTESIAN_POINT ( 'NONE',  ( -2.922149308624772554E-31, 1.024952004647893111E-32, -8.369368256721077681E-17 ) ) ;
#150 = CARTESIAN_POINT ( 'NONE',  ( 1.735266225405037467E-13, -6.086494591762345225E-15, 49.70000000000000284 ) ) ;
#151 = FACE_OUTER_BOUND ( 'NONE', #152, .T. ) ;
#152 = EDGE_LOOP ( 'NONE', ( #292 ) ) ;
#153 = AXIS2_PLACEMENT_3D ( 'NONE', #225, #34, #85 ) ;
#154 = ORGANIZATION ( 'UNSPECIFIED', 'UNSPECIFIED', '' ) ;
#155 = FACE_OUTER_BOUND ( 'NONE', #124, .T. ) ;
#156 =( NAMED_UNIT ( * ) PLANE_ANGLE_UNIT ( ) SI_UNIT ( $, .RADIAN. ) );
#157 = COORDINATED_UNIVERSAL_TIME_OFFSET ( 1, 0, .AHEAD. ) ;
#158 = CARTESIAN_POINT ( 'NONE',  ( 1.745740669421566678E-13, 8.998558695971067645E-33, 50.00000000000000000 ) ) ;
#159 = DIRECTION ( 'NONE',  ( 4.275831445896958607E-31, 1.000000000000000000, 1.224646799147353207E-16 ) ) ;
#160 = CLOSED_SHELL ( 'NONE', ( #104, #183, #170, #259 ) ) ;
#161 = EDGE_CURVE ( 'NONE', #176, #176, #119, .T. ) ;
#162 = CALENDAR_DATE ( 2021, 30, 11 ) ;
#163 = DATE_AND_TIME ( #162, #143 ) ;
#164 = EDGE_CURVE ( 'NONE', #136, #136, #48, .T. ) ;
#165 = AXIS2_PLACEMENT_3D ( 'NONE', #125, #148, #80 ) ;
#166 = DIRECTION ( 'NONE',  ( -3.491481338843133355E-15, 1.224646799147353207E-16, -1.000000000000000000 ) ) ;
#167 = CC_DESIGN_PERSON_AND_ORGANIZATION_ASSIGNMENT ( #91, #139, ( #227 ) ) ;
#168 = DIRECTION ( 'NONE',  ( 0.0000000000000000000, 1.000000000000000000, 0.0000000000000000000 ) ) ;
#169 = CYLINDRICAL_SURFACE ( 'NONE', #113, 1.499999999999999112 ) ;
#170 = ADVANCED_FACE ( 'NONE', ( #5, #29 ), #23, .T. ) ;
#171 = FACE_BOUND ( 'NONE', #47, .T. ) ;
#172 = ORIENTED_EDGE ( 'NONE', *, *, #46, .T. ) ;
#173 = DIRECTION ( 'NONE',  ( 0.0000000000000000000, 1.000000000000000000, 0.0000000000000000000 ) ) ;
#174 = DIRECTION ( 'NONE',  ( -3.491481338843133355E-15, 1.224646799147353207E-16, -1.000000000000000000 ) ) ;
#175 = PLANE ( 'NONE',  #145 ) ;
#176 = VERTEX_POINT ( 'NONE', #223 ) ;
#177 = DIRECTION ( 'NONE',  ( 0.0000000000000000000, 1.000000000000000000, 0.0000000000000000000 ) ) ;
#178 = CARTESIAN_POINT ( 'NONE',  ( 2.886013015238225878E-14, -1.012277099146737755E-15, 8.265869798961826831 ) ) ;
#179 = PERSON_AND_ORGANIZATION_ROLE ( 'classification_officer' ) ;
#180 = CARTESIAN_POINT ( 'NONE',  ( 7.504128133600056457E-14, 1.499999999999994005, 21.49267719152831901 ) ) ;
#181 = APPROVAL ( #182, 'UNSPECIFIED' ) ;
#182 = APPROVAL_STATUS ( 'not_yet_approved' ) ;
#183 = ADVANCED_FACE ( 'NONE', ( #121, #56 ), #297, .T. ) ;
#184 = VERTEX_POINT ( 'NONE', #271 ) ;
#185 = APPROVAL_ROLE ( '' ) ;
#186 = SECURITY_CLASSIFICATION_LEVEL ( 'unclassified' ) ;
#187 = AXIS2_PLACEMENT_3D ( 'NONE', #303, #98, #27 ) ;
#188 = APPROVAL_PERSON_ORGANIZATION ( #44, #181, #70 ) ;
#189 = DIRECTION ( 'NONE',  ( -3.491481338843133355E-15, 1.224646799147353207E-16, -1.000000000000000000 ) ) ;
#190 = PRODUCT ( '967590', '967590', '', ( #273 ) ) ;
#191 = AXIS2_PLACEMENT_3D ( 'NONE', #199, #229, #41 ) ;
#192 = ORIENTED_EDGE ( 'NONE', *, *, #126, .T. ) ;
#193 = FACE_OUTER_BOUND ( 'NONE', #12, .T. ) ;
#194 = ADVANCED_FACE ( 'NONE', ( #171, #193 ), #45, .T. ) ;
#195 = ORIENTED_EDGE ( 'NONE', *, *, #238, .T. ) ;
#196 = CARTESIAN_POINT ( 'NONE',  ( 6.405924284287273902E-14, -2.246895775456748746E-15, 18.34729635533384240 ) ) ;
#197 = DIRECTION ( 'NONE',  ( 3.491481338843133355E-15, -1.224646799147353207E-16, 1.000000000000000000 ) ) ;
#198 = AXIS2_PLACEMENT_3D ( 'NONE', #178, #210, #92 ) ;
#199 = CARTESIAN_POINT ( 'NONE',  ( 7.504128133600056457E-14, -2.632093832771248087E-15, 21.49267719152831901 ) ) ;
#200 = EDGE_LOOP ( 'NONE', ( #195 ) ) ;
#201 = CARTESIAN_POINT ( 'NONE',  ( -1.892735826383160481E-31, 0.9241624327025943497, -5.421010862427522170E-17 ) ) ;
#202 = EDGE_LOOP ( 'NONE', ( #289 ) ) ;
#203 = CC_DESIGN_DATE_AND_TIME_ASSIGNMENT ( #231, #278, ( #147 ) ) ;
#204 = VERTEX_POINT ( 'NONE', #201 ) ;
#205 = APPROVAL_DATE_TIME ( #133, #237 ) ;
#206 = PRODUCT_RELATED_PRODUCT_CATEGORY ( 'detail', '', ( #190 ) ) ;
#207 = AXIS2_PLACEMENT_3D ( 'NONE', #58, #174, #177 ) ;
#208 = APPLICATION_PROTOCOL_DEFINITION ( 'international standard', 'config_control_design', 1994, #20 ) ;
#209 = ADVANCED_FACE ( 'NONE', ( #120, #100 ), #169, .T. ) ;
#210 = DIRECTION ( 'NONE',  ( -3.491481338843133355E-15, 1.224646799147353207E-16, -1.000000000000000000 ) ) ;
#211 = CLOSED_SHELL ( 'NONE', ( #215, #267, #86, #279, #194, #209, #118, #112 ) ) ;
#212 = LOCAL_TIME ( 7, 45, 16.00000000000000000, #88 ) ;
#213 = PERSON_AND_ORGANIZATION ( #117, #154 ) ;
#214 = CIRCLE ( 'NONE', #114, 0.9149999999999985922 ) ;
#215 = ADVANCED_FACE ( 'NONE', ( #245 ), #102, .F. ) ;
#216 = CARTESIAN_POINT ( 'NONE',  ( 8.728703347107831416E-16, -3.061616997868382402E-17, 0.2499999999999999445 ) ) ;
#217 = ORIENTED_EDGE ( 'NONE', *, *, #299, .F. ) ;
#218 = EDGE_CURVE ( 'NONE', #89, #89, #96, .T. ) ;
#219 = TOROIDAL_SURFACE ( 'NONE', #122, 2.914999999999999591, 2.000000000000000444 ) ;
#220 = DIRECTION ( 'NONE',  ( -4.275831445896958607E-31, -1.000000000000000000, -1.224646799147353207E-16 ) ) ;
#221 = DIRECTION ( 'NONE',  ( 3.491481338843133355E-15, -1.224646799147353207E-16, 1.000000000000000000 ) ) ;
#222 = ORIENTED_EDGE ( 'NONE', *, *, #161, .T. ) ;
#223 = CARTESIAN_POINT ( 'NONE',  ( 8.728703347107835360E-16, 1.068499999999998673, 0.2500000000000000555 ) ) ;
#224 = AXIS2_PLACEMENT_3D ( 'NONE', #283, #290, #241 ) ;
#225 = CARTESIAN_POINT ( 'NONE',  ( 0.0000000000000000000, 0.0000000000000000000, 0.0000000000000000000 ) ) ;
#226 = CARTESIAN_POINT ( 'NONE',  ( 2.793185071074506684E-14, 1.068499999999998673, 8.000000000000000000 ) ) ;
#227 = PRODUCT_DEFINITION ( 'UNKNOWN', '', #62, #282 ) ;
#228 = ORIENTED_EDGE ( 'NONE', *, *, #126, .F. ) ;
#229 = DIRECTION ( 'NONE',  ( -3.491481338843133355E-15, 1.224646799147353207E-16, -1.000000000000000000 ) ) ;
#230 = PERSON_AND_ORGANIZATION ( #117, #154 ) ;
#231 = DATE_AND_TIME ( #234, #55 ) ;
#232 = AXIS2_PLACEMENT_3D ( 'NONE', #288, #284, #50 ) ;
#233 = UNCERTAINTY_MEASURE_WITH_UNIT (LENGTH_MEASURE( 1.000000000000000082E-05 ), #108, 'distance_accuracy_value', 'NONE');
#234 = CALENDAR_DATE ( 2021, 30, 11 ) ;
#235 = PERSON_AND_ORGANIZATION ( #117, #154 ) ;
#236 = APPROVAL_DATE_TIME ( #163, #51 ) ;
#237 = APPROVAL ( #130, 'UNSPECIFIED' ) ;
#238 = EDGE_CURVE ( 'NONE', #129, #129, #249, .T. ) ;
#239 = PRODUCT_DEFINITION_SHAPE ( 'NONE', 'NONE',  #227 ) ;
#240 = AXIS2_PLACEMENT_3D ( 'NONE', #216, #189, #144 ) ;
#241 = DIRECTION ( 'NONE',  ( 0.0000000000000000000, 1.000000000000000000, 0.0000000000000000000 ) ) ;
#242 = AXIS2_PLACEMENT_3D ( 'NONE', #149, #197, #13 ) ;
#243 = AXIS2_PLACEMENT_3D ( 'NONE', #286, #221, #78 ) ;
#244 = EDGE_LOOP ( 'NONE', ( #222 ) ) ;
#245 = FACE_OUTER_BOUND ( 'NONE', #200, .T. ) ;
#246 = EDGE_LOOP ( 'NONE', ( #217 ) ) ;
#247 = EDGE_LOOP ( 'NONE', ( #192 ) ) ;
#248 = CC_DESIGN_DATE_AND_TIME_ASSIGNMENT ( #42, #251, ( #227 ) ) ;
#249 = CIRCLE ( 'NONE', #17, 1.068499999999999783 ) ;
#250 = CARTESIAN_POINT ( 'NONE',  ( 6.284666409917640040E-14, 0.9149999999999978151, 18.00000000000000000 ) ) ;
#251 = DATE_TIME_ROLE ( 'creation_date' ) ;
#252 = CARTESIAN_POINT ( 'NONE',  ( 6.284666409917640040E-14, -2.168404344971008868E-15, 18.00000000000000000 ) ) ;
#253 = AXIS2_PLACEMENT_3D ( 'NONE', #150, #76, #168 ) ;
#254 = FACE_BOUND ( 'NONE', #270, .T. ) ;
#255 = PERSON_AND_ORGANIZATION ( #117, #154 ) ;
#256 = CC_DESIGN_PERSON_AND_ORGANIZATION_ASSIGNMENT ( #230, #274, ( #62 ) ) ;
#257 = AXIS2_PLACEMENT_3D ( 'NONE', #61, #38, #93 ) ;
#258 = MANIFOLD_SOLID_BREP ( 'Corps-Déplacer/Copier1[1]', #211 ) ;
#259 = ADVANCED_FACE ( 'NONE', ( #294 ), #43, .T. ) ;
#260 = FACE_OUTER_BOUND ( 'NONE', #81, .T. ) ;
#261 = ORIENTED_EDGE ( 'NONE', *, *, #238, .F. ) ;
#262 = DIRECTION ( 'NONE',  ( 0.0000000000000000000, 1.000000000000000000, 0.0000000000000000000 ) ) ;
#263 = EDGE_LOOP ( 'NONE', ( #228 ) ) ;
#264 = DIRECTION ( 'NONE',  ( -3.491481338843133355E-15, 1.224646799147353207E-16, -1.000000000000000000 ) ) ;
#265 = DIRECTION ( 'NONE',  ( -3.491481338843133355E-15, 1.224646799147353207E-16, -1.000000000000000000 ) ) ;
#266 = AXIS2_PLACEMENT_3D ( 'NONE', #196, #265, #173 ) ;
#267 = ADVANCED_FACE ( 'NONE', ( #155, #254 ), #90, .T. ) ;
#268 = ORIENTED_EDGE ( 'NONE', *, *, #164, .F. ) ;
#269 = DIRECTION ( 'NONE',  ( 0.0000000000000000000, 0.0000000000000000000, 1.000000000000000000 ) ) ;
#270 = EDGE_LOOP ( 'NONE', ( #285 ) ) ;
#271 = CARTESIAN_POINT ( 'NONE',  ( 2.886013015238225878E-14, 0.9149999999999975930, 8.265869798961826831 ) ) ;
#272 = APPROVAL_STATUS ( 'not_yet_approved' ) ;
#273 = MECHANICAL_CONTEXT ( 'NONE', #20, 'mechanical' ) ;
#274 = PERSON_AND_ORGANIZATION_ROLE ( 'design_supplier' ) ;
#275 = VERTEX_POINT ( 'NONE', #295 ) ;
#276 = APPROVAL_DATE_TIME ( #19, #181 ) ;
#277 = LOCAL_TIME ( 7, 45, 16.00000000000000000, #37 ) ;
#278 = DATE_TIME_ROLE ( 'classification_date' ) ;
#279 = ADVANCED_FACE ( 'NONE', ( #63, #298 ), #219, .F. ) ;
#280 = CC_DESIGN_APPROVAL ( #181, ( #62 ) ) ;
#281 = ORIENTED_EDGE ( 'NONE', *, *, #46, .F. ) ;
#282 = DESIGN_CONTEXT ( 'detailed design', #69, 'design' ) ;
#283 = CARTESIAN_POINT ( 'NONE',  ( 6.284666409917640040E-14, -2.204364238465235428E-15, 18.00000000000000000 ) ) ;
#284 = DIRECTION ( 'NONE',  ( -3.491481338843133355E-15, 1.224646799147353207E-16, -1.000000000000000000 ) ) ;
#285 = ORIENTED_EDGE ( 'NONE', *, *, #72, .T. ) ;
#286 = CARTESIAN_POINT ( 'NONE',  ( 7.504128133600056457E-14, -2.632093832771248087E-15, 21.49267719152831901 ) ) ;
#287 = ORIENTED_EDGE ( 'NONE', *, *, #161, .F. ) ;
#288 = CARTESIAN_POINT ( 'NONE',  ( -5.844298617249545108E-31, 2.049904009295786222E-32, -1.673873651344215536E-16 ) ) ;
#289 = ORIENTED_EDGE ( 'NONE', *, *, #141, .T. ) ;
#290 = DIRECTION ( 'NONE',  ( -3.491481338843133355E-15, 1.224646799147353207E-16, -1.000000000000000000 ) ) ;
#291 = CIRCLE ( 'NONE', #191, 1.499999999999996669 ) ;
#292 = ORIENTED_EDGE ( 'NONE', *, *, #164, .T. ) ;
#293 = FACE_OUTER_BOUND ( 'NONE', #97, .T. ) ;
#294 = FACE_OUTER_BOUND ( 'NONE', #246, .T. ) ;
#295 = CARTESIAN_POINT ( 'NONE',  ( 1.735266225405037467E-13, 1.499999999999995559, 49.70000000000000284 ) ) ;
#296 = CALENDAR_DATE ( 2021, 30, 11 ) ;
#297 = CONICAL_SURFACE ( 'NONE', #68, 1.068499999999998673, 0.5235987755982924874 ) ;
#298 = FACE_OUTER_BOUND ( 'NONE', #73, .T. ) ;
#299 = EDGE_CURVE ( 'NONE', #11, #11, #71, .T. ) ;
#300 = COORDINATED_UNIVERSAL_TIME_OFFSET ( 1, 0, .AHEAD. ) ;
#301 = EDGE_CURVE ( 'NONE', #132, #132, #291, .T. ) ;
#302 = PERSON_AND_ORGANIZATION_ROLE ( 'design_owner' ) ;
#303 = CARTESIAN_POINT ( 'NONE',  ( 1.745740669421566678E-13, -6.123233995736766085E-15, 50.00000000000000000 ) ) ;
ENDSEC;
END-ISO-10303-21;
