ISO-10303-21;
HEADER;
FILE_DESCRIPTION (( 'STEP AP203' ),
    '1' );
FILE_NAME ('967299.step',
    '2021-12-01T10:40:32',
    ( '' ),
    ( '' ),
    'SwSTEP 2.0',
    'SolidWorks 2019',
    '' );
FILE_SCHEMA (( 'CONFIG_CONTROL_DESIGN' ));
ENDSEC;

DATA;
#1 = FACE_OUTER_BOUND ( 'NONE', #197, .T. ) ;
#2 = ADVANCED_FACE ( 'NONE', ( #100, #23 ), #151, .T. ) ;
#3 = CARTESIAN_POINT ( 'NONE',  ( 2.137220764813765389E-14, 0.5849999999999987432, 6.121243556529823771 ) ) ;
#4 = DIRECTION ( 'NONE',  ( 3.491481338843133355E-15, -1.224646799147353207E-16, 1.000000000000000000 ) ) ;
#5 = PLANE ( 'NONE',  #204 ) ;
#6 = PRODUCT_DEFINITION_SHAPE ( 'NONE', 'NONE',  #267 ) ;
#7 = AXIS2_PLACEMENT_3D ( 'NONE', #74, #176, #154 ) ;
#8 = APPROVAL_DATE_TIME ( #210, #51 ) ;
#9 = FACE_BOUND ( 'NONE', #226, .T. ) ;
#10 = CARTESIAN_POINT ( 'NONE',  ( 4.538925740496072731E-14, 0.5849999999999987432, 12.99999999999999822 ) ) ;
#11 = APPLICATION_CONTEXT ( 'configuration controlled 3d designs of mechanical parts and assemblies' ) ;
#12 = DATE_AND_TIME ( #36, #39 ) ;
#13 = AXIS2_PLACEMENT_3D ( 'NONE', #212, #79, #55 ) ;
#14 = APPROVAL_STATUS ( 'not_yet_approved' ) ;
#15 = ADVANCED_FACE ( 'NONE', ( #43, #127 ), #56, .T. ) ;
#16 = DATE_TIME_ROLE ( 'classification_date' ) ;
#17 = PERSON_AND_ORGANIZATION ( #239, #150 ) ;
#18 = CC_DESIGN_PERSON_AND_ORGANIZATION_ASSIGNMENT ( #289, #179, ( #31 ) ) ;
#19 = EDGE_LOOP ( 'NONE', ( #30 ) ) ;
#20 = DIRECTION ( 'NONE',  ( 3.491481338843133355E-15, -1.224646799147353207E-16, 1.000000000000000000 ) ) ;
#21 = DIRECTION ( 'NONE',  ( -3.491481338843133355E-15, 1.224646799147353207E-16, -1.000000000000000000 ) ) ;
#22 = AXIS2_PLACEMENT_3D ( 'NONE', #41, #249, #125 ) ;
#23 = FACE_OUTER_BOUND ( 'NONE', #295, .T. ) ;
#24 = DIRECTION ( 'NONE',  ( 1.000000000000000000, 0.0000000000000000000, 0.0000000000000000000 ) ) ;
#25 = CIRCLE ( 'NONE', #13, 0.6153844939755828136 ) ;
#26 = CARTESIAN_POINT ( 'NONE',  ( 2.094888803305880013E-14, 0.6549999999999993605, 6.000000000000000000 ) ) ;
#27 = VERTEX_POINT ( 'NONE', #211 ) ;
#28 = CALENDAR_DATE ( 2021, 1, 12 ) ;
#29 = AXIS2_PLACEMENT_3D ( 'NONE', #225, #271, #300 ) ;
#30 = ORIENTED_EDGE ( 'NONE', *, *, #68, .F. ) ;
#31 = PRODUCT ( '967299', '967299', '', ( #113 ) ) ;
#32 = APPROVAL_ROLE ( '' ) ;
#33 = EDGE_LOOP ( 'NONE', ( #301 ) ) ;
#34 = LOCAL_TIME ( 11, 40, 32.00000000000000000, #273 ) ;
#35 = DIRECTION ( 'NONE',  ( -4.275831445896958607E-31, -1.000000000000000000, -1.224646799147353207E-16 ) ) ;
#36 = CALENDAR_DATE ( 2021, 1, 12 ) ;
#37 = PLANE ( 'NONE',  #192 ) ;
#38 = CLOSED_SHELL ( 'NONE', ( #164, #15, #77, #59 ) ) ;
#39 = LOCAL_TIME ( 11, 40, 32.00000000000000000, #266 ) ;
#40 = EDGE_LOOP ( 'NONE', ( #83 ) ) ;
#41 = CARTESIAN_POINT ( 'NONE',  ( 1.326762908760390423E-13, -4.653657836759941941E-15, 38.00000000000000000 ) ) ;
#42 = ADVANCED_FACE ( 'NONE', ( #1, #114 ), #115, .F. ) ;
#43 = FACE_BOUND ( 'NONE', #167, .T. ) ;
#44 = ADVANCED_FACE ( 'NONE', ( #157, #254 ), #133, .T. ) ;
#45 = EDGE_LOOP ( 'NONE', ( #213 ) ) ;
#46 = ORIENTED_EDGE ( 'NONE', *, *, #137, .T. ) ;
#47 = APPLICATION_CONTEXT ( 'configuration controlled 3d designs of mechanical parts and assemblies' ) ;
#48 = UNCERTAINTY_MEASURE_WITH_UNIT (LENGTH_MEASURE( 1.000000000000000082E-05 ), #96, 'distance_accuracy_value', 'NONE');
#49 = AXIS2_PLACEMENT_3D ( 'NONE', #177, #117, #189 ) ;
#50 = AXIS2_PLACEMENT_3D ( 'NONE', #156, #182, #24 ) ;
#51 = APPROVAL ( #160, 'UNSPECIFIED' ) ;
#52 = FACE_OUTER_BOUND ( 'NONE', #187, .T. ) ;
#53 = VERTEX_POINT ( 'NONE', #54 ) ;
#54 = CARTESIAN_POINT ( 'NONE',  ( 1.326762908760390423E-13, 1.199999999999998845, 38.00000000000000000 ) ) ;
#55 = DIRECTION ( 'NONE',  ( 0.0000000000000000000, 1.000000000000000000, 0.0000000000000000000 ) ) ;
#56 = CONICAL_SURFACE ( 'NONE', #222, 0.6549999999999993605, 0.5235987755982927094 ) ;
#57 = EDGE_LOOP ( 'NONE', ( #247 ) ) ;
#58 = CIRCLE ( 'NONE', #223, 0.5849999999999995204 ) ;
#59 = ADVANCED_FACE ( 'NONE', ( #288 ), #5, .T. ) ;
#60 = DATE_AND_TIME ( #293, #86 ) ;
#61 = DIRECTION ( 'NONE',  ( 4.275831445896958607E-31, 1.000000000000000000, 1.224646799147353207E-16 ) ) ;
#62 = PRODUCT_DEFINITION_FORMATION_WITH_SPECIFIED_SOURCE ( 'ANY', '', #31, .NOT_KNOWN. ) ;
#63 = PERSON_AND_ORGANIZATION_ROLE ( 'classification_officer' ) ;
#64 = CARTESIAN_POINT ( 'NONE',  ( 1.326762908760390423E-13, -4.653657836759941941E-15, 38.00000000000000000 ) ) ;
#65 = ORIENTED_EDGE ( 'NONE', *, *, #191, .T. ) ;
#66 = EDGE_LOOP ( 'NONE', ( #298 ) ) ;
#67 = DIRECTION ( 'NONE',  ( -3.491481338843133355E-15, 1.224646799147353207E-16, -1.000000000000000000 ) ) ;
#68 = EDGE_CURVE ( 'NONE', #253, #253, #134, .T. ) ;
#69 = ORIENTED_EDGE ( 'NONE', *, *, #155, .F. ) ;
#70 = ORIENTED_EDGE ( 'NONE', *, *, #112, .F. ) ;
#71 = CIRCLE ( 'NONE', #7, 0.6549999999999993605 ) ;
#72 = DIRECTION ( 'NONE',  ( 0.0000000000000000000, 1.000000000000000000, 0.0000000000000000000 ) ) ;
#73 = DIRECTION ( 'NONE',  ( -3.491481338843133355E-15, 1.224646799147353207E-16, -1.000000000000000000 ) ) ;
#74 = CARTESIAN_POINT ( 'NONE',  ( 8.728703347107831416E-16, -3.061616997868382402E-17, 0.2499999999999999445 ) ) ;
#75 = DIRECTION ( 'NONE',  ( -3.491481338843133355E-15, 1.224646799147353207E-16, -1.000000000000000000 ) ) ;
#76 = PERSON_AND_ORGANIZATION ( #239, #150 ) ;
#77 = ADVANCED_FACE ( 'NONE', ( #303, #52 ), #109, .T. ) ;
#78 =( NAMED_UNIT ( * ) PLANE_ANGLE_UNIT ( ) SI_UNIT ( $, .RADIAN. ) );
#79 = DIRECTION ( 'NONE',  ( -3.491481338843133355E-15, 1.224646799147353207E-16, -1.000000000000000000 ) ) ;
#80 = APPROVAL_PERSON_ORGANIZATION ( #17, #219, #32 ) ;
#81 = PRODUCT_RELATED_PRODUCT_CATEGORY ( 'detail', '', ( #31 ) ) ;
#82 = PERSON_AND_ORGANIZATION ( #239, #150 ) ;
#83 = ORIENTED_EDGE ( 'NONE', *, *, #201, .F. ) ;
#84 = DIRECTION ( 'NONE',  ( 0.0000000000000000000, 1.000000000000000000, 0.0000000000000000000 ) ) ;
#85 = CARTESIAN_POINT ( 'NONE',  ( 0.0000000000000000000, 0.0000000000000000000, 0.0000000000000000000 ) ) ;
#86 = LOCAL_TIME ( 11, 40, 32.00000000000000000, #166 ) ;
#87 = DIRECTION ( 'NONE',  ( -3.491481338843133355E-15, 1.224646799147353207E-16, -1.000000000000000000 ) ) ;
#88 = CC_DESIGN_DATE_AND_TIME_ASSIGNMENT ( #12, #190, ( #267 ) ) ;
#89 = AXIS2_PLACEMENT_3D ( 'NONE', #64, #99, #84 ) ;
#90 = CARTESIAN_POINT ( 'NONE',  ( 1.316288464743861212E-13, -4.616918432785521081E-15, 37.69999999999999574 ) ) ;
#91 = ADVANCED_FACE ( 'NONE', ( #245, #9 ), #123, .T. ) ;
#92 = CLOSED_SHELL ( 'NONE', ( #185, #91, #44, #42, #237, #2, #180, #215 ) ) ;
#93 = AXIS2_PLACEMENT_3D ( 'NONE', #121, #297, #274 ) ;
#94 = PERSON_AND_ORGANIZATION ( #239, #150 ) ;
#95 = DIRECTION ( 'NONE',  ( 0.0000000000000000000, 1.000000000000000000, 0.0000000000000000000 ) ) ;
#96 =( LENGTH_UNIT ( ) NAMED_UNIT ( * ) SI_UNIT ( .MILLI., .METRE. ) );
#97 = PERSON_AND_ORGANIZATION_ROLE ( 'design_supplier' ) ;
#98 = CC_DESIGN_APPROVAL ( #219, ( #62 ) ) ;
#99 = DIRECTION ( 'NONE',  ( -3.491481338843133355E-15, 1.224646799147353207E-16, -1.000000000000000000 ) ) ;
#100 = FACE_OUTER_BOUND ( 'NONE', #19, .T. ) ;
#101 = EDGE_LOOP ( 'NONE', ( #262 ) ) ;
#102 = DIRECTION ( 'NONE',  ( 4.275831445896958607E-31, 1.000000000000000000, 1.224646799147353207E-16 ) ) ;
#103 = DIRECTION ( 'NONE',  ( 3.491481338843133355E-15, -1.224646799147353207E-16, 1.000000000000000000 ) ) ;
#104 = AXIS2_PLACEMENT_3D ( 'NONE', #216, #119, #95 ) ;
#105 = DIRECTION ( 'NONE',  ( -2.940351060133187530E-31, -1.000000000000000000, -8.276352461721416399E-17 ) ) ;
#106 = CC_DESIGN_PERSON_AND_ORGANIZATION_ASSIGNMENT ( #82, #97, ( #62 ) ) ;
#107 = CARTESIAN_POINT ( 'NONE',  ( 4.538925740496073362E-14, -1.734723475976807094E-15, 13.00000000000000000 ) ) ;
#108 = VERTEX_POINT ( 'NONE', #3 ) ;
#109 = CYLINDRICAL_SURFACE ( 'NONE', #49, 0.6549999999999998046 ) ;
#110 = CARTESIAN_POINT ( 'NONE',  ( 2.094888803305880013E-14, -7.347880794884119736E-16, 6.000000000000000000 ) ) ;
#111 = CARTESIAN_POINT ( 'NONE',  ( 0.0000000000000000000, 0.0000000000000000000, 0.0000000000000000000 ) ) ;
#112 = EDGE_CURVE ( 'NONE', #218, #218, #25, .T. ) ;
#113 = MECHANICAL_CONTEXT ( 'NONE', #11, 'mechanical' ) ;
#114 = FACE_OUTER_BOUND ( 'NONE', #265, .T. ) ;
#115 = TOROIDAL_SURFACE ( 'NONE', #143, 2.585000000000000409, 1.999999999999999556 ) ;
#116 = VERTEX_POINT ( 'NONE', #260 ) ;
#117 = DIRECTION ( 'NONE',  ( -3.491481338843133355E-15, 1.224646799147353207E-16, -1.000000000000000000 ) ) ;
#118 = PERSON_AND_ORGANIZATION ( #239, #150 ) ;
#119 = DIRECTION ( 'NONE',  ( -3.491481338843133355E-15, 1.224646799147353207E-16, -1.000000000000000000 ) ) ;
#120 = ORIENTED_EDGE ( 'NONE', *, *, #250, .T. ) ;
#121 = CARTESIAN_POINT ( 'NONE',  ( 2.094888803305880013E-14, -7.347880794884119736E-16, 6.000000000000000000 ) ) ;
#122 = EDGE_LOOP ( 'NONE', ( #70 ) ) ;
#123 = CONICAL_SURFACE ( 'NONE', #104, 0.5849999999999995204, 0.5235987755982933756 ) ;
#124 = CIRCLE ( 'NONE', #153, 1.500000000000003331 ) ;
#125 = DIRECTION ( 'NONE',  ( 0.0000000000000000000, 1.000000000000000000, 0.0000000000000000000 ) ) ;
#126 = ORIENTED_EDGE ( 'NONE', *, *, #255, .T. ) ;
#127 = FACE_OUTER_BOUND ( 'NONE', #101, .T. ) ;
#128 = ORIENTED_EDGE ( 'NONE', *, *, #275, .F. ) ;
#129 = CC_DESIGN_DATE_AND_TIME_ASSIGNMENT ( #264, #16, ( #183 ) ) ;
#130 = CONICAL_SURFACE ( 'NONE', #269, 1.499999999999997558, 0.1745329251994259256 ) ;
#131 = DIRECTION ( 'NONE',  ( 0.0000000000000000000, -1.000000000000000000, 0.0000000000000000000 ) ) ;
#132 = CARTESIAN_POINT ( 'NONE',  ( 4.538925740496072731E-14, -1.592040838891558898E-15, 12.99999999999999822 ) ) ;
#133 = CYLINDRICAL_SURFACE ( 'NONE', #229, 0.5849999999999998535 ) ;
#134 = CIRCLE ( 'NONE', #199, 1.499999999999997558 ) ;
#135 = AXIS2_PLACEMENT_3D ( 'NONE', #132, #174, #206 ) ;
#136 = CARTESIAN_POINT ( 'NONE',  ( 9.463679131915804593E-32, 0.5106624327025949261, 2.710505431213761085E-17 ) ) ;
#137 = EDGE_CURVE ( 'NONE', #261, #261, #170, .T. ) ;
#138 = DIRECTION ( 'NONE',  ( -3.491481338843133355E-15, 1.224646799147353207E-16, -1.000000000000000000 ) ) ;
#139 =( NAMED_UNIT ( * ) SI_UNIT ( $, .STERADIAN. ) SOLID_ANGLE_UNIT ( ) );
#140 = CC_DESIGN_PERSON_AND_ORGANIZATION_ASSIGNMENT ( #94, #163, ( #267 ) ) ;
#141 = MANIFOLD_SOLID_BREP ( 'Corps-Déplacer/Copier1[1]', #92 ) ;
#142 = DESIGN_CONTEXT ( 'detailed design', #47, 'design' ) ;
#143 = AXIS2_PLACEMENT_3D ( 'NONE', #107, #138, #230 ) ;
#144 = CARTESIAN_POINT ( 'NONE',  ( 2.137220764813765389E-14, -7.496361328305610150E-16, 6.121243556529823771 ) ) ;
#145 = CALENDAR_DATE ( 2021, 1, 12 ) ;
#146 = CONICAL_SURFACE ( 'NONE', #89, 1.200000000000003286, 0.7853981633974453924 ) ;
#147 = COORDINATED_UNIVERSAL_TIME_OFFSET ( 1, 0, .AHEAD. ) ;
#148 = EDGE_LOOP ( 'NONE', ( #46 ) ) ;
#149 = ORIENTED_EDGE ( 'NONE', *, *, #275, .T. ) ;
#150 = ORGANIZATION ( 'UNSPECIFIED', 'UNSPECIFIED', '' ) ;
#151 = CYLINDRICAL_SURFACE ( 'NONE', #232, 1.500000000000000444 ) ;
#152 = DIRECTION ( 'NONE',  ( -3.491481338843133355E-15, 1.224646799147353207E-16, -1.000000000000000000 ) ) ;
#153 = AXIS2_PLACEMENT_3D ( 'NONE', #90, #87, #72 ) ;
#154 = DIRECTION ( 'NONE',  ( 2.940351060133187530E-31, 1.000000000000000000, 8.276352461721416399E-17 ) ) ;
#155 = EDGE_CURVE ( 'NONE', #108, #108, #58, .T. ) ;
#156 = CARTESIAN_POINT ( 'NONE',  ( 0.0000000000000000000, 0.0000000000000000000, 0.0000000000000000000 ) ) ;
#157 = FACE_OUTER_BOUND ( 'NONE', #242, .T. ) ;
#158 = APPROVAL_ROLE ( '' ) ;
#159 = DIRECTION ( 'NONE',  ( -4.275831445896958607E-31, -1.000000000000000000, -1.224646799147353207E-16 ) ) ;
#160 = APPROVAL_STATUS ( 'not_yet_approved' ) ;
#161 = VERTEX_POINT ( 'NONE', #10 ) ;
#162 = CIRCLE ( 'NONE', #135, 0.5850000000000002975 ) ;
#163 = PERSON_AND_ORGANIZATION_ROLE ( 'creator' ) ;
#164 = ADVANCED_FACE ( 'NONE', ( #202 ), #172, .F. ) ;
#165 = ORIENTED_EDGE ( 'NONE', *, *, #155, .T. ) ;
#166 = COORDINATED_UNIVERSAL_TIME_OFFSET ( 1, 0, .AHEAD. ) ;
#167 = EDGE_LOOP ( 'NONE', ( #282 ) ) ;
#168 = ORIENTED_EDGE ( 'NONE', *, *, #68, .T. ) ;
#169 = FACE_BOUND ( 'NONE', #278, .T. ) ;
#170 = CIRCLE ( 'NONE', #299, 0.5106624327025949261 ) ;
#171 = MANIFOLD_SOLID_BREP ( 'Corps-Déplacer/Copier1[2]', #38 ) ;
#172 = PLANE ( 'NONE',  #29 ) ;
#173 = ORIENTED_EDGE ( 'NONE', *, *, #201, .T. ) ;
#174 = DIRECTION ( 'NONE',  ( -3.491481338843133355E-15, 1.224646799147353207E-16, -1.000000000000000000 ) ) ;
#175 = VERTEX_POINT ( 'NONE', #285 ) ;
#176 = DIRECTION ( 'NONE',  ( -3.491481338843133355E-15, 1.224646799147353207E-16, -1.000000000000000000 ) ) ;
#177 = CARTESIAN_POINT ( 'NONE',  ( 0.0000000000000000000, 0.0000000000000000000, 0.0000000000000000000 ) ) ;
#178 = AXIS2_PLACEMENT_3D ( 'NONE', #110, #75, #283 ) ;
#179 = PERSON_AND_ORGANIZATION_ROLE ( 'design_owner' ) ;
#180 = ADVANCED_FACE ( 'NONE', ( #221, #169 ), #146, .T. ) ;
#181 = CARTESIAN_POINT ( 'NONE',  ( 6.411826227315529956E-14, -2.248965898403675160E-15, 18.36420019200223663 ) ) ;
#182 = DIRECTION ( 'NONE',  ( 0.0000000000000000000, 0.0000000000000000000, 1.000000000000000000 ) ) ;
#183 = SECURITY_CLASSIFICATION ( '', '', #268 ) ;
#184 = DIRECTION ( 'NONE',  ( -3.491481338843133355E-15, 1.224646799147353207E-16, -1.000000000000000000 ) ) ;
#185 = ADVANCED_FACE ( 'NONE', ( #281 ), #37, .F. ) ;
#186 = CALENDAR_DATE ( 2021, 1, 12 ) ;
#187 = EDGE_LOOP ( 'NONE', ( #126 ) ) ;
#188 = APPROVAL_STATUS ( 'not_yet_approved' ) ;
#189 = DIRECTION ( 'NONE',  ( 4.275831445896957731E-31, 1.000000000000000000, 1.224646799147353207E-16 ) ) ;
#190 = DATE_TIME_ROLE ( 'creation_date' ) ;
#191 = EDGE_CURVE ( 'NONE', #236, #236, #209, .T. ) ;
#192 = AXIS2_PLACEMENT_3D ( 'NONE', #194, #20, #35 ) ;
#193 = APPROVAL_DATE_TIME ( #60, #219 ) ;
#194 = CARTESIAN_POINT ( 'NONE',  ( 2.094888803305880013E-14, 4.911713288217573676E-33, 6.000000000000000000 ) ) ;
#195 = DIRECTION ( 'NONE',  ( 4.275831445896958607E-31, 1.000000000000000000, 1.224646799147353207E-16 ) ) ;
#196 = FACE_OUTER_BOUND ( 'NONE', #40, .T. ) ;
#197 = EDGE_LOOP ( 'NONE', ( #128 ) ) ;
#198 = FACE_BOUND ( 'NONE', #122, .T. ) ;
#199 = AXIS2_PLACEMENT_3D ( 'NONE', #203, #73, #259 ) ;
#200 = CC_DESIGN_SECURITY_CLASSIFICATION ( #183, ( #62 ) ) ;
#201 = EDGE_CURVE ( 'NONE', #53, #53, #263, .T. ) ;
#202 = FACE_OUTER_BOUND ( 'NONE', #148, .T. ) ;
#203 = CARTESIAN_POINT ( 'NONE',  ( 6.411826227315529956E-14, -2.248965898403675160E-15, 18.36420019200223663 ) ) ;
#204 = AXIS2_PLACEMENT_3D ( 'NONE', #231, #4, #159 ) ;
#205 = CARTESIAN_POINT ( 'NONE',  ( 4.660183614865709749E-14, 0.6153844939755812593, 13.34729635533384773 ) ) ;
#206 = DIRECTION ( 'NONE',  ( 0.0000000000000000000, 1.000000000000000000, 0.0000000000000000000 ) ) ;
#207 = DIRECTION ( 'NONE',  ( 4.275831445896959482E-31, 1.000000000000000000, 1.224646799147353454E-16 ) ) ;
#208 = DIRECTION ( 'NONE',  ( -3.491481338843133355E-15, 1.224646799147353207E-16, -1.000000000000000000 ) ) ;
#209 = CIRCLE ( 'NONE', #93, 0.6550000000000001377 ) ;
#210 = DATE_AND_TIME ( #28, #284 ) ;
#211 = CARTESIAN_POINT ( 'NONE',  ( 2.094888803305880013E-14, 0.6549999999999993605, 6.000000000000000000 ) ) ;
#212 = CARTESIAN_POINT ( 'NONE',  ( 4.660183614865709749E-14, -1.634572375883073005E-15, 13.34729635533384773 ) ) ;
#213 = ORIENTED_EDGE ( 'NONE', *, *, #292, .F. ) ;
#214 = SHAPE_DEFINITION_REPRESENTATION ( #6, #286 ) ;
#215 = ADVANCED_FACE ( 'NONE', ( #196 ), #277, .F. ) ;
#216 = CARTESIAN_POINT ( 'NONE',  ( 2.137220764813765389E-14, -7.496361328305610150E-16, 6.121243556529823771 ) ) ;
#217 = PERSON_AND_ORGANIZATION ( #239, #150 ) ;
#218 = VERTEX_POINT ( 'NONE', #205 ) ;
#219 = APPROVAL ( #188, 'UNSPECIFIED' ) ;
#220 = PERSON_AND_ORGANIZATION_ROLE ( 'creator' ) ;
#221 = FACE_OUTER_BOUND ( 'NONE', #57, .T. ) ;
#222 = AXIS2_PLACEMENT_3D ( 'NONE', #228, #103, #105 ) ;
#223 = AXIS2_PLACEMENT_3D ( 'NONE', #144, #152, #279 ) ;
#224 = EDGE_LOOP ( 'NONE', ( #149 ) ) ;
#225 = CARTESIAN_POINT ( 'NONE',  ( -6.185692873982071480E-32, 2.169648995214372323E-33, -1.771652852663287363E-17 ) ) ;
#226 = EDGE_LOOP ( 'NONE', ( #165 ) ) ;
#227 = CARTESIAN_POINT ( 'NONE',  ( 1.326762908760390423E-13, 8.998558695971103225E-33, 38.00000000000000000 ) ) ;
#228 = CARTESIAN_POINT ( 'NONE',  ( 8.728703347107831416E-16, -3.061616997868382402E-17, 0.2499999999999999445 ) ) ;
#229 = AXIS2_PLACEMENT_3D ( 'NONE', #111, #208, #207 ) ;
#230 = DIRECTION ( 'NONE',  ( 4.275831445896958607E-31, 1.000000000000000000, 1.224646799147353207E-16 ) ) ;
#231 = CARTESIAN_POINT ( 'NONE',  ( 2.094888803305880013E-14, 4.911713288217573676E-33, 6.000000000000000000 ) ) ;
#232 = AXIS2_PLACEMENT_3D ( 'NONE', #85, #67, #195 ) ;
#233 =( GEOMETRIC_REPRESENTATION_CONTEXT ( 3 ) GLOBAL_UNCERTAINTY_ASSIGNED_CONTEXT ( ( #48 ) ) GLOBAL_UNIT_ASSIGNED_CONTEXT ( ( #96, #78, #139 ) ) REPRESENTATION_CONTEXT ( 'NONE', 'WORKASPACE' ) );
#234 = FACE_OUTER_BOUND ( 'NONE', #272, .T. ) ;
#235 = APPROVAL ( #14, 'UNSPECIFIED' ) ;
#236 = VERTEX_POINT ( 'NONE', #26 ) ;
#237 = ADVANCED_FACE ( 'NONE', ( #198, #234 ), #130, .T. ) ;
#238 = COORDINATED_UNIVERSAL_TIME_OFFSET ( 1, 0, .AHEAD. ) ;
#239 = PERSON ( 'UNSPECIFIED', 'UNSPECIFIED', 'UNSPECIFIED', ('UNSPECIFIED'), ('UNSPECIFIED'), ('UNSPECIFIED') ) ;
#240 = APPROVAL_PERSON_ORGANIZATION ( #76, #51, #158 ) ;
#241 = CARTESIAN_POINT ( 'NONE',  ( -1.237138574796414296E-31, 4.339297990428744646E-33, -3.543305705326574726E-17 ) ) ;
#242 = EDGE_LOOP ( 'NONE', ( #69 ) ) ;
#243 = CIRCLE ( 'NONE', #178, 0.6550000000000001377 ) ;
#244 = APPROVAL_DATE_TIME ( #296, #235 ) ;
#245 = FACE_OUTER_BOUND ( 'NONE', #33, .T. ) ;
#246 = PERSON_AND_ORGANIZATION ( #239, #150 ) ;
#247 = ORIENTED_EDGE ( 'NONE', *, *, #250, .F. ) ;
#248 = CC_DESIGN_PERSON_AND_ORGANIZATION_ASSIGNMENT ( #118, #63, ( #183 ) ) ;
#249 = DIRECTION ( 'NONE',  ( -3.491481338843133355E-15, 1.224646799147353207E-16, -1.000000000000000000 ) ) ;
#250 = EDGE_CURVE ( 'NONE', #116, #116, #124, .T. ) ;
#251 = ORIENTED_EDGE ( 'NONE', *, *, #112, .T. ) ;
#252 = CC_DESIGN_APPROVAL ( #235, ( #183 ) ) ;
#253 = VERTEX_POINT ( 'NONE', #290 ) ;
#254 = FACE_OUTER_BOUND ( 'NONE', #224, .T. ) ;
#255 = EDGE_CURVE ( 'NONE', #27, #27, #243, .T. ) ;
#256 = APPROVAL_PERSON_ORGANIZATION ( #217, #235, #270 ) ;
#257 = APPLICATION_PROTOCOL_DEFINITION ( 'international standard', 'config_control_design', 1994, #11 ) ;
#258 = DIRECTION ( 'NONE',  ( 3.491481338843133355E-15, -1.224646799147353207E-16, 1.000000000000000000 ) ) ;
#259 = DIRECTION ( 'NONE',  ( 0.0000000000000000000, 1.000000000000000000, 0.0000000000000000000 ) ) ;
#260 = CARTESIAN_POINT ( 'NONE',  ( 1.316288464743861212E-13, 1.499999999999998668, 37.69999999999999574 ) ) ;
#261 = VERTEX_POINT ( 'NONE', #136 ) ;
#262 = ORIENTED_EDGE ( 'NONE', *, *, #292, .T. ) ;
#263 = CIRCLE ( 'NONE', #22, 1.200000000000003286 ) ;
#264 = DATE_AND_TIME ( #186, #276 ) ;
#265 = EDGE_LOOP ( 'NONE', ( #251 ) ) ;
#266 = COORDINATED_UNIVERSAL_TIME_OFFSET ( 1, 0, .AHEAD. ) ;
#267 = PRODUCT_DEFINITION ( 'UNKNOWN', '', #62, #142 ) ;
#268 = SECURITY_CLASSIFICATION_LEVEL ( 'unclassified' ) ;
#269 = AXIS2_PLACEMENT_3D ( 'NONE', #181, #258, #131 ) ;
#270 = APPROVAL_ROLE ( '' ) ;
#271 = DIRECTION ( 'NONE',  ( 3.491481338843133355E-15, -1.224646799147353207E-16, 1.000000000000000000 ) ) ;
#272 = EDGE_LOOP ( 'NONE', ( #168 ) ) ;
#273 = COORDINATED_UNIVERSAL_TIME_OFFSET ( 1, 0, .AHEAD. ) ;
#274 = DIRECTION ( 'NONE',  ( 0.0000000000000000000, 1.000000000000000000, 0.0000000000000000000 ) ) ;
#275 = EDGE_CURVE ( 'NONE', #161, #161, #162, .T. ) ;
#276 = LOCAL_TIME ( 11, 40, 32.00000000000000000, #147 ) ;
#277 = PLANE ( 'NONE',  #291 ) ;
#278 = EDGE_LOOP ( 'NONE', ( #173 ) ) ;
#279 = DIRECTION ( 'NONE',  ( 0.0000000000000000000, 1.000000000000000000, 0.0000000000000000000 ) ) ;
#280 = EDGE_LOOP ( 'NONE', ( #65 ) ) ;
#281 = FACE_OUTER_BOUND ( 'NONE', #280, .T. ) ;
#282 = ORIENTED_EDGE ( 'NONE', *, *, #137, .F. ) ;
#283 = DIRECTION ( 'NONE',  ( 0.0000000000000000000, 1.000000000000000000, 0.0000000000000000000 ) ) ;
#284 = LOCAL_TIME ( 11, 40, 32.00000000000000000, #238 ) ;
#285 = CARTESIAN_POINT ( 'NONE',  ( 8.728703347107833388E-16, 0.6549999999999993605, 0.2500000000000000000 ) ) ;
#286 = ADVANCED_BREP_SHAPE_REPRESENTATION ( '967299', ( #141, #171, #50 ), #233 ) ;
#287 = APPLICATION_PROTOCOL_DEFINITION ( 'international standard', 'config_control_design', 1994, #47 ) ;
#288 = FACE_OUTER_BOUND ( 'NONE', #66, .T. ) ;
#289 = PERSON_AND_ORGANIZATION ( #239, #150 ) ;
#290 = CARTESIAN_POINT ( 'NONE',  ( 6.411826227315529956E-14, 1.499999999999995559, 18.36420019200223663 ) ) ;
#291 = AXIS2_PLACEMENT_3D ( 'NONE', #227, #21, #102 ) ;
#292 = EDGE_CURVE ( 'NONE', #175, #175, #71, .T. ) ;
#293 = CALENDAR_DATE ( 2021, 1, 12 ) ;
#294 = CC_DESIGN_APPROVAL ( #51, ( #267 ) ) ;
#295 = EDGE_LOOP ( 'NONE', ( #120 ) ) ;
#296 = DATE_AND_TIME ( #145, #34 ) ;
#297 = DIRECTION ( 'NONE',  ( -3.491481338843133355E-15, 1.224646799147353207E-16, -1.000000000000000000 ) ) ;
#298 = ORIENTED_EDGE ( 'NONE', *, *, #255, .F. ) ;
#299 = AXIS2_PLACEMENT_3D ( 'NONE', #241, #184, #61 ) ;
#300 = DIRECTION ( 'NONE',  ( -4.275831445896958607E-31, -1.000000000000000000, -1.224646799147353207E-16 ) ) ;
#301 = ORIENTED_EDGE ( 'NONE', *, *, #191, .F. ) ;
#302 = CC_DESIGN_PERSON_AND_ORGANIZATION_ASSIGNMENT ( #246, #220, ( #62 ) ) ;
#303 = FACE_OUTER_BOUND ( 'NONE', #45, .T. ) ;
ENDSEC;
END-ISO-10303-21;
