ISO-10303-21;
HEADER;
FILE_DESCRIPTION (( 'STEP AP203' ),
    '1' );
FILE_NAME ('967191.step',
    '2021-12-01T10:40:31',
    ( '' ),
    ( '' ),
    'SwSTEP 2.0',
    'SolidWorks 2019',
    '' );
FILE_SCHEMA (( 'CONFIG_CONTROL_DESIGN' ));
ENDSEC;

DATA;
#1 = ADVANCED_FACE ( 'NONE', ( #286, #212 ), #83, .T. ) ;
#2 = APPROVAL_STATUS ( 'not_yet_approved' ) ;
#3 = FACE_OUTER_BOUND ( 'NONE', #293, .T. ) ;
#4 = COORDINATED_UNIVERSAL_TIME_OFFSET ( 1, 0, .AHEAD. ) ;
#5 = DIRECTION ( 'NONE',  ( -3.491481338843133355E-15, 1.224646799147353207E-16, -1.000000000000000000 ) ) ;
#6 = FACE_OUTER_BOUND ( 'NONE', #175, .T. ) ;
#7 = FACE_OUTER_BOUND ( 'NONE', #97, .T. ) ;
#8 = AXIS2_PLACEMENT_3D ( 'NONE', #194, #224, #84 ) ;
#9 = DIRECTION ( 'NONE',  ( 4.275831445896958607E-31, 1.000000000000000000, 1.224646799147353207E-16 ) ) ;
#10 = APPROVAL ( #2, 'UNSPECIFIED' ) ;
#11 = FACE_OUTER_BOUND ( 'NONE', #118, .T. ) ;
#12 = DIRECTION ( 'NONE',  ( -3.491481338843133355E-15, 1.224646799147353207E-16, -1.000000000000000000 ) ) ;
#13 = DIRECTION ( 'NONE',  ( 3.491481338843133355E-15, -1.224646799147353207E-16, 1.000000000000000000 ) ) ;
#14 = PRODUCT_RELATED_PRODUCT_CATEGORY ( 'detail', '', ( #74 ) ) ;
#15 = ORIENTED_EDGE ( 'NONE', *, *, #104, .T. ) ;
#16 = MANIFOLD_SOLID_BREP ( 'Corps-Déplacer/Copier1[1]', #25 ) ;
#17 = DIRECTION ( 'NONE',  ( 3.491481338843133355E-15, -1.224646799147353207E-16, 1.000000000000000000 ) ) ;
#18 = VERTEX_POINT ( 'NONE', #69 ) ;
#19 = APPLICATION_CONTEXT ( 'configuration controlled 3d designs of mechanical parts and assemblies' ) ;
#20 = AXIS2_PLACEMENT_3D ( 'NONE', #130, #177, #213 ) ;
#21 = SHAPE_DEFINITION_REPRESENTATION ( #204, #250 ) ;
#22 = EDGE_LOOP ( 'NONE', ( #163 ) ) ;
#23 = DATE_TIME_ROLE ( 'creation_date' ) ;
#24 = EDGE_CURVE ( 'NONE', #133, #133, #227, .T. ) ;
#25 = CLOSED_SHELL ( 'NONE', ( #50, #114, #1, #31, #58, #265, #34, #228 ) ) ;
#26 = PERSON_AND_ORGANIZATION ( #85, #215 ) ;
#27 = CIRCLE ( 'NONE', #72, 1.500000000000003331 ) ;
#28 = COORDINATED_UNIVERSAL_TIME_OFFSET ( 1, 0, .AHEAD. ) ;
#29 = DIRECTION ( 'NONE',  ( -3.491481338843133355E-15, 1.224646799147353207E-16, -1.000000000000000000 ) ) ;
#30 = DIRECTION ( 'NONE',  ( -4.275831445896958607E-31, -1.000000000000000000, -1.224646799147353207E-16 ) ) ;
#31 = ADVANCED_FACE ( 'NONE', ( #35, #6 ), #252, .F. ) ;
#32 = DIRECTION ( 'NONE',  ( 0.0000000000000000000, 1.000000000000000000, 0.0000000000000000000 ) ) ;
#33 = DIRECTION ( 'NONE',  ( 0.0000000000000000000, 1.000000000000000000, 0.0000000000000000000 ) ) ;
#34 = ADVANCED_FACE ( 'NONE', ( #60, #241 ), #214, .T. ) ;
#35 = FACE_OUTER_BOUND ( 'NONE', #256, .T. ) ;
#36 = CARTESIAN_POINT ( 'NONE',  ( 1.745740669421566678E-14, 3.861881440354273214E-33, 5.000000000000000000 ) ) ;
#37 = DIRECTION ( 'NONE',  ( 0.0000000000000000000, 1.000000000000000000, 0.0000000000000000000 ) ) ;
#38 = CC_DESIGN_APPROVAL ( #10, ( #238 ) ) ;
#39 = CARTESIAN_POINT ( 'NONE',  ( 1.745740669421566678E-14, 0.5149999999999992362, 5.000000000000000000 ) ) ;
#40 = CC_DESIGN_DATE_AND_TIME_ASSIGNMENT ( #235, #23, ( #219 ) ) ;
#41 = CARTESIAN_POINT ( 'NONE',  ( 5.951144055233100630E-14, 1.499999999999995559, 17.04475401035639237 ) ) ;
#42 = AXIS2_PLACEMENT_3D ( 'NONE', #220, #216, #64 ) ;
#43 = CONICAL_SURFACE ( 'NONE', #94, 1.499999999999997558, 0.1745329251994261754 ) ;
#44 = SECURITY_CLASSIFICATION ( '', '', #187 ) ;
#45 =( NAMED_UNIT ( * ) PLANE_ANGLE_UNIT ( ) SI_UNIT ( $, .RADIAN. ) );
#46 = PERSON_AND_ORGANIZATION ( #85, #215 ) ;
#47 = AXIS2_PLACEMENT_3D ( 'NONE', #102, #168, #32 ) ;
#48 = AXIS2_PLACEMENT_3D ( 'NONE', #107, #176, #296 ) ;
#49 = AXIS2_PLACEMENT_3D ( 'NONE', #170, #13, #61 ) ;
#50 = ADVANCED_FACE ( 'NONE', ( #11 ), #209, .F. ) ;
#51 = ORIENTED_EDGE ( 'NONE', *, *, #104, .F. ) ;
#52 = APPROVAL_ROLE ( '' ) ;
#53 = FACE_OUTER_BOUND ( 'NONE', #91, .T. ) ;
#54 = CALENDAR_DATE ( 2021, 1, 12 ) ;
#55 = CIRCLE ( 'NONE', #247, 0.4649999999999997469 ) ;
#56 = CC_DESIGN_APPROVAL ( #169, ( #44 ) ) ;
#57 = EDGE_LOOP ( 'NONE', ( #237 ) ) ;
#58 = ADVANCED_FACE ( 'NONE', ( #263, #3 ), #43, .T. ) ;
#59 = FACE_OUTER_BOUND ( 'NONE', #145, .T. ) ;
#60 = FACE_OUTER_BOUND ( 'NONE', #57, .T. ) ;
#61 = DIRECTION ( 'NONE',  ( -4.275831445896958607E-31, -1.000000000000000000, -1.224646799147353207E-16 ) ) ;
#62 = DIRECTION ( 'NONE',  ( 0.0000000000000000000, 1.000000000000000000, 0.0000000000000000000 ) ) ;
#63 = EDGE_LOOP ( 'NONE', ( #51 ) ) ;
#64 = DIRECTION ( 'NONE',  ( 0.0000000000000000000, 1.000000000000000000, 0.0000000000000000000 ) ) ;
#65 = DIRECTION ( 'NONE',  ( -4.275831445896958607E-31, -1.000000000000000000, -1.224646799147353207E-16 ) ) ;
#66 =( GEOMETRIC_REPRESENTATION_CONTEXT ( 3 ) GLOBAL_UNCERTAINTY_ASSIGNED_CONTEXT ( ( #174 ) ) GLOBAL_UNIT_ASSIGNED_CONTEXT ( ( #157, #45, #185 ) ) REPRESENTATION_CONTEXT ( 'NONE', 'WORKASPACE' ) );
#67 = CARTESIAN_POINT ( 'NONE',  ( 8.728703347107833388E-16, 0.5149999999999992362, 0.2500000000000000000 ) ) ;
#68 = AXIS2_PLACEMENT_3D ( 'NONE', #131, #110, #149 ) ;
#69 = CARTESIAN_POINT ( 'NONE',  ( 1.775977784784342352E-14, 0.4649999999999984146, 5.086602540378446946 ) ) ;
#70 = CC_DESIGN_DATE_AND_TIME_ASSIGNMENT ( #231, #137, ( #44 ) ) ;
#71 = ORIENTED_EDGE ( 'NONE', *, *, #86, .F. ) ;
#72 = AXIS2_PLACEMENT_3D ( 'NONE', #246, #12, #37 ) ;
#73 = ORIENTED_EDGE ( 'NONE', *, *, #186, .F. ) ;
#74 = PRODUCT ( '967191', '967191', '', ( #159 ) ) ;
#75 = CARTESIAN_POINT ( 'NONE',  ( 0.0000000000000000000, 0.0000000000000000000, 0.0000000000000000000 ) ) ;
#76 = DATE_AND_TIME ( #98, #290 ) ;
#77 = CARTESIAN_POINT ( 'NONE',  ( 0.0000000000000000000, 0.0000000000000000000, 0.0000000000000000000 ) ) ;
#78 = CYLINDRICAL_SURFACE ( 'NONE', #116, 1.500000000000000444 ) ;
#79 = CIRCLE ( 'NONE', #278, 0.4649999999999989697 ) ;
#80 = CIRCLE ( 'NONE', #68, 0.5149999999999999023 ) ;
#81 = CARTESIAN_POINT ( 'NONE',  ( 1.745740669421566678E-14, 3.861881440354273214E-33, 5.000000000000000000 ) ) ;
#82 = FACE_OUTER_BOUND ( 'NONE', #142, .T. ) ;
#83 = CYLINDRICAL_SURFACE ( 'NONE', #171, 0.4649999999999993583 ) ;
#84 = DIRECTION ( 'NONE',  ( 0.0000000000000000000, 1.000000000000000000, 0.0000000000000000000 ) ) ;
#85 = PERSON ( 'UNSPECIFIED', 'UNSPECIFIED', 'UNSPECIFIED', ('UNSPECIFIED'), ('UNSPECIFIED'), ('UNSPECIFIED') ) ;
#86 = EDGE_CURVE ( 'NONE', #18, #18, #79, .T. ) ;
#87 = APPROVAL_PERSON_ORGANIZATION ( #144, #284, #122 ) ;
#88 = VERTEX_POINT ( 'NONE', #184 ) ;
#89 = EDGE_CURVE ( 'NONE', #136, #136, #55, .T. ) ;
#90 = CARTESIAN_POINT ( 'NONE',  ( 3.961887347097082447E-14, 0.4953844939755793764, 11.34729635533384595 ) ) ;
#91 = EDGE_LOOP ( 'NONE', ( #73 ) ) ;
#92 = PERSON_AND_ORGANIZATION ( #85, #215 ) ;
#93 = ADVANCED_FACE ( 'NONE', ( #154 ), #198, .T. ) ;
#94 = AXIS2_PLACEMENT_3D ( 'NONE', #240, #147, #291 ) ;
#95 = CC_DESIGN_APPROVAL ( #284, ( #219 ) ) ;
#96 = PERSON_AND_ORGANIZATION_ROLE ( 'design_supplier' ) ;
#97 = EDGE_LOOP ( 'NONE', ( #188 ) ) ;
#98 = CALENDAR_DATE ( 2021, 1, 12 ) ;
#99 = APPROVAL_DATE_TIME ( #162, #284 ) ;
#100 = ORIENTED_EDGE ( 'NONE', *, *, #86, .T. ) ;
#101 = DIRECTION ( 'NONE',  ( 0.0000000000000000000, 1.000000000000000000, 0.0000000000000000000 ) ) ;
#102 = CARTESIAN_POINT ( 'NONE',  ( 1.326762908760390423E-13, -4.653657836759941941E-15, 38.00000000000000000 ) ) ;
#103 = DIRECTION ( 'NONE',  ( -3.491481338843133355E-15, 1.224646799147353207E-16, -1.000000000000000000 ) ) ;
#104 = EDGE_CURVE ( 'NONE', #199, #199, #181, .T. ) ;
#105 = ORIENTED_EDGE ( 'NONE', *, *, #89, .F. ) ;
#106 = DIRECTION ( 'NONE',  ( 0.0000000000000000000, 1.000000000000000000, 0.0000000000000000000 ) ) ;
#107 = CARTESIAN_POINT ( 'NONE',  ( -2.531257998754000808E-31, 8.878457895517039625E-33, -7.249811048947801272E-17 ) ) ;
#108 = FACE_BOUND ( 'NONE', #63, .T. ) ;
#109 = APPROVAL_PERSON_ORGANIZATION ( #119, #10, #261 ) ;
#110 = DIRECTION ( 'NONE',  ( -3.491481338843133355E-15, 1.224646799147353207E-16, -1.000000000000000000 ) ) ;
#111 = DIRECTION ( 'NONE',  ( 3.491481338843133355E-15, -1.224646799147353207E-16, 1.000000000000000000 ) ) ;
#112 = DIRECTION ( 'NONE',  ( -3.739669794926677069E-31, -1.000000000000000000, -1.052623468432530128E-16 ) ) ;
#113 = CONICAL_SURFACE ( 'NONE', #248, 0.4649999999999989697, 0.5235987755982928205 ) ;
#114 = ADVANCED_FACE ( 'NONE', ( #53, #143 ), #113, .T. ) ;
#115 = AXIS2_PLACEMENT_3D ( 'NONE', #81, #111, #30 ) ;
#116 = AXIS2_PLACEMENT_3D ( 'NONE', #173, #245, #222 ) ;
#117 = DATE_AND_TIME ( #255, #200 ) ;
#118 = EDGE_LOOP ( 'NONE', ( #239 ) ) ;
#119 = PERSON_AND_ORGANIZATION ( #85, #215 ) ;
#120 = EDGE_LOOP ( 'NONE', ( #152 ) ) ;
#121 = LOCAL_TIME ( 11, 40, 31.00000000000000000, #28 ) ;
#122 = APPROVAL_ROLE ( '' ) ;
#123 = EDGE_CURVE ( 'NONE', #229, #229, #27, .T. ) ;
#124 = CALENDAR_DATE ( 2021, 1, 12 ) ;
#125 = ORIENTED_EDGE ( 'NONE', *, *, #123, .T. ) ;
#126 = APPROVAL_PERSON_ORGANIZATION ( #210, #169, #52 ) ;
#127 = CARTESIAN_POINT ( 'NONE',  ( 5.951144055233100630E-14, -2.087380344103696581E-15, 17.04475401035639237 ) ) ;
#128 = DIRECTION ( 'NONE',  ( -3.491481338843133355E-15, 1.224646799147353207E-16, -1.000000000000000000 ) ) ;
#129 = FACE_OUTER_BOUND ( 'NONE', #262, .T. ) ;
#130 = CARTESIAN_POINT ( 'NONE',  ( 8.728703347107831416E-16, -3.061616997868382402E-17, 0.2499999999999999445 ) ) ;
#131 = CARTESIAN_POINT ( 'NONE',  ( 1.745740669421566678E-14, -6.123233995736766282E-16, 5.000000000000000000 ) ) ;
#132 = CIRCLE ( 'NONE', #8, 1.200000000000003286 ) ;
#133 = VERTEX_POINT ( 'NONE', #90 ) ;
#134 = CARTESIAN_POINT ( 'NONE',  ( 8.728703347107831416E-16, -3.061616997868382402E-17, 0.2499999999999999445 ) ) ;
#135 = VERTEX_POINT ( 'NONE', #67 ) ;
#136 = VERTEX_POINT ( 'NONE', #226 ) ;
#137 = DATE_TIME_ROLE ( 'classification_date' ) ;
#138 = AXIS2_PLACEMENT_3D ( 'NONE', #75, #259, #301 ) ;
#139 = COORDINATED_UNIVERSAL_TIME_OFFSET ( 1, 0, .AHEAD. ) ;
#140 = ORIENTED_EDGE ( 'NONE', *, *, #24, .F. ) ;
#141 = PERSON_AND_ORGANIZATION_ROLE ( 'creator' ) ;
#142 = EDGE_LOOP ( 'NONE', ( #15 ) ) ;
#143 = FACE_BOUND ( 'NONE', #281, .T. ) ;
#144 = PERSON_AND_ORGANIZATION ( #85, #215 ) ;
#145 = EDGE_LOOP ( 'NONE', ( #260 ) ) ;
#146 = DIRECTION ( 'NONE',  ( 4.275831445896959482E-31, 1.000000000000000000, 1.224646799147353207E-16 ) ) ;
#147 = DIRECTION ( 'NONE',  ( 3.491481338843133355E-15, -1.224646799147353207E-16, 1.000000000000000000 ) ) ;
#148 = AXIS2_PLACEMENT_3D ( 'NONE', #218, #103, #193 ) ;
#149 = DIRECTION ( 'NONE',  ( 0.0000000000000000000, 1.000000000000000000, 0.0000000000000000000 ) ) ;
#150 = ORIENTED_EDGE ( 'NONE', *, *, #156, .F. ) ;
#151 = PLANE ( 'NONE',  #49 ) ;
#152 = ORIENTED_EDGE ( 'NONE', *, *, #156, .T. ) ;
#153 = EDGE_CURVE ( 'NONE', #135, #135, #279, .T. ) ;
#154 = FACE_OUTER_BOUND ( 'NONE', #223, .T. ) ;
#155 = VERTEX_POINT ( 'NONE', #249 ) ;
#156 = EDGE_CURVE ( 'NONE', #251, #251, #266, .T. ) ;
#157 =( LENGTH_UNIT ( ) NAMED_UNIT ( * ) SI_UNIT ( .MILLI., .METRE. ) );
#158 = PERSON_AND_ORGANIZATION ( #85, #215 ) ;
#159 = MECHANICAL_CONTEXT ( 'NONE', #19, 'mechanical' ) ;
#160 = ORIENTED_EDGE ( 'NONE', *, *, #236, .T. ) ;
#161 = CIRCLE ( 'NONE', #202, 1.499999999999997558 ) ;
#162 = DATE_AND_TIME ( #124, #121 ) ;
#163 = ORIENTED_EDGE ( 'NONE', *, *, #89, .T. ) ;
#164 = PERSON_AND_ORGANIZATION_ROLE ( 'design_owner' ) ;
#165 = APPLICATION_PROTOCOL_DEFINITION ( 'international standard', 'config_control_design', 1994, #19 ) ;
#166 = DESIGN_CONTEXT ( 'detailed design', #244, 'design' ) ;
#167 = CARTESIAN_POINT ( 'NONE',  ( 3.840629472727446691E-14, -1.347111479062088405E-15, 11.00000000000000000 ) ) ;
#168 = DIRECTION ( 'NONE',  ( -3.491481338843133355E-15, 1.224646799147353207E-16, -1.000000000000000000 ) ) ;
#169 = APPROVAL ( #233, 'UNSPECIFIED' ) ;
#170 = CARTESIAN_POINT ( 'NONE',  ( -1.265628999377000404E-31, 4.439228947758519812E-33, -3.624905524473900636E-17 ) ) ;
#171 = AXIS2_PLACEMENT_3D ( 'NONE', #178, #29, #243 ) ;
#172 = ORIENTED_EDGE ( 'NONE', *, *, #24, .T. ) ;
#173 = CARTESIAN_POINT ( 'NONE',  ( 0.0000000000000000000, 0.0000000000000000000, 0.0000000000000000000 ) ) ;
#174 = UNCERTAINTY_MEASURE_WITH_UNIT (LENGTH_MEASURE( 1.000000000000000082E-05 ), #157, 'distance_accuracy_value', 'NONE');
#175 = EDGE_LOOP ( 'NONE', ( #172 ) ) ;
#176 = DIRECTION ( 'NONE',  ( -3.491481338843133355E-15, 1.224646799147353207E-16, -1.000000000000000000 ) ) ;
#177 = DIRECTION ( 'NONE',  ( -3.491481338843133355E-15, 1.224646799147353207E-16, -1.000000000000000000 ) ) ;
#178 = CARTESIAN_POINT ( 'NONE',  ( 0.0000000000000000000, 0.0000000000000000000, 0.0000000000000000000 ) ) ;
#179 = FACE_OUTER_BOUND ( 'NONE', #120, .T. ) ;
#180 = AXIS2_PLACEMENT_3D ( 'NONE', #36, #211, #65 ) ;
#181 = CIRCLE ( 'NONE', #48, 0.3706624327025948573 ) ;
#182 = CARTESIAN_POINT ( 'NONE',  ( -9.463679131915806782E-32, 0.3706624327025948573, -2.710505431213761085E-17 ) ) ;
#183 = AXIS2_PLACEMENT_3D ( 'NONE', #77, #292, #146 ) ;
#184 = CARTESIAN_POINT ( 'NONE',  ( 1.326762908760390423E-13, 1.199999999999998845, 38.00000000000000000 ) ) ;
#185 =( NAMED_UNIT ( * ) SI_UNIT ( $, .STERADIAN. ) SOLID_ANGLE_UNIT ( ) );
#186 = EDGE_CURVE ( 'NONE', #155, #155, #80, .T. ) ;
#187 = SECURITY_CLASSIFICATION_LEVEL ( 'unclassified' ) ;
#188 = ORIENTED_EDGE ( 'NONE', *, *, #153, .F. ) ;
#189 = CC_DESIGN_PERSON_AND_ORGANIZATION_ASSIGNMENT ( #303, #96, ( #238 ) ) ;
#190 = COORDINATED_UNIVERSAL_TIME_OFFSET ( 1, 0, .AHEAD. ) ;
#191 = PERSON_AND_ORGANIZATION_ROLE ( 'classification_officer' ) ;
#192 = CONICAL_SURFACE ( 'NONE', #270, 0.5149999999999992362, 0.5235987755982928205 ) ;
#193 = DIRECTION ( 'NONE',  ( 4.275831445896958607E-31, 1.000000000000000000, 1.224646799147353207E-16 ) ) ;
#194 = CARTESIAN_POINT ( 'NONE',  ( 1.326762908760390423E-13, -4.653657836759941941E-15, 38.00000000000000000 ) ) ;
#195 = ADVANCED_FACE ( 'NONE', ( #7, #179 ), #269, .T. ) ;
#196 = AXIS2_PLACEMENT_3D ( 'NONE', #275, #128, #9 ) ;
#197 = ORIENTED_EDGE ( 'NONE', *, *, #253, .T. ) ;
#198 = PLANE ( 'NONE',  #115 ) ;
#199 = VERTEX_POINT ( 'NONE', #182 ) ;
#200 = LOCAL_TIME ( 11, 40, 31.00000000000000000, #4 ) ;
#201 = CC_DESIGN_PERSON_AND_ORGANIZATION_ASSIGNMENT ( #26, #141, ( #219 ) ) ;
#202 = AXIS2_PLACEMENT_3D ( 'NONE', #127, #217, #62 ) ;
#203 = MANIFOLD_SOLID_BREP ( 'Corps-Déplacer/Copier1[2]', #230 ) ;
#204 = PRODUCT_DEFINITION_SHAPE ( 'NONE', 'NONE',  #219 ) ;
#205 = APPROVAL_DATE_TIME ( #76, #10 ) ;
#206 = ORIENTED_EDGE ( 'NONE', *, *, #236, .F. ) ;
#207 = AXIS2_PLACEMENT_3D ( 'NONE', #295, #276, #106 ) ;
#208 = APPROVAL_STATUS ( 'not_yet_approved' ) ;
#209 = PLANE ( 'NONE',  #180 ) ;
#210 = PERSON_AND_ORGANIZATION ( #85, #215 ) ;
#211 = DIRECTION ( 'NONE',  ( 3.491481338843133355E-15, -1.224646799147353207E-16, 1.000000000000000000 ) ) ;
#212 = FACE_OUTER_BOUND ( 'NONE', #22, .T. ) ;
#213 = DIRECTION ( 'NONE',  ( 3.739669794926677069E-31, 1.000000000000000000, 1.052623468432530128E-16 ) ) ;
#214 = CONICAL_SURFACE ( 'NONE', #47, 1.200000000000003286, 0.7853981633974453924 ) ;
#215 = ORGANIZATION ( 'UNSPECIFIED', 'UNSPECIFIED', '' ) ;
#216 = DIRECTION ( 'NONE',  ( -3.491481338843133355E-15, 1.224646799147353207E-16, -1.000000000000000000 ) ) ;
#217 = DIRECTION ( 'NONE',  ( -3.491481338843133355E-15, 1.224646799147353207E-16, -1.000000000000000000 ) ) ;
#218 = CARTESIAN_POINT ( 'NONE',  ( 1.326762908760390423E-13, 8.998558695971103225E-33, 38.00000000000000000 ) ) ;
#219 = PRODUCT_DEFINITION ( 'UNKNOWN', '', #238, #166 ) ;
#220 = CARTESIAN_POINT ( 'NONE',  ( 3.961887347097082447E-14, -1.389643016053602117E-15, 11.34729635533384595 ) ) ;
#221 = DIRECTION ( 'NONE',  ( -3.491481338843133355E-15, 1.224646799147353207E-16, -1.000000000000000000 ) ) ;
#222 = DIRECTION ( 'NONE',  ( 4.275831445896958607E-31, 1.000000000000000000, 1.224646799147353207E-16 ) ) ;
#223 = EDGE_LOOP ( 'NONE', ( #150 ) ) ;
#224 = DIRECTION ( 'NONE',  ( -3.491481338843133355E-15, 1.224646799147353207E-16, -1.000000000000000000 ) ) ;
#225 = CARTESIAN_POINT ( 'NONE',  ( 1.775977784784342352E-14, -6.229291519609259858E-16, 5.086602540378446946 ) ) ;
#226 = CARTESIAN_POINT ( 'NONE',  ( 3.840629472727446691E-14, 0.4649999999999984146, 11.00000000000000000 ) ) ;
#227 = CIRCLE ( 'NONE', #42, 0.4953844939755807641 ) ;
#228 = ADVANCED_FACE ( 'NONE', ( #59 ), #288, .F. ) ;
#229 = VERTEX_POINT ( 'NONE', #299 ) ;
#230 = CLOSED_SHELL ( 'NONE', ( #258, #294, #195, #93 ) ) ;
#231 = DATE_AND_TIME ( #280, #257 ) ;
#232 = LOCAL_TIME ( 11, 40, 31.00000000000000000, #190 ) ;
#233 = APPROVAL_STATUS ( 'not_yet_approved' ) ;
#234 = EDGE_LOOP ( 'NONE', ( #140 ) ) ;
#235 = DATE_AND_TIME ( #54, #232 ) ;
#236 = EDGE_CURVE ( 'NONE', #298, #298, #161, .T. ) ;
#237 = ORIENTED_EDGE ( 'NONE', *, *, #123, .F. ) ;
#238 = PRODUCT_DEFINITION_FORMATION_WITH_SPECIFIED_SOURCE ( 'ANY', '', #74, .NOT_KNOWN. ) ;
#239 = ORIENTED_EDGE ( 'NONE', *, *, #186, .T. ) ;
#240 = CARTESIAN_POINT ( 'NONE',  ( 5.951144055233100630E-14, -2.087380344103696581E-15, 17.04475401035639237 ) ) ;
#241 = FACE_BOUND ( 'NONE', #300, .T. ) ;
#242 = CC_DESIGN_PERSON_AND_ORGANIZATION_ASSIGNMENT ( #158, #164, ( #74 ) ) ;
#243 = DIRECTION ( 'NONE',  ( 4.275831445896959482E-31, 1.000000000000000000, 1.224646799147353207E-16 ) ) ;
#244 = APPLICATION_CONTEXT ( 'configuration controlled 3d designs of mechanical parts and assemblies' ) ;
#245 = DIRECTION ( 'NONE',  ( -3.491481338843133355E-15, 1.224646799147353207E-16, -1.000000000000000000 ) ) ;
#246 = CARTESIAN_POINT ( 'NONE',  ( 1.316288464743861212E-13, -4.616918432785521081E-15, 37.69999999999999574 ) ) ;
#247 = AXIS2_PLACEMENT_3D ( 'NONE', #167, #221, #273 ) ;
#248 = AXIS2_PLACEMENT_3D ( 'NONE', #267, #271, #33 ) ;
#249 = CARTESIAN_POINT ( 'NONE',  ( 1.745740669421566678E-14, 0.5149999999999992362, 5.000000000000000000 ) ) ;
#250 = ADVANCED_BREP_SHAPE_REPRESENTATION ( '967191', ( #16, #203, #138 ), #66 ) ;
#251 = VERTEX_POINT ( 'NONE', #39 ) ;
#252 = TOROIDAL_SURFACE ( 'NONE', #196, 2.464999999999999858, 2.000000000000000000 ) ;
#253 = EDGE_CURVE ( 'NONE', #88, #88, #132, .T. ) ;
#254 = COORDINATED_UNIVERSAL_TIME_OFFSET ( 1, 0, .AHEAD. ) ;
#255 = CALENDAR_DATE ( 2021, 1, 12 ) ;
#256 = EDGE_LOOP ( 'NONE', ( #105 ) ) ;
#257 = LOCAL_TIME ( 11, 40, 31.00000000000000000, #254 ) ;
#258 = ADVANCED_FACE ( 'NONE', ( #82 ), #151, .F. ) ;
#259 = DIRECTION ( 'NONE',  ( 0.0000000000000000000, 0.0000000000000000000, 1.000000000000000000 ) ) ;
#260 = ORIENTED_EDGE ( 'NONE', *, *, #253, .F. ) ;
#261 = APPROVAL_ROLE ( '' ) ;
#262 = EDGE_LOOP ( 'NONE', ( #206 ) ) ;
#263 = FACE_BOUND ( 'NONE', #234, .T. ) ;
#264 = PERSON_AND_ORGANIZATION_ROLE ( 'creator' ) ;
#265 = ADVANCED_FACE ( 'NONE', ( #129, #289 ), #78, .T. ) ;
#266 = CIRCLE ( 'NONE', #207, 0.5149999999999999023 ) ;
#267 = CARTESIAN_POINT ( 'NONE',  ( 1.775977784784342352E-14, -6.229291519609259858E-16, 5.086602540378446946 ) ) ;
#268 = CC_DESIGN_PERSON_AND_ORGANIZATION_ASSIGNMENT ( #46, #264, ( #238 ) ) ;
#269 = CYLINDRICAL_SURFACE ( 'NONE', #183, 0.5149999999999995692 ) ;
#270 = AXIS2_PLACEMENT_3D ( 'NONE', #134, #17, #112 ) ;
#271 = DIRECTION ( 'NONE',  ( -3.491481338843133355E-15, 1.224646799147353207E-16, -1.000000000000000000 ) ) ;
#272 = EDGE_LOOP ( 'NONE', ( #125 ) ) ;
#273 = DIRECTION ( 'NONE',  ( 0.0000000000000000000, 1.000000000000000000, 0.0000000000000000000 ) ) ;
#274 = FACE_OUTER_BOUND ( 'NONE', #302, .T. ) ;
#275 = CARTESIAN_POINT ( 'NONE',  ( 3.840629472727446691E-14, -1.301042606982605321E-15, 11.00000000000000000 ) ) ;
#276 = DIRECTION ( 'NONE',  ( -3.491481338843133355E-15, 1.224646799147353207E-16, -1.000000000000000000 ) ) ;
#277 = CC_DESIGN_PERSON_AND_ORGANIZATION_ASSIGNMENT ( #92, #191, ( #44 ) ) ;
#278 = AXIS2_PLACEMENT_3D ( 'NONE', #225, #5, #101 ) ;
#279 = CIRCLE ( 'NONE', #20, 0.5149999999999992362 ) ;
#280 = CALENDAR_DATE ( 2021, 1, 12 ) ;
#281 = EDGE_LOOP ( 'NONE', ( #100 ) ) ;
#282 = APPROVAL_DATE_TIME ( #117, #169 ) ;
#283 = ORIENTED_EDGE ( 'NONE', *, *, #153, .T. ) ;
#284 = APPROVAL ( #208, 'UNSPECIFIED' ) ;
#285 = APPLICATION_PROTOCOL_DEFINITION ( 'international standard', 'config_control_design', 1994, #244 ) ;
#286 = FACE_OUTER_BOUND ( 'NONE', #287, .T. ) ;
#287 = EDGE_LOOP ( 'NONE', ( #71 ) ) ;
#288 = PLANE ( 'NONE',  #148 ) ;
#289 = FACE_OUTER_BOUND ( 'NONE', #272, .T. ) ;
#290 = LOCAL_TIME ( 11, 40, 31.00000000000000000, #139 ) ;
#291 = DIRECTION ( 'NONE',  ( 0.0000000000000000000, -1.000000000000000000, 0.0000000000000000000 ) ) ;
#292 = DIRECTION ( 'NONE',  ( -3.491481338843133355E-15, 1.224646799147353207E-16, -1.000000000000000000 ) ) ;
#293 = EDGE_LOOP ( 'NONE', ( #160 ) ) ;
#294 = ADVANCED_FACE ( 'NONE', ( #108, #274 ), #192, .T. ) ;
#295 = CARTESIAN_POINT ( 'NONE',  ( 1.745740669421566678E-14, -6.123233995736766282E-16, 5.000000000000000000 ) ) ;
#296 = DIRECTION ( 'NONE',  ( 4.275831445896958607E-31, 1.000000000000000000, 1.224646799147352961E-16 ) ) ;
#297 = CC_DESIGN_SECURITY_CLASSIFICATION ( #44, ( #238 ) ) ;
#298 = VERTEX_POINT ( 'NONE', #41 ) ;
#299 = CARTESIAN_POINT ( 'NONE',  ( 1.316288464743861212E-13, 1.499999999999998668, 37.69999999999999574 ) ) ;
#300 = EDGE_LOOP ( 'NONE', ( #197 ) ) ;
#301 = DIRECTION ( 'NONE',  ( 1.000000000000000000, 0.0000000000000000000, 0.0000000000000000000 ) ) ;
#302 = EDGE_LOOP ( 'NONE', ( #283 ) ) ;
#303 = PERSON_AND_ORGANIZATION ( #85, #215 ) ;
ENDSEC;
END-ISO-10303-21;
