ISO-10303-21;
HEADER;
FILE_DESCRIPTION (( 'STEP AP203' ),
    '1' );
FILE_NAME ('967147.step',
    '2021-11-29T14:49:38',
    ( '' ),
    ( '' ),
    'SwSTEP 2.0',
    'SolidWorks 2019',
    '' );
FILE_SCHEMA (( 'CONFIG_CONTROL_DESIGN' ));
ENDSEC;

DATA;
#1 = ORIENTED_EDGE ( 'NONE', *, *, #81, .T. ) ;
#2 = CONICAL_SURFACE ( 'NONE', #167, 1.200000000000003286, 0.7853981633974453924 ) ;
#3 = FACE_BOUND ( 'NONE', #251, .T. ) ;
#4 = FACE_OUTER_BOUND ( 'NONE', #194, .T. ) ;
#5 = CLOSED_SHELL ( 'NONE', ( #223, #36, #226, #169 ) ) ;
#6 = VERTEX_POINT ( 'NONE', #225 ) ;
#7 = ORIENTED_EDGE ( 'NONE', *, *, #109, .F. ) ;
#8 = FACE_OUTER_BOUND ( 'NONE', #171, .T. ) ;
#9 = AXIS2_PLACEMENT_3D ( 'NONE', #192, #65, #19 ) ;
#10 = ORIENTED_EDGE ( 'NONE', *, *, #72, .F. ) ;
#11 = CARTESIAN_POINT ( 'NONE',  ( -1.892735826383161356E-31, 0.4391624327025949182, -5.421010862427522170E-17 ) ) ;
#12 = CARTESIAN_POINT ( 'NONE',  ( 4.311035480981396413E-14, -1.512107695968337463E-15, 12.34729635533384773 ) ) ;
#13 = APPROVAL ( #163, 'UNSPECIFIED' ) ;
#14 = DIRECTION ( 'NONE',  ( 3.491481338843133355E-15, -1.224646799147352961E-16, 1.000000000000000000 ) ) ;
#15 = CALENDAR_DATE ( 2021, 29, 11 ) ;
#16 = APPLICATION_PROTOCOL_DEFINITION ( 'international standard', 'config_control_design', 1994, #278 ) ;
#17 = PRODUCT_RELATED_PRODUCT_CATEGORY ( 'detail', '', ( #262 ) ) ;
#18 = APPLICATION_CONTEXT ( 'configuration controlled 3d designs of mechanical parts and assemblies' ) ;
#19 = DIRECTION ( 'NONE',  ( 4.275831445896957731E-31, 1.000000000000000000, 1.224646799147353207E-16 ) ) ;
#20 = CARTESIAN_POINT ( 'NONE',  ( 1.805307786686233955E-14, -6.332167317765576132E-16, 5.170607004545538565 ) ) ;
#21 = DIRECTION ( 'NONE',  ( 4.275831445896957731E-31, 1.000000000000000000, 1.224646799147352961E-16 ) ) ;
#22 = COORDINATED_UNIVERSAL_TIME_OFFSET ( 1, 0, .AHEAD. ) ;
#23 = AXIS2_PLACEMENT_3D ( 'NONE', #246, #157, #285 ) ;
#24 = EDGE_CURVE ( 'NONE', #6, #6, #46, .T. ) ;
#25 = EDGE_LOOP ( 'NONE', ( #93 ) ) ;
#26 = DATE_TIME_ROLE ( 'classification_date' ) ;
#27 = AXIS2_PLACEMENT_3D ( 'NONE', #266, #84, #178 ) ;
#28 = APPROVAL_PERSON_ORGANIZATION ( #193, #245, #71 ) ;
#29 = ORIENTED_EDGE ( 'NONE', *, *, #24, .F. ) ;
#30 = AXIS2_PLACEMENT_3D ( 'NONE', #38, #213, #41 ) ;
#31 = CARTESIAN_POINT ( 'NONE',  ( 8.728703347107833388E-16, 0.5834999999999993525, 0.2500000000000000000 ) ) ;
#32 = VERTEX_POINT ( 'NONE', #103 ) ;
#33 = ORIENTED_EDGE ( 'NONE', *, *, #109, .T. ) ;
#34 = VERTEX_POINT ( 'NONE', #147 ) ;
#35 = CARTESIAN_POINT ( 'NONE',  ( 4.189777606611760026E-14, -1.469576158976823750E-15, 12.00000000000000000 ) ) ;
#36 = ADVANCED_FACE ( 'NONE', ( #3, #224 ), #212, .T. ) ;
#37 = DATE_AND_TIME ( #233, #176 ) ;
#38 = CARTESIAN_POINT ( 'NONE',  ( 0.0000000000000000000, 0.0000000000000000000, 0.0000000000000000000 ) ) ;
#39 = CC_DESIGN_APPROVAL ( #91, ( #240 ) ) ;
#40 = PERSON_AND_ORGANIZATION_ROLE ( 'design_supplier' ) ;
#41 = DIRECTION ( 'NONE',  ( 4.275831445896958607E-31, 1.000000000000000000, 1.224646799147353207E-16 ) ) ;
#42 = DATE_AND_TIME ( #117, #116 ) ;
#43 = FACE_OUTER_BOUND ( 'NONE', #124, .T. ) ;
#44 = AXIS2_PLACEMENT_3D ( 'NONE', #12, #55, #60 ) ;
#45 = PRODUCT_DEFINITION_SHAPE ( 'NONE', 'NONE',  #235 ) ;
#46 = CIRCLE ( 'NONE', #242, 1.500000000000003331 ) ;
#47 = PERSON_AND_ORGANIZATION_ROLE ( 'design_owner' ) ;
#48 = EDGE_LOOP ( 'NONE', ( #299 ) ) ;
#49 = CC_DESIGN_DATE_AND_TIME_ASSIGNMENT ( #280, #26, ( #140 ) ) ;
#50 = CYLINDRICAL_SURFACE ( 'NONE', #261, 0.4849999999999995426 ) ;
#51 = AXIS2_PLACEMENT_3D ( 'NONE', #186, #292, #158 ) ;
#52 = ORIENTED_EDGE ( 'NONE', *, *, #24, .T. ) ;
#53 = MANIFOLD_SOLID_BREP ( 'Corps-Déplacer/Copier1[2]', #5 ) ;
#54 = DIRECTION ( 'NONE',  ( 0.0000000000000000000, 1.000000000000000000, 0.0000000000000000000 ) ) ;
#55 = DIRECTION ( 'NONE',  ( -3.491481338843133355E-15, 1.224646799147352961E-16, -1.000000000000000000 ) ) ;
#56 = VERTEX_POINT ( 'NONE', #105 ) ;
#57 = VERTEX_POINT ( 'NONE', #202 ) ;
#58 = ADVANCED_FACE ( 'NONE', ( #4, #183 ), #112, .T. ) ;
#59 = DIRECTION ( 'NONE',  ( -3.491481338843133355E-15, 1.224646799147352961E-16, -1.000000000000000000 ) ) ;
#60 = DIRECTION ( 'NONE',  ( 0.0000000000000000000, 1.000000000000000000, 0.0000000000000000000 ) ) ;
#61 = ORGANIZATION ( 'UNSPECIFIED', 'UNSPECIFIED', '' ) ;
#62 = COORDINATED_UNIVERSAL_TIME_OFFSET ( 1, 0, .AHEAD. ) ;
#63 = CARTESIAN_POINT ( 'NONE',  ( 0.0000000000000000000, 0.0000000000000000000, 0.0000000000000000000 ) ) ;
#64 = DIRECTION ( 'NONE',  ( -3.491481338843133355E-15, 1.224646799147352961E-16, -1.000000000000000000 ) ) ;
#65 = DIRECTION ( 'NONE',  ( -3.491481338843133355E-15, 1.224646799147352961E-16, -1.000000000000000000 ) ) ;
#66 = PLANE ( 'NONE',  #222 ) ;
#67 = CARTESIAN_POINT ( 'NONE',  ( -3.770520365989523450E-31, 1.322520514704785994E-32, -1.079919953757749930E-16 ) ) ;
#68 = PERSON_AND_ORGANIZATION ( #277, #61 ) ;
#69 = COORDINATED_UNIVERSAL_TIME_OFFSET ( 1, 0, .AHEAD. ) ;
#70 = AXIS2_PLACEMENT_3D ( 'NONE', #271, #149, #102 ) ;
#71 = APPROVAL_ROLE ( '' ) ;
#72 = EDGE_CURVE ( 'NONE', #32, #32, #78, .T. ) ;
#73 = FACE_OUTER_BOUND ( 'NONE', #265, .T. ) ;
#74 = AXIS2_PLACEMENT_3D ( 'NONE', #20, #142, #88 ) ;
#75 = LOCAL_TIME ( 15, 49, 38.00000000000000000, #69 ) ;
#76 = FACE_BOUND ( 'NONE', #148, .T. ) ;
#77 = ADVANCED_FACE ( 'NONE', ( #273, #228 ), #253, .T. ) ;
#78 = CIRCLE ( 'NONE', #83, 0.5835000000000000187 ) ;
#79 = SHAPE_DEFINITION_REPRESENTATION ( #45, #151 ) ;
#80 = ORIENTED_EDGE ( 'NONE', *, *, #201, .F. ) ;
#81 = EDGE_CURVE ( 'NONE', #56, #56, #204, .T. ) ;
#82 = DIRECTION ( 'NONE',  ( -3.491481338843133355E-15, 1.224646799147352961E-16, -1.000000000000000000 ) ) ;
#83 = AXIS2_PLACEMENT_3D ( 'NONE', #152, #82, #174 ) ;
#84 = DIRECTION ( 'NONE',  ( 3.491481338843133355E-15, -1.224646799147352961E-16, 1.000000000000000000 ) ) ;
#85 = VERTEX_POINT ( 'NONE', #179 ) ;
#86 = EDGE_LOOP ( 'NONE', ( #87 ) ) ;
#87 = ORIENTED_EDGE ( 'NONE', *, *, #201, .T. ) ;
#88 = DIRECTION ( 'NONE',  ( 0.0000000000000000000, 1.000000000000000000, 0.0000000000000000000 ) ) ;
#89 = PERSON_AND_ORGANIZATION_ROLE ( 'creator' ) ;
#90 = DIRECTION ( 'NONE',  ( -4.275831445896957731E-31, -1.000000000000000000, -1.224646799147352961E-16 ) ) ;
#91 = APPROVAL ( #181, 'UNSPECIFIED' ) ;
#92 = PERSON_AND_ORGANIZATION_ROLE ( 'creator' ) ;
#93 = ORIENTED_EDGE ( 'NONE', *, *, #81, .F. ) ;
#94 = DIRECTION ( 'NONE',  ( -3.491481338843133355E-15, 1.224646799147352961E-16, -1.000000000000000000 ) ) ;
#95 = CALENDAR_DATE ( 2021, 29, 11 ) ;
#96 = ORIENTED_EDGE ( 'NONE', *, *, #279, .F. ) ;
#97 = APPROVAL_STATUS ( 'not_yet_approved' ) ;
#98 = ORIENTED_EDGE ( 'NONE', *, *, #303, .F. ) ;
#99 = TOROIDAL_SURFACE ( 'NONE', #290, 2.484999999999999876, 2.000000000000000000 ) ;
#100 = EDGE_CURVE ( 'NONE', #153, #153, #144, .T. ) ;
#101 = LOCAL_TIME ( 15, 49, 38.00000000000000000, #272 ) ;
#102 = DIRECTION ( 'NONE',  ( -3.300651147193209708E-31, -1.000000000000000000, -9.290507047862087116E-17 ) ) ;
#103 = CARTESIAN_POINT ( 'NONE',  ( 1.745740669421566678E-14, 0.5834999999999993525, 5.000000000000000000 ) ) ;
#104 = DIRECTION ( 'NONE',  ( 0.0000000000000000000, 1.000000000000000000, 0.0000000000000000000 ) ) ;
#105 = CARTESIAN_POINT ( 'NONE',  ( 4.189777606611760026E-14, 0.4849999999999984324, 12.00000000000000000 ) ) ;
#106 =( GEOMETRIC_REPRESENTATION_CONTEXT ( 3 ) GLOBAL_UNCERTAINTY_ASSIGNED_CONTEXT ( ( #247 ) ) GLOBAL_UNIT_ASSIGNED_CONTEXT ( ( #120, #177, #126 ) ) REPRESENTATION_CONTEXT ( 'NONE', 'WORKASPACE' ) );
#107 = EDGE_LOOP ( 'NONE', ( #118 ) ) ;
#108 = APPROVAL_DATE_TIME ( #159, #91 ) ;
#109 = EDGE_CURVE ( 'NONE', #85, #85, #203, .T. ) ;
#110 = CYLINDRICAL_SURFACE ( 'NONE', #30, 0.5834999999999996856 ) ;
#111 = FACE_OUTER_BOUND ( 'NONE', #107, .T. ) ;
#112 = CONICAL_SURFACE ( 'NONE', #269, 0.4849999999999992095, 0.5235987755982930425 ) ;
#113 = DIRECTION ( 'NONE',  ( 3.300651147193209708E-31, 1.000000000000000000, 9.290507047862087116E-17 ) ) ;
#114 = ADVANCED_FACE ( 'NONE', ( #8 ), #173, .F. ) ;
#115 = AXIS2_PLACEMENT_3D ( 'NONE', #128, #184, #231 ) ;
#116 = LOCAL_TIME ( 15, 49, 38.00000000000000000, #170 ) ;
#117 = CALENDAR_DATE ( 2021, 29, 11 ) ;
#118 = ORIENTED_EDGE ( 'NONE', *, *, #100, .T. ) ;
#119 = CC_DESIGN_PERSON_AND_ORGANIZATION_ASSIGNMENT ( #243, #143, ( #140 ) ) ;
#120 =( LENGTH_UNIT ( ) NAMED_UNIT ( * ) SI_UNIT ( .MILLI., .METRE. ) );
#121 = EDGE_LOOP ( 'NONE', ( #238 ) ) ;
#122 = VERTEX_POINT ( 'NONE', #175 ) ;
#123 = CARTESIAN_POINT ( 'NONE',  ( 1.745740669421566678E-14, -6.123233995736765296E-16, 5.000000000000000000 ) ) ;
#124 = EDGE_LOOP ( 'NONE', ( #52 ) ) ;
#125 = AXIS2_PLACEMENT_3D ( 'NONE', #63, #129, #133 ) ;
#126 =( NAMED_UNIT ( * ) SI_UNIT ( $, .STERADIAN. ) SOLID_ANGLE_UNIT ( ) );
#127 = DIRECTION ( 'NONE',  ( -3.491481338843133355E-15, 1.224646799147352961E-16, -1.000000000000000000 ) ) ;
#128 = CARTESIAN_POINT ( 'NONE',  ( 1.326762908760390423E-13, 8.998558695971099120E-33, 38.00000000000000000 ) ) ;
#129 = DIRECTION ( 'NONE',  ( 0.0000000000000000000, 0.0000000000000000000, 1.000000000000000000 ) ) ;
#130 = CARTESIAN_POINT ( 'NONE',  ( 1.745740669421566678E-14, 4.375549165915958541E-33, 5.000000000000000000 ) ) ;
#131 = DIRECTION ( 'NONE',  ( -3.491481338843133355E-15, 1.224646799147352961E-16, -1.000000000000000000 ) ) ;
#132 = FACE_OUTER_BOUND ( 'NONE', #180, .T. ) ;
#133 = DIRECTION ( 'NONE',  ( 1.000000000000000000, 0.0000000000000000000, 0.0000000000000000000 ) ) ;
#134 = ADVANCED_FACE ( 'NONE', ( #132, #43 ), #211, .T. ) ;
#135 = FACE_OUTER_BOUND ( 'NONE', #86, .T. ) ;
#136 = DIRECTION ( 'NONE',  ( -3.491481338843133355E-15, 1.224646799147352961E-16, -1.000000000000000000 ) ) ;
#137 = PERSON_AND_ORGANIZATION ( #277, #61 ) ;
#138 = FACE_OUTER_BOUND ( 'NONE', #216, .T. ) ;
#139 = DIRECTION ( 'NONE',  ( 4.275831445896957731E-31, 1.000000000000000000, 1.224646799147352961E-16 ) ) ;
#140 = SECURITY_CLASSIFICATION ( '', '', #190 ) ;
#141 = CLOSED_SHELL ( 'NONE', ( #236, #58, #218, #160, #77, #134, #294, #114 ) ) ;
#142 = DIRECTION ( 'NONE',  ( -3.491481338843133355E-15, 1.224646799147352961E-16, -1.000000000000000000 ) ) ;
#143 = PERSON_AND_ORGANIZATION_ROLE ( 'classification_officer' ) ;
#144 = CIRCLE ( 'NONE', #44, 0.5153844939755811705 ) ;
#145 = AXIS2_PLACEMENT_3D ( 'NONE', #123, #150, #288 ) ;
#146 = CC_DESIGN_DATE_AND_TIME_ASSIGNMENT ( #37, #207, ( #235 ) ) ;
#147 = CARTESIAN_POINT ( 'NONE',  ( 1.745740669421566678E-14, 0.5834999999999993525, 5.000000000000000000 ) ) ;
#148 = EDGE_LOOP ( 'NONE', ( #33 ) ) ;
#149 = DIRECTION ( 'NONE',  ( 3.491481338843133355E-15, -1.224646799147352961E-16, 1.000000000000000000 ) ) ;
#150 = DIRECTION ( 'NONE',  ( -3.491481338843133355E-15, 1.224646799147352961E-16, -1.000000000000000000 ) ) ;
#151 = ADVANCED_BREP_SHAPE_REPRESENTATION ( '967147', ( #165, #53, #125 ), #106 ) ;
#152 = CARTESIAN_POINT ( 'NONE',  ( 1.745740669421566678E-14, -6.123233995736765296E-16, 5.000000000000000000 ) ) ;
#153 = VERTEX_POINT ( 'NONE', #268 ) ;
#154 = DIRECTION ( 'NONE',  ( 0.0000000000000000000, 1.000000000000000000, 0.0000000000000000000 ) ) ;
#155 = PERSON_AND_ORGANIZATION ( #277, #61 ) ;
#156 = CC_DESIGN_SECURITY_CLASSIFICATION ( #140, ( #240 ) ) ;
#157 = DIRECTION ( 'NONE',  ( -3.491481338843133355E-15, 1.224646799147352961E-16, -1.000000000000000000 ) ) ;
#158 = DIRECTION ( 'NONE',  ( -4.275831445896957731E-31, -1.000000000000000000, -1.224646799147352961E-16 ) ) ;
#159 = DATE_AND_TIME ( #15, #101 ) ;
#160 = ADVANCED_FACE ( 'NONE', ( #164, #111 ), #99, .F. ) ;
#161 = CARTESIAN_POINT ( 'NONE',  ( 8.728703347107831416E-16, -3.061616997868381785E-17, 0.2499999999999999445 ) ) ;
#162 = CIRCLE ( 'NONE', #145, 0.5835000000000000187 ) ;
#163 = APPROVAL_STATUS ( 'not_yet_approved' ) ;
#164 = FACE_OUTER_BOUND ( 'NONE', #25, .T. ) ;
#165 = MANIFOLD_SOLID_BREP ( 'Corps-Déplacer/Copier1[1]', #141 ) ;
#166 = ORIENTED_EDGE ( 'NONE', *, *, #100, .F. ) ;
#167 = AXIS2_PLACEMENT_3D ( 'NONE', #168, #259, #237 ) ;
#168 = CARTESIAN_POINT ( 'NONE',  ( 1.326762908760390423E-13, -4.653657836759941152E-15, 38.00000000000000000 ) ) ;
#169 = ADVANCED_FACE ( 'NONE', ( #138 ), #293, .T. ) ;
#170 = COORDINATED_UNIVERSAL_TIME_OFFSET ( 1, 0, .AHEAD. ) ;
#171 = EDGE_LOOP ( 'NONE', ( #7 ) ) ;
#172 = EDGE_LOOP ( 'NONE', ( #283 ) ) ;
#173 = PLANE ( 'NONE',  #115 ) ;
#174 = DIRECTION ( 'NONE',  ( 0.0000000000000000000, 1.000000000000000000, 0.0000000000000000000 ) ) ;
#175 = CARTESIAN_POINT ( 'NONE',  ( 6.260689839836381496E-14, 1.499999999999995559, 17.93132837396403545 ) ) ;
#176 = LOCAL_TIME ( 15, 49, 38.00000000000000000, #62 ) ;
#177 =( NAMED_UNIT ( * ) PLANE_ANGLE_UNIT ( ) SI_UNIT ( $, .RADIAN. ) );
#178 = DIRECTION ( 'NONE',  ( 0.0000000000000000000, -1.000000000000000000, 0.0000000000000000000 ) ) ;
#179 = CARTESIAN_POINT ( 'NONE',  ( 1.326762908760390423E-13, 1.199999999999998845, 38.00000000000000000 ) ) ;
#180 = EDGE_LOOP ( 'NONE', ( #96 ) ) ;
#181 = APPROVAL_STATUS ( 'not_yet_approved' ) ;
#182 = CC_DESIGN_PERSON_AND_ORGANIZATION_ASSIGNMENT ( #295, #89, ( #240 ) ) ;
#183 = FACE_BOUND ( 'NONE', #289, .T. ) ;
#184 = DIRECTION ( 'NONE',  ( -3.491481338843133355E-15, 1.224646799147352961E-16, -1.000000000000000000 ) ) ;
#185 = CIRCLE ( 'NONE', #191, 0.4391624327025949182 ) ;
#186 = CARTESIAN_POINT ( 'NONE',  ( -1.885260182994761725E-31, 6.612602573523929971E-33, -5.399599768788749648E-17 ) ) ;
#187 = FACE_OUTER_BOUND ( 'NONE', #220, .T. ) ;
#188 = FACE_OUTER_BOUND ( 'NONE', #196, .T. ) ;
#189 = DIRECTION ( 'NONE',  ( 3.491481338843133355E-15, -1.224646799147352961E-16, 1.000000000000000000 ) ) ;
#190 = SECURITY_CLASSIFICATION_LEVEL ( 'unclassified' ) ;
#191 = AXIS2_PLACEMENT_3D ( 'NONE', #67, #136, #21 ) ;
#192 = CARTESIAN_POINT ( 'NONE',  ( 0.0000000000000000000, 0.0000000000000000000, 0.0000000000000000000 ) ) ;
#193 = PERSON_AND_ORGANIZATION ( #277, #61 ) ;
#194 = EDGE_LOOP ( 'NONE', ( #10 ) ) ;
#195 = DIRECTION ( 'NONE',  ( 0.0000000000000000000, 1.000000000000000000, 0.0000000000000000000 ) ) ;
#196 = EDGE_LOOP ( 'NONE', ( #258 ) ) ;
#197 = ORIENTED_EDGE ( 'NONE', *, *, #276, .F. ) ;
#198 = ORIENTED_EDGE ( 'NONE', *, *, #263, .T. ) ;
#199 = DESIGN_CONTEXT ( 'detailed design', #18, 'design' ) ;
#200 = CARTESIAN_POINT ( 'NONE',  ( 1.805307786686233955E-14, -6.332167317765576132E-16, 5.170607004545538565 ) ) ;
#201 = EDGE_CURVE ( 'NONE', #270, #270, #185, .T. ) ;
#202 = CARTESIAN_POINT ( 'NONE',  ( 1.805307786686233955E-14, 0.4849999999999985434, 5.170607004545538565 ) ) ;
#203 = CIRCLE ( 'NONE', #23, 1.200000000000003286 ) ;
#204 = CIRCLE ( 'NONE', #274, 0.4849999999999999312 ) ;
#205 = CC_DESIGN_PERSON_AND_ORGANIZATION_ASSIGNMENT ( #298, #92, ( #235 ) ) ;
#206 = CARTESIAN_POINT ( 'NONE',  ( 4.189777606611760026E-14, -1.301042606982605321E-15, 12.00000000000000000 ) ) ;
#207 = DATE_TIME_ROLE ( 'creation_date' ) ;
#208 = CIRCLE ( 'NONE', #74, 0.4849999999999992095 ) ;
#209 = AXIS2_PLACEMENT_3D ( 'NONE', #161, #64, #113 ) ;
#210 = PLANE ( 'NONE',  #51 ) ;
#211 = CYLINDRICAL_SURFACE ( 'NONE', #9, 1.500000000000000444 ) ;
#212 = CONICAL_SURFACE ( 'NONE', #70, 0.5834999999999993525, 0.5235987755982928205 ) ;
#213 = DIRECTION ( 'NONE',  ( -3.491481338843133355E-15, 1.224646799147352961E-16, -1.000000000000000000 ) ) ;
#214 = CC_DESIGN_APPROVAL ( #245, ( #235 ) ) ;
#215 = APPROVAL_DATE_TIME ( #42, #245 ) ;
#216 = EDGE_LOOP ( 'NONE', ( #98 ) ) ;
#217 = CARTESIAN_POINT ( 'NONE',  ( 6.260689839836381496E-14, -2.195954389763516575E-15, 17.93132837396403545 ) ) ;
#218 = ADVANCED_FACE ( 'NONE', ( #297, #73 ), #50, .T. ) ;
#219 = APPROVAL_PERSON_ORGANIZATION ( #68, #13, #244 ) ;
#220 = EDGE_LOOP ( 'NONE', ( #264 ) ) ;
#221 = EDGE_LOOP ( 'NONE', ( #166 ) ) ;
#222 = AXIS2_PLACEMENT_3D ( 'NONE', #130, #14, #232 ) ;
#223 = ADVANCED_FACE ( 'NONE', ( #135 ), #210, .F. ) ;
#224 = FACE_OUTER_BOUND ( 'NONE', #48, .T. ) ;
#225 = CARTESIAN_POINT ( 'NONE',  ( 1.316288464743861212E-13, 1.499999999999998668, 37.69999999999999574 ) ) ;
#226 = ADVANCED_FACE ( 'NONE', ( #252, #187 ), #110, .T. ) ;
#227 = MECHANICAL_CONTEXT ( 'NONE', #278, 'mechanical' ) ;
#228 = FACE_OUTER_BOUND ( 'NONE', #121, .T. ) ;
#229 = CARTESIAN_POINT ( 'NONE',  ( 0.0000000000000000000, 0.0000000000000000000, 0.0000000000000000000 ) ) ;
#230 = DIRECTION ( 'NONE',  ( 4.275831445896957731E-31, 1.000000000000000000, 1.224646799147352961E-16 ) ) ;
#231 = DIRECTION ( 'NONE',  ( 4.275831445896957731E-31, 1.000000000000000000, 1.224646799147352961E-16 ) ) ;
#232 = DIRECTION ( 'NONE',  ( -4.275831445896957731E-31, -1.000000000000000000, -1.224646799147352961E-16 ) ) ;
#233 = CALENDAR_DATE ( 2021, 29, 11 ) ;
#234 = CARTESIAN_POINT ( 'NONE',  ( 1.745740669421566678E-14, 4.375549165915958541E-33, 5.000000000000000000 ) ) ;
#235 = PRODUCT_DEFINITION ( 'UNKNOWN', '', #240, #199 ) ;
#236 = ADVANCED_FACE ( 'NONE', ( #188 ), #66, .F. ) ;
#237 = DIRECTION ( 'NONE',  ( 0.0000000000000000000, 1.000000000000000000, 0.0000000000000000000 ) ) ;
#238 = ORIENTED_EDGE ( 'NONE', *, *, #279, .T. ) ;
#239 = AXIS2_PLACEMENT_3D ( 'NONE', #234, #189, #90 ) ;
#240 = PRODUCT_DEFINITION_FORMATION_WITH_SPECIFIED_SOURCE ( 'ANY', '', #262, .NOT_KNOWN. ) ;
#241 = CIRCLE ( 'NONE', #301, 1.499999999999997558 ) ;
#242 = AXIS2_PLACEMENT_3D ( 'NONE', #286, #248, #54 ) ;
#243 = PERSON_AND_ORGANIZATION ( #277, #61 ) ;
#244 = APPROVAL_ROLE ( '' ) ;
#245 = APPROVAL ( #97, 'UNSPECIFIED' ) ;
#246 = CARTESIAN_POINT ( 'NONE',  ( 1.326762908760390423E-13, -4.653657836759941152E-15, 38.00000000000000000 ) ) ;
#247 = UNCERTAINTY_MEASURE_WITH_UNIT (LENGTH_MEASURE( 1.000000000000000082E-05 ), #120, 'distance_accuracy_value', 'NONE');
#248 = DIRECTION ( 'NONE',  ( -3.491481338843133355E-15, 1.224646799147352961E-16, -1.000000000000000000 ) ) ;
#249 = EDGE_LOOP ( 'NONE', ( #197 ) ) ;
#250 = VERTEX_POINT ( 'NONE', #31 ) ;
#251 = EDGE_LOOP ( 'NONE', ( #80 ) ) ;
#252 = FACE_OUTER_BOUND ( 'NONE', #249, .T. ) ;
#253 = CONICAL_SURFACE ( 'NONE', #27, 1.499999999999997558, 0.1745329251994260922 ) ;
#254 = CC_DESIGN_PERSON_AND_ORGANIZATION_ASSIGNMENT ( #275, #47, ( #262 ) ) ;
#255 = DATE_AND_TIME ( #257, #75 ) ;
#256 = CC_DESIGN_APPROVAL ( #13, ( #140 ) ) ;
#257 = CALENDAR_DATE ( 2021, 29, 11 ) ;
#258 = ORIENTED_EDGE ( 'NONE', *, *, #72, .T. ) ;
#259 = DIRECTION ( 'NONE',  ( -3.491481338843133355E-15, 1.224646799147352961E-16, -1.000000000000000000 ) ) ;
#260 = EDGE_LOOP ( 'NONE', ( #29 ) ) ;
#261 = AXIS2_PLACEMENT_3D ( 'NONE', #229, #131, #230 ) ;
#262 = PRODUCT ( '967147', '967147', '', ( #227 ) ) ;
#263 = EDGE_CURVE ( 'NONE', #57, #57, #208, .T. ) ;
#264 = ORIENTED_EDGE ( 'NONE', *, *, #303, .T. ) ;
#265 = EDGE_LOOP ( 'NONE', ( #1 ) ) ;
#266 = CARTESIAN_POINT ( 'NONE',  ( 6.260689839836381496E-14, -2.195954389763516575E-15, 17.93132837396403545 ) ) ;
#267 = CIRCLE ( 'NONE', #209, 0.5834999999999993525 ) ;
#268 = CARTESIAN_POINT ( 'NONE',  ( 4.311035480981396413E-14, 0.5153844939755796162, 12.34729635533384773 ) ) ;
#269 = AXIS2_PLACEMENT_3D ( 'NONE', #200, #59, #154 ) ;
#270 = VERTEX_POINT ( 'NONE', #11 ) ;
#271 = CARTESIAN_POINT ( 'NONE',  ( 8.728703347107831416E-16, -3.061616997868381785E-17, 0.2499999999999999445 ) ) ;
#272 = COORDINATED_UNIVERSAL_TIME_OFFSET ( 1, 0, .AHEAD. ) ;
#273 = FACE_BOUND ( 'NONE', #221, .T. ) ;
#274 = AXIS2_PLACEMENT_3D ( 'NONE', #35, #127, #104 ) ;
#275 = PERSON_AND_ORGANIZATION ( #277, #61 ) ;
#276 = EDGE_CURVE ( 'NONE', #250, #250, #267, .T. ) ;
#277 = PERSON ( 'UNSPECIFIED', 'UNSPECIFIED', 'UNSPECIFIED', ('UNSPECIFIED'), ('UNSPECIFIED'), ('UNSPECIFIED') ) ;
#278 = APPLICATION_CONTEXT ( 'configuration controlled 3d designs of mechanical parts and assemblies' ) ;
#279 = EDGE_CURVE ( 'NONE', #122, #122, #241, .T. ) ;
#280 = DATE_AND_TIME ( #95, #282 ) ;
#281 = FACE_OUTER_BOUND ( 'NONE', #260, .T. ) ;
#282 = LOCAL_TIME ( 15, 49, 38.00000000000000000, #22 ) ;
#283 = ORIENTED_EDGE ( 'NONE', *, *, #263, .F. ) ;
#284 = APPLICATION_PROTOCOL_DEFINITION ( 'international standard', 'config_control_design', 1994, #18 ) ;
#285 = DIRECTION ( 'NONE',  ( 0.0000000000000000000, 1.000000000000000000, 0.0000000000000000000 ) ) ;
#286 = CARTESIAN_POINT ( 'NONE',  ( 1.316288464743861212E-13, -4.616918432785520292E-15, 37.69999999999999574 ) ) ;
#287 = APPROVAL_PERSON_ORGANIZATION ( #137, #91, #291 ) ;
#288 = DIRECTION ( 'NONE',  ( 0.0000000000000000000, 1.000000000000000000, 0.0000000000000000000 ) ) ;
#289 = EDGE_LOOP ( 'NONE', ( #198 ) ) ;
#290 = AXIS2_PLACEMENT_3D ( 'NONE', #206, #296, #139 ) ;
#291 = APPROVAL_ROLE ( '' ) ;
#292 = DIRECTION ( 'NONE',  ( 3.491481338843133355E-15, -1.224646799147352961E-16, 1.000000000000000000 ) ) ;
#293 = PLANE ( 'NONE',  #239 ) ;
#294 = ADVANCED_FACE ( 'NONE', ( #281, #76 ), #2, .T. ) ;
#295 = PERSON_AND_ORGANIZATION ( #277, #61 ) ;
#296 = DIRECTION ( 'NONE',  ( -3.491481338843133355E-15, 1.224646799147352961E-16, -1.000000000000000000 ) ) ;
#297 = FACE_OUTER_BOUND ( 'NONE', #172, .T. ) ;
#298 = PERSON_AND_ORGANIZATION ( #277, #61 ) ;
#299 = ORIENTED_EDGE ( 'NONE', *, *, #276, .T. ) ;
#300 = CC_DESIGN_PERSON_AND_ORGANIZATION_ASSIGNMENT ( #155, #40, ( #240 ) ) ;
#301 = AXIS2_PLACEMENT_3D ( 'NONE', #217, #94, #195 ) ;
#302 = APPROVAL_DATE_TIME ( #255, #13 ) ;
#303 = EDGE_CURVE ( 'NONE', #34, #34, #162, .T. ) ;
ENDSEC;
END-ISO-10303-21;
