ISO-10303-21;
HEADER;
FILE_DESCRIPTION (( 'STEP AP203' ),
    '1' );
FILE_NAME ('967119.step',
    '2021-12-01T14:04:25',
    ( '' ),
    ( '' ),
    'SwSTEP 2.0',
    'SolidWorks 2019',
    '' );
FILE_SCHEMA (( 'CONFIG_CONTROL_DESIGN' ));
ENDSEC;

DATA;
#1 = CC_DESIGN_PERSON_AND_ORGANIZATION_ASSIGNMENT ( #225, #235, ( #197 ) ) ;
#2 = CIRCLE ( 'NONE', #32, 1.095000000000000195 ) ;
#3 = PRODUCT_DEFINITION_SHAPE ( 'NONE', 'NONE',  #160 ) ;
#4 = FACE_OUTER_BOUND ( 'NONE', #167, .T. ) ;
#5 = ORIENTED_EDGE ( 'NONE', *, *, #231, .F. ) ;
#6 = APPLICATION_CONTEXT ( 'configuration controlled 3d designs of mechanical parts and assemblies' ) ;
#7 = CALENDAR_DATE ( 2021, 1, 12 ) ;
#8 = DIRECTION ( 'NONE',  ( 0.0000000000000000000, 1.000000000000000000, 0.0000000000000000000 ) ) ;
#9 = EDGE_LOOP ( 'NONE', ( #259 ) ) ;
#10 = APPROVAL_PERSON_ORGANIZATION ( #42, #77, #65 ) ;
#11 = PLANE ( 'NONE',  #138 ) ;
#12 = ADVANCED_FACE ( 'NONE', ( #75, #34 ), #256, .F. ) ;
#13 = PERSON_AND_ORGANIZATION ( #17, #282 ) ;
#14 = CARTESIAN_POINT ( 'NONE',  ( 1.892735826383161356E-31, 0.9506624327025946508, 5.421010862427522170E-17 ) ) ;
#15 = DIRECTION ( 'NONE',  ( 4.275831445896958607E-31, 1.000000000000000000, 1.224646799147353454E-16 ) ) ;
#16 = MECHANICAL_CONTEXT ( 'NONE', #20, 'mechanical' ) ;
#17 = PERSON ( 'UNSPECIFIED', 'UNSPECIFIED', 'UNSPECIFIED', ('UNSPECIFIED'), ('UNSPECIFIED'), ('UNSPECIFIED') ) ;
#18 = CARTESIAN_POINT ( 'NONE',  ( 1.745740669421566678E-13, 1.199999999999995515, 50.00000000000000000 ) ) ;
#19 = CARTESIAN_POINT ( 'NONE',  ( 2.793185071074506684E-14, 8.211184810073657813E-33, 8.000000000000000000 ) ) ;
#20 = APPLICATION_CONTEXT ( 'configuration controlled 3d designs of mechanical parts and assemblies' ) ;
#21 = VERTEX_POINT ( 'NONE', #156 ) ;
#22 = DIRECTION ( 'NONE',  ( 0.0000000000000000000, 1.000000000000000000, 0.0000000000000000000 ) ) ;
#23 = ADVANCED_FACE ( 'NONE', ( #102, #36 ), #208, .T. ) ;
#24 = AXIS2_PLACEMENT_3D ( 'NONE', #253, #96, #144 ) ;
#25 = CARTESIAN_POINT ( 'NONE',  ( 1.745740669421566678E-13, 8.998558695971067645E-33, 50.00000000000000000 ) ) ;
#26 = VERTEX_POINT ( 'NONE', #118 ) ;
#27 = LOCAL_TIME ( 15, 4, 25.00000000000000000, #198 ) ;
#28 = CARTESIAN_POINT ( 'NONE',  ( 6.284666409917638777E-14, -2.204364238465235033E-15, 17.99999999999999645 ) ) ;
#29 = DIRECTION ( 'NONE',  ( 4.275831445896958607E-31, 1.000000000000000000, 1.224646799147353207E-16 ) ) ;
#30 = LOCAL_TIME ( 15, 4, 25.00000000000000000, #73 ) ;
#31 = EDGE_CURVE ( 'NONE', #82, #82, #2, .T. ) ;
#32 = AXIS2_PLACEMENT_3D ( 'NONE', #289, #48, #180 ) ;
#33 = AXIS2_PLACEMENT_3D ( 'NONE', #25, #47, #29 ) ;
#34 = FACE_OUTER_BOUND ( 'NONE', #146, .T. ) ;
#35 = EDGE_LOOP ( 'NONE', ( #237 ) ) ;
#36 = FACE_BOUND ( 'NONE', #224, .T. ) ;
#37 = AXIS2_PLACEMENT_3D ( 'NONE', #19, #115, #295 ) ;
#38 = CARTESIAN_POINT ( 'NONE',  ( 1.735266225405037467E-13, -6.086494591762345225E-15, 49.70000000000000284 ) ) ;
#39 =( NAMED_UNIT ( * ) SI_UNIT ( $, .STERADIAN. ) SOLID_ANGLE_UNIT ( ) );
#40 = DIRECTION ( 'NONE',  ( -3.491481338843133355E-15, 1.224646799147353207E-16, -1.000000000000000000 ) ) ;
#41 = AXIS2_PLACEMENT_3D ( 'NONE', #217, #172, #108 ) ;
#42 = PERSON_AND_ORGANIZATION ( #17, #282 ) ;
#43 = CIRCLE ( 'NONE', #194, 1.499999999999996669 ) ;
#44 = DIRECTION ( 'NONE',  ( 3.491481338843133355E-15, -1.224646799147353207E-16, 1.000000000000000000 ) ) ;
#45 = VERTEX_POINT ( 'NONE', #275 ) ;
#46 = CARTESIAN_POINT ( 'NONE',  ( 0.0000000000000000000, 0.0000000000000000000, 0.0000000000000000000 ) ) ;
#47 = DIRECTION ( 'NONE',  ( -3.491481338843133355E-15, 1.224646799147353207E-16, -1.000000000000000000 ) ) ;
#48 = DIRECTION ( 'NONE',  ( -3.491481338843133355E-15, 1.224646799147353207E-16, -1.000000000000000000 ) ) ;
#49 = DATE_AND_TIME ( #7, #89 ) ;
#50 = EDGE_CURVE ( 'NONE', #186, #186, #163, .T. ) ;
#51 = APPROVAL_DATE_TIME ( #141, #155 ) ;
#52 =( GEOMETRIC_REPRESENTATION_CONTEXT ( 3 ) GLOBAL_UNCERTAINTY_ASSIGNED_CONTEXT ( ( #164 ) ) GLOBAL_UNIT_ASSIGNED_CONTEXT ( ( #301, #269, #39 ) ) REPRESENTATION_CONTEXT ( 'NONE', 'WORKASPACE' ) );
#53 = PRODUCT_RELATED_PRODUCT_CATEGORY ( 'detail', '', ( #140 ) ) ;
#54 = CC_DESIGN_PERSON_AND_ORGANIZATION_ASSIGNMENT ( #299, #199, ( #140 ) ) ;
#55 = APPROVAL_PERSON_ORGANIZATION ( #56, #155, #189 ) ;
#56 = PERSON_AND_ORGANIZATION ( #17, #282 ) ;
#57 = EDGE_LOOP ( 'NONE', ( #83 ) ) ;
#58 = CC_DESIGN_APPROVAL ( #155, ( #197 ) ) ;
#59 = EDGE_LOOP ( 'NONE', ( #152 ) ) ;
#60 = VERTEX_POINT ( 'NONE', #93 ) ;
#61 = EDGE_LOOP ( 'NONE', ( #262 ) ) ;
#62 = PERSON_AND_ORGANIZATION ( #17, #282 ) ;
#63 = AXIS2_PLACEMENT_3D ( 'NONE', #292, #159, #88 ) ;
#64 = ORIENTED_EDGE ( 'NONE', *, *, #149, .F. ) ;
#65 = APPROVAL_ROLE ( '' ) ;
#66 = EDGE_LOOP ( 'NONE', ( #123 ) ) ;
#67 = PLANE ( 'NONE',  #74 ) ;
#68 = CIRCLE ( 'NONE', #203, 0.9450000000000000622 ) ;
#69 = FACE_OUTER_BOUND ( 'NONE', #196, .T. ) ;
#70 = FACE_OUTER_BOUND ( 'NONE', #66, .T. ) ;
#71 = EDGE_CURVE ( 'NONE', #21, #21, #201, .T. ) ;
#72 = COORDINATED_UNIVERSAL_TIME_OFFSET ( 1, 0, .AHEAD. ) ;
#73 = COORDINATED_UNIVERSAL_TIME_OFFSET ( 1, 0, .AHEAD. ) ;
#74 = AXIS2_PLACEMENT_3D ( 'NONE', #133, #44, #91 ) ;
#75 = FACE_OUTER_BOUND ( 'NONE', #110, .T. ) ;
#76 = ORIENTED_EDGE ( 'NONE', *, *, #31, .T. ) ;
#77 = APPROVAL ( #137, 'UNSPECIFIED' ) ;
#78 = LOCAL_TIME ( 15, 4, 25.00000000000000000, #143 ) ;
#79 = ORIENTED_EDGE ( 'NONE', *, *, #213, .F. ) ;
#80 = VERTEX_POINT ( 'NONE', #14 ) ;
#81 = ADVANCED_FACE ( 'NONE', ( #205 ), #250, .F. ) ;
#82 = VERTEX_POINT ( 'NONE', #277 ) ;
#83 = ORIENTED_EDGE ( 'NONE', *, *, #210, .T. ) ;
#84 = ADVANCED_FACE ( 'NONE', ( #266 ), #67, .T. ) ;
#85 = PERSON_AND_ORGANIZATION ( #17, #282 ) ;
#86 = AXIS2_PLACEMENT_3D ( 'NONE', #158, #248, #113 ) ;
#87 = DIRECTION ( 'NONE',  ( 0.0000000000000000000, 1.000000000000000000, 0.0000000000000000000 ) ) ;
#88 = DIRECTION ( 'NONE',  ( 4.275831445896958607E-31, 1.000000000000000000, 1.224646799147353207E-16 ) ) ;
#89 = LOCAL_TIME ( 15, 4, 25.00000000000000000, #72 ) ;
#90 = PLANE ( 'NONE',  #33 ) ;
#91 = DIRECTION ( 'NONE',  ( -4.275831445896958607E-31, -1.000000000000000000, -1.224646799147353207E-16 ) ) ;
#92 = CALENDAR_DATE ( 2021, 1, 12 ) ;
#93 = CARTESIAN_POINT ( 'NONE',  ( 7.444724609678507120E-14, 1.499999999999994005, 21.32253873693977653 ) ) ;
#94 = MANIFOLD_SOLID_BREP ( 'Corps-Déplacer/Copier1[1]', #240 ) ;
#95 = DATE_TIME_ROLE ( 'classification_date' ) ;
#96 = DIRECTION ( 'NONE',  ( -3.491481338843133355E-15, 1.224646799147353207E-16, -1.000000000000000000 ) ) ;
#97 = CONICAL_SURFACE ( 'NONE', #263, 1.499999999999996669, 0.1745329251994264252 ) ;
#98 = ADVANCED_FACE ( 'NONE', ( #182, #270 ), #202, .T. ) ;
#99 = DIRECTION ( 'NONE',  ( 0.0000000000000000000, -1.000000000000000000, 0.0000000000000000000 ) ) ;
#100 = DESIGN_CONTEXT ( 'detailed design', #6, 'design' ) ;
#101 = CIRCLE ( 'NONE', #252, 1.095000000000000195 ) ;
#102 = FACE_OUTER_BOUND ( 'NONE', #222, .T. ) ;
#103 = DIRECTION ( 'NONE',  ( -3.491481338843133355E-15, 1.224646799147353207E-16, -1.000000000000000000 ) ) ;
#104 = ORIENTED_EDGE ( 'NONE', *, *, #50, .F. ) ;
#105 = ADVANCED_FACE ( 'NONE', ( #272, #70 ), #227, .T. ) ;
#106 = PERSON_AND_ORGANIZATION_ROLE ( 'creator' ) ;
#107 = EDGE_LOOP ( 'NONE', ( #76 ) ) ;
#108 = DIRECTION ( 'NONE',  ( 4.275831445896959482E-31, 1.000000000000000000, 1.224646799147353454E-16 ) ) ;
#109 = PERSON_AND_ORGANIZATION ( #17, #282 ) ;
#110 = EDGE_LOOP ( 'NONE', ( #79 ) ) ;
#111 = ORIENTED_EDGE ( 'NONE', *, *, #231, .T. ) ;
#112 = CARTESIAN_POINT ( 'NONE',  ( 6.405924284287275164E-14, 0.9753844939755780263, 18.34729635533384595 ) ) ;
#113 = DIRECTION ( 'NONE',  ( 0.0000000000000000000, 1.000000000000000000, 0.0000000000000000000 ) ) ;
#114 = DIRECTION ( 'NONE',  ( 3.491481338843133355E-15, -1.224646799147353207E-16, 1.000000000000000000 ) ) ;
#115 = DIRECTION ( 'NONE',  ( 3.491481338843133355E-15, -1.224646799147353207E-16, 1.000000000000000000 ) ) ;
#116 = CC_DESIGN_DATE_AND_TIME_ASSIGNMENT ( #279, #95, ( #197 ) ) ;
#117 = CONICAL_SURFACE ( 'NONE', #288, 0.9449999999999990630, 0.5235987755982911551 ) ;
#118 = CARTESIAN_POINT ( 'NONE',  ( 6.284666409917638777E-14, 0.9449999999999979527, 17.99999999999999645 ) ) ;
#119 = AXIS2_PLACEMENT_3D ( 'NONE', #127, #128, #154 ) ;
#120 = FACE_OUTER_BOUND ( 'NONE', #35, .T. ) ;
#121 = ADVANCED_FACE ( 'NONE', ( #69, #183 ), #117, .T. ) ;
#122 = CIRCLE ( 'NONE', #280, 1.094999999999999085 ) ;
#123 = ORIENTED_EDGE ( 'NONE', *, *, #213, .T. ) ;
#124 = APPROVAL_PERSON_ORGANIZATION ( #13, #271, #221 ) ;
#125 = EDGE_LOOP ( 'NONE', ( #171 ) ) ;
#126 = EDGE_LOOP ( 'NONE', ( #111 ) ) ;
#127 = CARTESIAN_POINT ( 'NONE',  ( 0.0000000000000000000, 0.0000000000000000000, 0.0000000000000000000 ) ) ;
#128 = DIRECTION ( 'NONE',  ( 0.0000000000000000000, 0.0000000000000000000, 1.000000000000000000 ) ) ;
#129 = ORIENTED_EDGE ( 'NONE', *, *, #210, .F. ) ;
#130 = DATE_AND_TIME ( #92, #27 ) ;
#131 = CARTESIAN_POINT ( 'NONE',  ( 2.883896417162833076E-14, -1.011534696479630540E-15, 8.259807621135339062 ) ) ;
#132 = CC_DESIGN_DATE_AND_TIME_ASSIGNMENT ( #130, #162, ( #160 ) ) ;
#133 = CARTESIAN_POINT ( 'NONE',  ( 2.793185071074506684E-14, 8.211184810073657813E-33, 8.000000000000000000 ) ) ;
#134 = CARTESIAN_POINT ( 'NONE',  ( 2.883896417162833076E-14, -1.011534696479630540E-15, 8.259807621135339062 ) ) ;
#135 = EDGE_CURVE ( 'NONE', #204, #204, #122, .T. ) ;
#136 = AXIS2_PLACEMENT_3D ( 'NONE', #212, #139, #234 ) ;
#137 = APPROVAL_STATUS ( 'not_yet_approved' ) ;
#138 = AXIS2_PLACEMENT_3D ( 'NONE', #206, #267, #296 ) ;
#139 = DIRECTION ( 'NONE',  ( -3.491481338843133355E-15, 1.224646799147353207E-16, -1.000000000000000000 ) ) ;
#140 = PRODUCT ( '967119', '967119', '', ( #16 ) ) ;
#141 = DATE_AND_TIME ( #278, #78 ) ;
#142 = CARTESIAN_POINT ( 'NONE',  ( 7.444724609678507120E-14, -2.611257881388874566E-15, 21.32253873693977653 ) ) ;
#143 = COORDINATED_UNIVERSAL_TIME_OFFSET ( 1, 0, .AHEAD. ) ;
#144 = DIRECTION ( 'NONE',  ( 4.275831445896958607E-31, 1.000000000000000000, 1.224646799147353207E-16 ) ) ;
#145 = EDGE_LOOP ( 'NONE', ( #238 ) ) ;
#146 = EDGE_LOOP ( 'NONE', ( #257 ) ) ;
#147 = DIRECTION ( 'NONE',  ( -3.491481338843133355E-15, 1.224646799147353207E-16, -1.000000000000000000 ) ) ;
#148 = CIRCLE ( 'NONE', #24, 0.9506624327025946508 ) ;
#149 = EDGE_CURVE ( 'NONE', #80, #80, #148, .T. ) ;
#150 = APPROVAL_DATE_TIME ( #49, #271 ) ;
#151 = CC_DESIGN_APPROVAL ( #271, ( #160 ) ) ;
#152 = ORIENTED_EDGE ( 'NONE', *, *, #135, .F. ) ;
#153 = DIRECTION ( 'NONE',  ( 0.0000000000000000000, 1.000000000000000000, 0.0000000000000000000 ) ) ;
#154 = DIRECTION ( 'NONE',  ( 1.000000000000000000, 0.0000000000000000000, 0.0000000000000000000 ) ) ;
#155 = APPROVAL ( #255, 'UNSPECIFIED' ) ;
#156 = CARTESIAN_POINT ( 'NONE',  ( 2.883896417162833076E-14, 0.9449999999999980638, 8.259807621135339062 ) ) ;
#157 = FACE_BOUND ( 'NONE', #168, .T. ) ;
#158 = CARTESIAN_POINT ( 'NONE',  ( 1.745740669421566678E-13, -6.123233995736766085E-15, 50.00000000000000000 ) ) ;
#159 = DIRECTION ( 'NONE',  ( -3.491481338843133355E-15, 1.224646799147353207E-16, -1.000000000000000000 ) ) ;
#160 = PRODUCT_DEFINITION ( 'UNKNOWN', '', #258, #100 ) ;
#161 = DIRECTION ( 'NONE',  ( 0.0000000000000000000, 1.000000000000000000, 0.0000000000000000000 ) ) ;
#162 = DATE_TIME_ROLE ( 'creation_date' ) ;
#163 = CIRCLE ( 'NONE', #86, 1.200000000000001732 ) ;
#164 = UNCERTAINTY_MEASURE_WITH_UNIT (LENGTH_MEASURE( 1.000000000000000082E-05 ), #301, 'distance_accuracy_value', 'NONE');
#165 = CC_DESIGN_PERSON_AND_ORGANIZATION_ASSIGNMENT ( #109, #106, ( #160 ) ) ;
#166 = CLOSED_SHELL ( 'NONE', ( #298, #274, #254, #84 ) ) ;
#167 = EDGE_LOOP ( 'NONE', ( #169 ) ) ;
#168 = EDGE_LOOP ( 'NONE', ( #64 ) ) ;
#169 = ORIENTED_EDGE ( 'NONE', *, *, #135, .T. ) ;
#170 = CC_DESIGN_SECURITY_CLASSIFICATION ( #197, ( #258 ) ) ;
#171 = ORIENTED_EDGE ( 'NONE', *, *, #31, .F. ) ;
#172 = DIRECTION ( 'NONE',  ( -3.491481338843133355E-15, 1.224646799147353207E-16, -1.000000000000000000 ) ) ;
#173 = DIRECTION ( 'NONE',  ( -3.491481338843133355E-15, 1.224646799147353207E-16, -1.000000000000000000 ) ) ;
#174 = CALENDAR_DATE ( 2021, 1, 12 ) ;
#175 = ADVANCED_FACE ( 'NONE', ( #283, #191 ), #97, .T. ) ;
#176 = CARTESIAN_POINT ( 'NONE',  ( 8.728703347107831416E-16, -3.061616997868382402E-17, 0.2499999999999999445 ) ) ;
#177 = AXIS2_PLACEMENT_3D ( 'NONE', #46, #185, #15 ) ;
#178 = PERSON_AND_ORGANIZATION_ROLE ( 'design_supplier' ) ;
#179 = CARTESIAN_POINT ( 'NONE',  ( 8.728703347107835360E-16, 1.094999999999999085, 0.2500000000000000555 ) ) ;
#180 = DIRECTION ( 'NONE',  ( 0.0000000000000000000, 1.000000000000000000, 0.0000000000000000000 ) ) ;
#181 = VERTEX_POINT ( 'NONE', #290 ) ;
#182 = FACE_OUTER_BOUND ( 'NONE', #284, .T. ) ;
#183 = FACE_BOUND ( 'NONE', #145, .T. ) ;
#184 = ADVANCED_BREP_SHAPE_REPRESENTATION ( '967119', ( #94, #294, #119 ), #52 ) ;
#185 = DIRECTION ( 'NONE',  ( -3.491481338843133355E-15, 1.224646799147353207E-16, -1.000000000000000000 ) ) ;
#186 = VERTEX_POINT ( 'NONE', #18 ) ;
#187 = LOCAL_TIME ( 15, 4, 25.00000000000000000, #285 ) ;
#188 = APPLICATION_PROTOCOL_DEFINITION ( 'international standard', 'config_control_design', 1994, #6 ) ;
#189 = APPROVAL_ROLE ( '' ) ;
#190 = CC_DESIGN_APPROVAL ( #77, ( #258 ) ) ;
#191 = FACE_OUTER_BOUND ( 'NONE', #57, .T. ) ;
#192 = EDGE_CURVE ( 'NONE', #241, #241, #232, .T. ) ;
#193 = CALENDAR_DATE ( 2021, 1, 12 ) ;
#194 = AXIS2_PLACEMENT_3D ( 'NONE', #303, #276, #161 ) ;
#195 = CARTESIAN_POINT ( 'NONE',  ( 2.793185071074506684E-14, -9.797174393178825657E-16, 8.000000000000000000 ) ) ;
#196 = EDGE_LOOP ( 'NONE', ( #247 ) ) ;
#197 = SECURITY_CLASSIFICATION ( '', '', #265 ) ;
#198 = COORDINATED_UNIVERSAL_TIME_OFFSET ( 1, 0, .AHEAD. ) ;
#199 = PERSON_AND_ORGANIZATION_ROLE ( 'design_owner' ) ;
#200 = DIRECTION ( 'NONE',  ( -3.491481338843133355E-15, 1.224646799147353207E-16, -1.000000000000000000 ) ) ;
#201 = CIRCLE ( 'NONE', #251, 0.9449999999999990630 ) ;
#202 = CYLINDRICAL_SURFACE ( 'NONE', #177, 1.499999999999999112 ) ;
#203 = AXIS2_PLACEMENT_3D ( 'NONE', #28, #103, #261 ) ;
#204 = VERTEX_POINT ( 'NONE', #179 ) ;
#205 = FACE_OUTER_BOUND ( 'NONE', #242, .T. ) ;
#206 = CARTESIAN_POINT ( 'NONE',  ( -1.086068248899746916E-31, 3.809414616866732655E-33, -3.110623095180582224E-17 ) ) ;
#207 = AXIS2_PLACEMENT_3D ( 'NONE', #220, #173, #87 ) ;
#208 = CONICAL_SURFACE ( 'NONE', #207, 1.200000000000001732, 0.7853981633974453924 ) ;
#209 = CARTESIAN_POINT ( 'NONE',  ( 8.728703347107831416E-16, -3.061616997868382402E-17, 0.2499999999999999445 ) ) ;
#210 = EDGE_CURVE ( 'NONE', #60, #60, #43, .T. ) ;
#211 = AXIS2_PLACEMENT_3D ( 'NONE', #176, #114, #302 ) ;
#212 = CARTESIAN_POINT ( 'NONE',  ( 6.405924284287275164E-14, -2.246895775456749140E-15, 18.34729635533384595 ) ) ;
#213 = EDGE_CURVE ( 'NONE', #26, #26, #68, .T. ) ;
#214 = DIRECTION ( 'NONE',  ( 3.491481338843133355E-15, -1.224646799147353207E-16, 1.000000000000000000 ) ) ;
#215 = ORIENTED_EDGE ( 'NONE', *, *, #50, .T. ) ;
#216 = AXIS2_PLACEMENT_3D ( 'NONE', #38, #40, #8 ) ;
#217 = CARTESIAN_POINT ( 'NONE',  ( 0.0000000000000000000, 0.0000000000000000000, 0.0000000000000000000 ) ) ;
#218 = CC_DESIGN_PERSON_AND_ORGANIZATION_ASSIGNMENT ( #62, #223, ( #258 ) ) ;
#219 = ORIENTED_EDGE ( 'NONE', *, *, #243, .T. ) ;
#220 = CARTESIAN_POINT ( 'NONE',  ( 1.745740669421566678E-13, -6.123233995736766085E-15, 50.00000000000000000 ) ) ;
#221 = APPROVAL_ROLE ( '' ) ;
#222 = EDGE_LOOP ( 'NONE', ( #5 ) ) ;
#223 = PERSON_AND_ORGANIZATION_ROLE ( 'creator' ) ;
#224 = EDGE_LOOP ( 'NONE', ( #215 ) ) ;
#225 = PERSON_AND_ORGANIZATION ( #17, #282 ) ;
#226 = FACE_OUTER_BOUND ( 'NONE', #59, .T. ) ;
#227 = CYLINDRICAL_SURFACE ( 'NONE', #63, 0.9449999999999995071 ) ;
#228 = APPLICATION_PROTOCOL_DEFINITION ( 'international standard', 'config_control_design', 1994, #20 ) ;
#229 = DIRECTION ( 'NONE',  ( -3.491481338843133355E-15, 1.224646799147353207E-16, -1.000000000000000000 ) ) ;
#230 = DIRECTION ( 'NONE',  ( -3.491481338843133355E-15, 1.224646799147353207E-16, -1.000000000000000000 ) ) ;
#231 = EDGE_CURVE ( 'NONE', #45, #45, #233, .T. ) ;
#232 = CIRCLE ( 'NONE', #136, 0.9753844939755803578 ) ;
#233 = CIRCLE ( 'NONE', #216, 1.500000000000001554 ) ;
#234 = DIRECTION ( 'NONE',  ( 0.0000000000000000000, 1.000000000000000000, 0.0000000000000000000 ) ) ;
#235 = PERSON_AND_ORGANIZATION_ROLE ( 'classification_officer' ) ;
#236 = SHAPE_DEFINITION_REPRESENTATION ( #3, #184 ) ;
#237 = ORIENTED_EDGE ( 'NONE', *, *, #149, .T. ) ;
#238 = ORIENTED_EDGE ( 'NONE', *, *, #71, .T. ) ;
#239 = EDGE_LOOP ( 'NONE', ( #104 ) ) ;
#240 = CLOSED_SHELL ( 'NONE', ( #81, #121, #105, #12, #175, #98, #23, #281 ) ) ;
#241 = VERTEX_POINT ( 'NONE', #112 ) ;
#242 = EDGE_LOOP ( 'NONE', ( #219 ) ) ;
#243 = EDGE_CURVE ( 'NONE', #181, #181, #101, .T. ) ;
#244 = CYLINDRICAL_SURFACE ( 'NONE', #41, 1.094999999999999529 ) ;
#245 = APPROVAL_STATUS ( 'not_yet_approved' ) ;
#246 = DIRECTION ( 'NONE',  ( 0.0000000000000000000, 1.000000000000000000, 0.0000000000000000000 ) ) ;
#247 = ORIENTED_EDGE ( 'NONE', *, *, #243, .F. ) ;
#248 = DIRECTION ( 'NONE',  ( -3.491481338843133355E-15, 1.224646799147353207E-16, -1.000000000000000000 ) ) ;
#249 = AXIS2_PLACEMENT_3D ( 'NONE', #286, #147, #264 ) ;
#250 = PLANE ( 'NONE',  #37 ) ;
#251 = AXIS2_PLACEMENT_3D ( 'NONE', #131, #229, #153 ) ;
#252 = AXIS2_PLACEMENT_3D ( 'NONE', #195, #200, #246 ) ;
#253 = CARTESIAN_POINT ( 'NONE',  ( -2.172136497799493833E-31, 7.618829233733465311E-33, -6.221246190361164449E-17 ) ) ;
#254 = ADVANCED_FACE ( 'NONE', ( #226, #291 ), #244, .T. ) ;
#255 = APPROVAL_STATUS ( 'not_yet_approved' ) ;
#256 = TOROIDAL_SURFACE ( 'NONE', #249, 2.945000000000000284, 2.000000000000000444 ) ;
#257 = ORIENTED_EDGE ( 'NONE', *, *, #192, .T. ) ;
#258 = PRODUCT_DEFINITION_FORMATION_WITH_SPECIFIED_SOURCE ( 'ANY', '', #140, .NOT_KNOWN. ) ;
#259 = ORIENTED_EDGE ( 'NONE', *, *, #192, .F. ) ;
#260 = APPROVAL_DATE_TIME ( #287, #77 ) ;
#261 = DIRECTION ( 'NONE',  ( 0.0000000000000000000, 1.000000000000000000, 0.0000000000000000000 ) ) ;
#262 = ORIENTED_EDGE ( 'NONE', *, *, #71, .F. ) ;
#263 = AXIS2_PLACEMENT_3D ( 'NONE', #142, #214, #99 ) ;
#264 = DIRECTION ( 'NONE',  ( 4.275831445896958607E-31, 1.000000000000000000, 1.224646799147353207E-16 ) ) ;
#265 = SECURITY_CLASSIFICATION_LEVEL ( 'unclassified' ) ;
#266 = FACE_OUTER_BOUND ( 'NONE', #125, .T. ) ;
#267 = DIRECTION ( 'NONE',  ( 3.491481338843133355E-15, -1.224646799147353207E-16, 1.000000000000000000 ) ) ;
#268 = CONICAL_SURFACE ( 'NONE', #211, 1.094999999999999085, 0.5235987755982930425 ) ;
#269 =( NAMED_UNIT ( * ) PLANE_ANGLE_UNIT ( ) SI_UNIT ( $, .RADIAN. ) );
#270 = FACE_OUTER_BOUND ( 'NONE', #126, .T. ) ;
#271 = APPROVAL ( #245, 'UNSPECIFIED' ) ;
#272 = FACE_OUTER_BOUND ( 'NONE', #61, .T. ) ;
#273 = FACE_OUTER_BOUND ( 'NONE', #239, .T. ) ;
#274 = ADVANCED_FACE ( 'NONE', ( #157, #4 ), #268, .T. ) ;
#275 = CARTESIAN_POINT ( 'NONE',  ( 1.735266225405037467E-13, 1.499999999999995559, 49.70000000000000284 ) ) ;
#276 = DIRECTION ( 'NONE',  ( -3.491481338843133355E-15, 1.224646799147353207E-16, -1.000000000000000000 ) ) ;
#277 = CARTESIAN_POINT ( 'NONE',  ( 2.793185071074506684E-14, 1.094999999999999085, 8.000000000000000000 ) ) ;
#278 = CALENDAR_DATE ( 2021, 1, 12 ) ;
#279 = DATE_AND_TIME ( #193, #30 ) ;
#280 = AXIS2_PLACEMENT_3D ( 'NONE', #209, #297, #300 ) ;
#281 = ADVANCED_FACE ( 'NONE', ( #273 ), #90, .F. ) ;
#282 = ORGANIZATION ( 'UNSPECIFIED', 'UNSPECIFIED', '' ) ;
#283 = FACE_BOUND ( 'NONE', #9, .T. ) ;
#284 = EDGE_LOOP ( 'NONE', ( #129 ) ) ;
#285 = COORDINATED_UNIVERSAL_TIME_OFFSET ( 1, 0, .AHEAD. ) ;
#286 = CARTESIAN_POINT ( 'NONE',  ( 6.284666409917640040E-14, -2.168404344971008868E-15, 18.00000000000000000 ) ) ;
#287 = DATE_AND_TIME ( #174, #187 ) ;
#288 = AXIS2_PLACEMENT_3D ( 'NONE', #134, #230, #22 ) ;
#289 = CARTESIAN_POINT ( 'NONE',  ( 2.793185071074506684E-14, -9.797174393178825657E-16, 8.000000000000000000 ) ) ;
#290 = CARTESIAN_POINT ( 'NONE',  ( 2.793185071074506684E-14, 1.094999999999999085, 8.000000000000000000 ) ) ;
#291 = FACE_OUTER_BOUND ( 'NONE', #107, .T. ) ;
#292 = CARTESIAN_POINT ( 'NONE',  ( 0.0000000000000000000, 0.0000000000000000000, 0.0000000000000000000 ) ) ;
#293 = CC_DESIGN_PERSON_AND_ORGANIZATION_ASSIGNMENT ( #85, #178, ( #258 ) ) ;
#294 = MANIFOLD_SOLID_BREP ( 'Corps-Déplacer/Copier1[2]', #166 ) ;
#295 = DIRECTION ( 'NONE',  ( -4.275831445896958607E-31, -1.000000000000000000, -1.224646799147353207E-16 ) ) ;
#296 = DIRECTION ( 'NONE',  ( -4.275831445896958607E-31, -1.000000000000000000, -1.224646799147353207E-16 ) ) ;
#297 = DIRECTION ( 'NONE',  ( -3.491481338843133355E-15, 1.224646799147353207E-16, -1.000000000000000000 ) ) ;
#298 = ADVANCED_FACE ( 'NONE', ( #120 ), #11, .F. ) ;
#299 = PERSON_AND_ORGANIZATION ( #17, #282 ) ;
#300 = DIRECTION ( 'NONE',  ( 3.517680263720981802E-31, 1.000000000000000000, 9.901389703063976090E-17 ) ) ;
#301 =( LENGTH_UNIT ( ) NAMED_UNIT ( * ) SI_UNIT ( .MILLI., .METRE. ) );
#302 = DIRECTION ( 'NONE',  ( -3.517680263720981802E-31, -1.000000000000000000, -9.901389703063976090E-17 ) ) ;
#303 = CARTESIAN_POINT ( 'NONE',  ( 7.444724609678507120E-14, -2.611257881388874566E-15, 21.32253873693977653 ) ) ;
ENDSEC;
END-ISO-10303-21;
