ISO-10303-21;
HEADER;
FILE_DESCRIPTION (( 'STEP AP203' ),
    '1' );
FILE_NAME ('967038.step',
    '2021-11-05T15:02:25',
    ( '' ),
    ( '' ),
    'SwSTEP 2.0',
    'SolidWorks 2019',
    '' );
FILE_SCHEMA (( 'CONFIG_CONTROL_DESIGN' ));
ENDSEC;

DATA;
#1 = DIRECTION ( 'NONE',  ( 1.000000000000000000, 0.0000000000000000000, -3.491481338843132961E-15 ) ) ;
#2 = PERSON_AND_ORGANIZATION ( #156, #133 ) ;
#3 = CARTESIAN_POINT ( 'NONE',  ( 5.586370142149013368E-14, 2.249639673992779022E-32, 16.00000000000000000 ) ) ;
#4 = PERSON_AND_ORGANIZATION ( #156, #133 ) ;
#5 = APPROVAL ( #60, 'UNSPECIFIED' ) ;
#6 = APPROVAL_DATE_TIME ( #187, #5 ) ;
#7 = ORIENTED_EDGE ( 'NONE', *, *, #36, .T. ) ;
#8 = APPLICATION_PROTOCOL_DEFINITION ( 'international standard', 'config_control_design', 1994, #25 ) ;
#9 = AXIS2_PLACEMENT_3D ( 'NONE', #12, #13, #205 ) ;
#10 = SECURITY_CLASSIFICATION ( '', '', #93 ) ;
#11 = APPROVAL ( #38, 'UNSPECIFIED' ) ;
#12 = CARTESIAN_POINT ( 'NONE',  ( 0.0000000000000000000, 0.0000000000000000000, 0.0000000000000000000 ) ) ;
#13 = DIRECTION ( 'NONE',  ( -3.491481338843133355E-15, 1.224646799147353207E-16, -1.000000000000000000 ) ) ;
#14 = ADVANCED_FACE ( 'NONE', ( #179, #160 ), #103, .T. ) ;
#15 = DIRECTION ( 'NONE',  ( -3.491481338843133355E-15, 1.224646799147353207E-16, -1.000000000000000000 ) ) ;
#16 = EDGE_LOOP ( 'NONE', ( #53 ) ) ;
#17 = ADVANCED_BREP_SHAPE_REPRESENTATION ( '967038', ( #101, #33, #184 ), #73 ) ;
#18 = AXIS2_PLACEMENT_3D ( 'NONE', #3, #91, #211 ) ;
#19 = VERTEX_POINT ( 'NONE', #145 ) ;
#20 = APPROVAL_DATE_TIME ( #109, #11 ) ;
#21 = DIRECTION ( 'NONE',  ( 1.000000000000000000, 0.0000000000000000000, -3.487516988161706061E-15 ) ) ;
#22 = APPROVAL_DATE_TIME ( #186, #189 ) ;
#23 = PERSON_AND_ORGANIZATION ( #156, #133 ) ;
#24 = PERSON_AND_ORGANIZATION ( #156, #133 ) ;
#25 = APPLICATION_CONTEXT ( 'configuration controlled 3d designs of mechanical parts and assemblies' ) ;
#26 = VERTEX_POINT ( 'NONE', #188 ) ;
#27 = DIRECTION ( 'NONE',  ( -3.491481338843133355E-15, 1.224646799147353207E-16, -1.000000000000000000 ) ) ;
#28 = ADVANCED_FACE ( 'NONE', ( #206 ), #34, .T. ) ;
#29 = CARTESIAN_POINT ( 'NONE',  ( 1.728283262727351074E-13, -6.062001655779398511E-15, 49.50000000000000000 ) ) ;
#30 = PRODUCT_DEFINITION_FORMATION_WITH_SPECIFIED_SOURCE ( 'ANY', '', #180, .NOT_KNOWN. ) ;
#31 = CARTESIAN_POINT ( 'NONE',  ( 1.745740669421566678E-13, -6.123233995736766085E-15, 50.00000000000000000 ) ) ;
#32 = ORIENTED_EDGE ( 'NONE', *, *, #54, .T. ) ;
#33 = MANIFOLD_SOLID_BREP ( 'Corps-Déplacer/Copier1[2]', #87 ) ;
#34 = PLANE ( 'NONE',  #220 ) ;
#35 = CIRCLE ( 'NONE', #150, 2.999999999999997335 ) ;
#36 = EDGE_CURVE ( 'NONE', #213, #213, #56, .T. ) ;
#37 = DIRECTION ( 'NONE',  ( 0.0000000000000000000, 1.000000000000000000, 0.0000000000000000000 ) ) ;
#38 = APPROVAL_STATUS ( 'not_yet_approved' ) ;
#39 = DESIGN_CONTEXT ( 'detailed design', #202, 'design' ) ;
#40 = CC_DESIGN_APPROVAL ( #5, ( #10 ) ) ;
#41 = DIRECTION ( 'NONE',  ( -4.275831445896958607E-31, -1.000000000000000000, -1.224646799147353207E-16 ) ) ;
#42 = APPROVAL_STATUS ( 'not_yet_approved' ) ;
#43 = COORDINATED_UNIVERSAL_TIME_OFFSET ( 1, 0, .AHEAD. ) ;
#44 = VERTEX_POINT ( 'NONE', #201 ) ;
#45 =( LENGTH_UNIT ( ) NAMED_UNIT ( * ) SI_UNIT ( .MILLI., .METRE. ) );
#46 = FACE_OUTER_BOUND ( 'NONE', #50, .T. ) ;
#47 = ADVANCED_FACE ( 'NONE', ( #218 ), #136, .F. ) ;
#48 = DIRECTION ( 'NONE',  ( -3.491481338843133355E-15, 1.224646799147353207E-16, -1.000000000000000000 ) ) ;
#49 = CIRCLE ( 'NONE', #191, 2.999999999999993339 ) ;
#50 = EDGE_LOOP ( 'NONE', ( #52 ) ) ;
#51 = ORIENTED_EDGE ( 'NONE', *, *, #72, .T. ) ;
#52 = ORIENTED_EDGE ( 'NONE', *, *, #54, .F. ) ;
#53 = ORIENTED_EDGE ( 'NONE', *, *, #96, .T. ) ;
#54 = EDGE_CURVE ( 'NONE', #125, #125, #35, .T. ) ;
#55 = CALENDAR_DATE ( 2021, 5, 11 ) ;
#56 = CIRCLE ( 'NONE', #80, 2.499999999999996891 ) ;
#57 = VERTEX_POINT ( 'NONE', #130 ) ;
#58 = PERSON_AND_ORGANIZATION ( #156, #133 ) ;
#59 = PLANE ( 'NONE',  #18 ) ;
#60 = APPROVAL_STATUS ( 'not_yet_approved' ) ;
#61 = SHAPE_DEFINITION_REPRESENTATION ( #157, #17 ) ;
#62 = AXIS2_PLACEMENT_3D ( 'NONE', #74, #185, #1 ) ;
#63 = LOCAL_TIME ( 16, 2, 25.00000000000000000, #210 ) ;
#64 =( NAMED_UNIT ( * ) PLANE_ANGLE_UNIT ( ) SI_UNIT ( $, .RADIAN. ) );
#65 = FACE_OUTER_BOUND ( 'NONE', #140, .T. ) ;
#66 = CARTESIAN_POINT ( 'NONE',  ( 0.0000000000000000000, 0.0000000000000000000, 0.0000000000000000000 ) ) ;
#67 = FACE_OUTER_BOUND ( 'NONE', #85, .T. ) ;
#68 = AXIS2_PLACEMENT_3D ( 'NONE', #66, #141, #123 ) ;
#69 = ORIENTED_EDGE ( 'NONE', *, *, #96, .F. ) ;
#70 = EDGE_LOOP ( 'NONE', ( #176 ) ) ;
#71 = PRODUCT_RELATED_PRODUCT_CATEGORY ( 'detail', '', ( #180 ) ) ;
#72 = EDGE_CURVE ( 'NONE', #19, #19, #49, .T. ) ;
#73 =( GEOMETRIC_REPRESENTATION_CONTEXT ( 3 ) GLOBAL_UNCERTAINTY_ASSIGNED_CONTEXT ( ( #151 ) ) GLOBAL_UNIT_ASSIGNED_CONTEXT ( ( #45, #64, #134 ) ) REPRESENTATION_CONTEXT ( 'NONE', 'WORKASPACE' ) );
#74 = CARTESIAN_POINT ( 'NONE',  ( 0.0000000000000000000, 0.0000000000000000000, 0.0000000000000000000 ) ) ;
#75 = PERSON_AND_ORGANIZATION_ROLE ( 'design_owner' ) ;
#76 = CARTESIAN_POINT ( 'NONE',  ( 1.745740669421566678E-13, 2.499999999999991118, 50.00000000000000000 ) ) ;
#77 = DATE_TIME_ROLE ( 'creation_date' ) ;
#78 = CALENDAR_DATE ( 2021, 5, 11 ) ;
#79 = ORIENTED_EDGE ( 'NONE', *, *, #132, .T. ) ;
#80 = AXIS2_PLACEMENT_3D ( 'NONE', #31, #15, #84 ) ;
#81 = ADVANCED_FACE ( 'NONE', ( #65, #67 ), #138, .T. ) ;
#82 = DIRECTION ( 'NONE',  ( 0.0000000000000000000, 1.000000000000000000, 0.0000000000000000000 ) ) ;
#83 = DIRECTION ( 'NONE',  ( -3.491481338843133355E-15, 1.224646799147353207E-16, -1.000000000000000000 ) ) ;
#84 = DIRECTION ( 'NONE',  ( 0.0000000000000000000, 1.000000000000000000, 0.0000000000000000000 ) ) ;
#85 = EDGE_LOOP ( 'NONE', ( #32 ) ) ;
#86 = EDGE_CURVE ( 'NONE', #57, #57, #139, .T. ) ;
#87 = CLOSED_SHELL ( 'NONE', ( #14, #28, #162, #119 ) ) ;
#88 = LOCAL_TIME ( 16, 2, 25.00000000000000000, #168 ) ;
#89 = CARTESIAN_POINT ( 'NONE',  ( -1.282749230708802054E-30, 4.499278635745967878E-32, -3.673939815854286496E-16 ) ) ;
#90 = CALENDAR_DATE ( 2021, 5, 11 ) ;
#91 = DIRECTION ( 'NONE',  ( 3.491481338843133355E-15, -1.224646799147353207E-16, 1.000000000000000000 ) ) ;
#92 = PERSON_AND_ORGANIZATION_ROLE ( 'creator' ) ;
#93 = SECURITY_CLASSIFICATION_LEVEL ( 'unclassified' ) ;
#94 = CC_DESIGN_PERSON_AND_ORGANIZATION_ASSIGNMENT ( #2, #212, ( #30 ) ) ;
#95 = DIRECTION ( 'NONE',  ( 1.000000000000000000, 0.0000000000000000000, 0.0000000000000000000 ) ) ;
#96 = EDGE_CURVE ( 'NONE', #26, #26, #198, .T. ) ;
#97 = MECHANICAL_CONTEXT ( 'NONE', #25, 'mechanical' ) ;
#98 = AXIS2_PLACEMENT_3D ( 'NONE', #100, #83, #82 ) ;
#99 = DIRECTION ( 'NONE',  ( 4.275831445896958607E-31, 1.000000000000000000, 1.224646799147353207E-16 ) ) ;
#100 = CARTESIAN_POINT ( 'NONE',  ( 5.586370142149013368E-14, -1.959434878635765131E-15, 16.00000000000000000 ) ) ;
#101 = MANIFOLD_SOLID_BREP ( 'Corps-Déplacer/Copier1[1]', #181 ) ;
#102 = LOCAL_TIME ( 16, 2, 25.00000000000000000, #144 ) ;
#103 = CYLINDRICAL_SURFACE ( 'NONE', #68, 2.999999999999992450 ) ;
#104 = EDGE_LOOP ( 'NONE', ( #7 ) ) ;
#105 = ORIENTED_EDGE ( 'NONE', *, *, #86, .T. ) ;
#106 = PRODUCT_DEFINITION ( 'UNKNOWN', '', #30, #39 ) ;
#107 = AXIS2_PLACEMENT_3D ( 'NONE', #117, #190, #99 ) ;
#108 = DIRECTION ( 'NONE',  ( 3.491481338843133355E-15, -1.224646799147353207E-16, 1.000000000000000000 ) ) ;
#109 = DATE_AND_TIME ( #55, #63 ) ;
#110 = CC_DESIGN_APPROVAL ( #11, ( #30 ) ) ;
#111 = FACE_BOUND ( 'NONE', #178, .T. ) ;
#112 = COORDINATED_UNIVERSAL_TIME_OFFSET ( 1, 0, .AHEAD. ) ;
#113 = CC_DESIGN_PERSON_AND_ORGANIZATION_ASSIGNMENT ( #58, #131, ( #30 ) ) ;
#114 = PERSON_AND_ORGANIZATION_ROLE ( 'classification_officer' ) ;
#115 = ADVANCED_FACE ( 'NONE', ( #46, #155 ), #159, .T. ) ;
#116 = CARTESIAN_POINT ( 'NONE',  ( 1.745740669421566678E-13, -6.123233995736766085E-15, 50.00000000000000000 ) ) ;
#117 = CARTESIAN_POINT ( 'NONE',  ( 1.745740669421566678E-13, 1.874699728327310788E-32, 50.00000000000000000 ) ) ;
#118 = AXIS2_PLACEMENT_3D ( 'NONE', #89, #108, #41 ) ;
#119 = ADVANCED_FACE ( 'NONE', ( #199 ), #143, .F. ) ;
#120 = DIRECTION ( 'NONE',  ( 3.491481338843133355E-15, -1.224646799147353207E-16, 1.000000000000000000 ) ) ;
#121 = LOCAL_TIME ( 16, 2, 25.00000000000000000, #43 ) ;
#122 = ORIENTED_EDGE ( 'NONE', *, *, #36, .F. ) ;
#123 = DIRECTION ( 'NONE',  ( 4.275831445896958607E-31, 1.000000000000000000, 1.224646799147353207E-16 ) ) ;
#124 = EDGE_LOOP ( 'NONE', ( #137 ) ) ;
#125 = VERTEX_POINT ( 'NONE', #182 ) ;
#126 = PERSON_AND_ORGANIZATION ( #156, #133 ) ;
#127 = CARTESIAN_POINT ( 'NONE',  ( 6.982962677686266711E-16, 0.0000000000000000000, 0.2000000000000000111 ) ) ;
#128 = PERSON_AND_ORGANIZATION ( #156, #133 ) ;
#129 = CC_DESIGN_PERSON_AND_ORGANIZATION_ASSIGNMENT ( #24, #114, ( #10 ) ) ;
#130 = CARTESIAN_POINT ( 'NONE',  ( 3.000000000000000888, 0.0000000000000000000, 0.1999999999999895473 ) ) ;
#131 = PERSON_AND_ORGANIZATION_ROLE ( 'design_supplier' ) ;
#132 = EDGE_CURVE ( 'NONE', #44, #44, #161, .T. ) ;
#133 = ORGANIZATION ( 'UNSPECIFIED', 'UNSPECIFIED', '' ) ;
#134 =( NAMED_UNIT ( * ) SI_UNIT ( $, .STERADIAN. ) SOLID_ANGLE_UNIT ( ) );
#135 = CARTESIAN_POINT ( 'NONE',  ( 5.586370142149013368E-14, -1.959434878635765131E-15, 16.00000000000000000 ) ) ;
#136 = PLANE ( 'NONE',  #107 ) ;
#137 = ORIENTED_EDGE ( 'NONE', *, *, #132, .F. ) ;
#138 = CYLINDRICAL_SURFACE ( 'NONE', #9, 2.999999999999995559 ) ;
#139 = CIRCLE ( 'NONE', #170, 3.000000000000000000 ) ;
#140 = EDGE_LOOP ( 'NONE', ( #69 ) ) ;
#141 = DIRECTION ( 'NONE',  ( -3.491481338843133355E-15, 1.224646799147353207E-16, -1.000000000000000000 ) ) ;
#142 = CC_DESIGN_SECURITY_CLASSIFICATION ( #10, ( #30 ) ) ;
#143 = PLANE ( 'NONE',  #118 ) ;
#144 = COORDINATED_UNIVERSAL_TIME_OFFSET ( 1, 0, .AHEAD. ) ;
#145 = CARTESIAN_POINT ( 'NONE',  ( 5.586370142149013368E-14, 2.999999999999991562, 16.00000000000000000 ) ) ;
#146 = APPLICATION_PROTOCOL_DEFINITION ( 'international standard', 'config_control_design', 1994, #202 ) ;
#147 = CALENDAR_DATE ( 2021, 5, 11 ) ;
#148 = DATE_AND_TIME ( #78, #88 ) ;
#149 = CARTESIAN_POINT ( 'NONE',  ( 0.0000000000000000000, 0.0000000000000000000, 0.0000000000000000000 ) ) ;
#150 = AXIS2_PLACEMENT_3D ( 'NONE', #29, #27, #174 ) ;
#151 = UNCERTAINTY_MEASURE_WITH_UNIT (LENGTH_MEASURE( 1.000000000000000082E-05 ), #45, 'distance_accuracy_value', 'NONE');
#152 = CONICAL_SURFACE ( 'NONE', #207, 3.000000000000000000, 0.7853981633974420618 ) ;
#153 = CC_DESIGN_PERSON_AND_ORGANIZATION_ASSIGNMENT ( #128, #92, ( #106 ) ) ;
#154 = DIRECTION ( 'NONE',  ( -3.491481338843133355E-15, 1.224646799147353207E-16, -1.000000000000000000 ) ) ;
#155 = FACE_BOUND ( 'NONE', #104, .T. ) ;
#156 = PERSON ( 'UNSPECIFIED', 'UNSPECIFIED', 'UNSPECIFIED', ('UNSPECIFIED'), ('UNSPECIFIED'), ('UNSPECIFIED') ) ;
#157 = PRODUCT_DEFINITION_SHAPE ( 'NONE', 'NONE',  #106 ) ;
#158 = EDGE_LOOP ( 'NONE', ( #122 ) ) ;
#159 = CONICAL_SURFACE ( 'NONE', #216, 2.499999999999996891, 0.7853981633974482790 ) ;
#160 = FACE_OUTER_BOUND ( 'NONE', #208, .T. ) ;
#161 = CIRCLE ( 'NONE', #62, 2.800000000000002487 ) ;
#162 = ADVANCED_FACE ( 'NONE', ( #111, #166 ), #152, .T. ) ;
#163 = APPROVAL_PERSON_ORGANIZATION ( #4, #11, #214 ) ;
#164 = DIRECTION ( 'NONE',  ( 3.491481338843133355E-15, -0.0000000000000000000, 1.000000000000000000 ) ) ;
#165 = APPROVAL_ROLE ( '' ) ;
#166 = FACE_OUTER_BOUND ( 'NONE', #70, .T. ) ;
#167 = PERSON_AND_ORGANIZATION ( #156, #133 ) ;
#168 = COORDINATED_UNIVERSAL_TIME_OFFSET ( 1, 0, .AHEAD. ) ;
#169 = DIRECTION ( 'NONE',  ( 0.0000000000000000000, 0.0000000000000000000, 1.000000000000000000 ) ) ;
#170 = AXIS2_PLACEMENT_3D ( 'NONE', #219, #204, #192 ) ;
#171 = LOCAL_TIME ( 16, 2, 25.00000000000000000, #112 ) ;
#172 = CC_DESIGN_DATE_AND_TIME_ASSIGNMENT ( #148, #200, ( #10 ) ) ;
#173 = CC_DESIGN_PERSON_AND_ORGANIZATION_ASSIGNMENT ( #167, #75, ( #180 ) ) ;
#174 = DIRECTION ( 'NONE',  ( 0.0000000000000000000, 1.000000000000000000, 0.0000000000000000000 ) ) ;
#175 = DIRECTION ( 'NONE',  ( 0.0000000000000000000, 1.000000000000000000, 0.0000000000000000000 ) ) ;
#176 = ORIENTED_EDGE ( 'NONE', *, *, #86, .F. ) ;
#177 = EDGE_LOOP ( 'NONE', ( #51 ) ) ;
#178 = EDGE_LOOP ( 'NONE', ( #79 ) ) ;
#179 = FACE_OUTER_BOUND ( 'NONE', #177, .T. ) ;
#180 = PRODUCT ( '967038', '967038', '', ( #97 ) ) ;
#181 = CLOSED_SHELL ( 'NONE', ( #209, #81, #115, #47 ) ) ;
#182 = CARTESIAN_POINT ( 'NONE',  ( 1.728283262727351074E-13, 2.999999999999991562, 49.50000000000000000 ) ) ;
#183 = DATE_AND_TIME ( #197, #102 ) ;
#184 = AXIS2_PLACEMENT_3D ( 'NONE', #149, #169, #95 ) ;
#185 = DIRECTION ( 'NONE',  ( 3.491481338843133355E-15, -0.0000000000000000000, 1.000000000000000000 ) ) ;
#186 = DATE_AND_TIME ( #90, #171 ) ;
#187 = DATE_AND_TIME ( #147, #121 ) ;
#188 = CARTESIAN_POINT ( 'NONE',  ( 5.586370142149013368E-14, 2.999999999999991562, 16.00000000000000000 ) ) ;
#189 = APPROVAL ( #42, 'UNSPECIFIED' ) ;
#190 = DIRECTION ( 'NONE',  ( -3.491481338843133355E-15, 1.224646799147353207E-16, -1.000000000000000000 ) ) ;
#191 = AXIS2_PLACEMENT_3D ( 'NONE', #135, #48, #175 ) ;
#192 = DIRECTION ( 'NONE',  ( 1.000000000000000000, 0.0000000000000000000, -3.487516988161706061E-15 ) ) ;
#193 = DIRECTION ( 'NONE',  ( -4.275831445896958607E-31, -1.000000000000000000, -1.224646799147353207E-16 ) ) ;
#194 = EDGE_LOOP ( 'NONE', ( #222 ) ) ;
#195 = CC_DESIGN_DATE_AND_TIME_ASSIGNMENT ( #183, #77, ( #106 ) ) ;
#196 = FACE_OUTER_BOUND ( 'NONE', #16, .T. ) ;
#197 = CALENDAR_DATE ( 2021, 5, 11 ) ;
#198 = CIRCLE ( 'NONE', #98, 2.999999999999993339 ) ;
#199 = FACE_OUTER_BOUND ( 'NONE', #124, .T. ) ;
#200 = DATE_TIME_ROLE ( 'classification_date' ) ;
#201 = CARTESIAN_POINT ( 'NONE',  ( 2.800000000000002487, 0.0000000000000000000, -9.776147748760781283E-15 ) ) ;
#202 = APPLICATION_CONTEXT ( 'configuration controlled 3d designs of mechanical parts and assemblies' ) ;
#203 = APPROVAL_PERSON_ORGANIZATION ( #126, #189, #165 ) ;
#204 = DIRECTION ( 'NONE',  ( 3.491481338843133355E-15, -0.0000000000000000000, 1.000000000000000000 ) ) ;
#205 = DIRECTION ( 'NONE',  ( 4.275831445896959482E-31, 1.000000000000000000, 1.224646799147353207E-16 ) ) ;
#206 = FACE_OUTER_BOUND ( 'NONE', #194, .T. ) ;
#207 = AXIS2_PLACEMENT_3D ( 'NONE', #127, #164, #21 ) ;
#208 = EDGE_LOOP ( 'NONE', ( #105 ) ) ;
#209 = ADVANCED_FACE ( 'NONE', ( #196 ), #59, .F. ) ;
#210 = COORDINATED_UNIVERSAL_TIME_OFFSET ( 1, 0, .AHEAD. ) ;
#211 = DIRECTION ( 'NONE',  ( -4.275831445896958607E-31, -1.000000000000000000, -1.224646799147353207E-16 ) ) ;
#212 = PERSON_AND_ORGANIZATION_ROLE ( 'creator' ) ;
#213 = VERTEX_POINT ( 'NONE', #76 ) ;
#214 = APPROVAL_ROLE ( '' ) ;
#215 = APPROVAL_ROLE ( '' ) ;
#216 = AXIS2_PLACEMENT_3D ( 'NONE', #116, #154, #37 ) ;
#217 = APPROVAL_PERSON_ORGANIZATION ( #23, #5, #215 ) ;
#218 = FACE_OUTER_BOUND ( 'NONE', #158, .T. ) ;
#219 = CARTESIAN_POINT ( 'NONE',  ( 6.982962677686266711E-16, 0.0000000000000000000, 0.2000000000000000111 ) ) ;
#220 = AXIS2_PLACEMENT_3D ( 'NONE', #221, #120, #193 ) ;
#221 = CARTESIAN_POINT ( 'NONE',  ( 5.586370142149013368E-14, 2.249639673992779022E-32, 16.00000000000000000 ) ) ;
#222 = ORIENTED_EDGE ( 'NONE', *, *, #72, .F. ) ;
#223 = CC_DESIGN_APPROVAL ( #189, ( #106 ) ) ;
ENDSEC;
END-ISO-10303-21;
