ISO-10303-21;
HEADER;
FILE_DESCRIPTION (( 'STEP AP203' ),
    '1' );
FILE_NAME ('966908.step',
    '2021-11-29T14:49:38',
    ( '' ),
    ( '' ),
    'SwSTEP 2.0',
    'SolidWorks 2019',
    '' );
FILE_SCHEMA (( 'CONFIG_CONTROL_DESIGN' ));
ENDSEC;

DATA;
#1 = CC_DESIGN_APPROVAL ( #257, ( #163 ) ) ;
#2 = VERTEX_POINT ( 'NONE', #56 ) ;
#3 = ORIENTED_EDGE ( 'NONE', *, *, #4, .T. ) ;
#4 = EDGE_CURVE ( 'NONE', #102, #102, #91, .T. ) ;
#5 = CARTESIAN_POINT ( 'NONE',  ( 1.745740669421566678E-14, 3.888127236550855366E-33, 5.000000000000000000 ) ) ;
#6 = FACE_OUTER_BOUND ( 'NONE', #53, .T. ) ;
#7 = ORIENTED_EDGE ( 'NONE', *, *, #4, .F. ) ;
#8 = DIRECTION ( 'NONE',  ( -3.491481338843133355E-15, 1.224646799147352961E-16, -1.000000000000000000 ) ) ;
#9 = APPLICATION_CONTEXT ( 'configuration controlled 3d designs of mechanical parts and assemblies' ) ;
#10 = DIRECTION ( 'NONE',  ( -3.491481338843133355E-15, 1.224646799147352961E-16, -1.000000000000000000 ) ) ;
#11 = CC_DESIGN_APPROVAL ( #67, ( #296 ) ) ;
#12 = APPROVAL_STATUS ( 'not_yet_approved' ) ;
#13 = APPLICATION_PROTOCOL_DEFINITION ( 'international standard', 'config_control_design', 1994, #204 ) ;
#14 = CIRCLE ( 'NONE', #255, 0.4650000000000001910 ) ;
#15 = EDGE_LOOP ( 'NONE', ( #200 ) ) ;
#16 = FACE_OUTER_BOUND ( 'NONE', #26, .T. ) ;
#17 = SECURITY_CLASSIFICATION_LEVEL ( 'unclassified' ) ;
#18 = AXIS2_PLACEMENT_3D ( 'NONE', #128, #211, #116 ) ;
#19 = AXIS2_PLACEMENT_3D ( 'NONE', #226, #181, #152 ) ;
#20 = ADVANCED_FACE ( 'NONE', ( #6 ), #180, .F. ) ;
#21 = PERSON_AND_ORGANIZATION_ROLE ( 'design_supplier' ) ;
#22 = PRODUCT_DEFINITION_SHAPE ( 'NONE', 'NONE',  #291 ) ;
#23 = CARTESIAN_POINT ( 'NONE',  ( 1.326762908760390423E-13, 1.199999999999998845, 38.00000000000000000 ) ) ;
#24 = CARTESIAN_POINT ( 'NONE',  ( 1.316288464743861212E-13, -4.616918432785520292E-15, 37.69999999999999574 ) ) ;
#25 = PLANE ( 'NONE',  #268 ) ;
#26 = EDGE_LOOP ( 'NONE', ( #33 ) ) ;
#27 = AXIS2_PLACEMENT_3D ( 'NONE', #137, #110, #205 ) ;
#28 = CARTESIAN_POINT ( 'NONE',  ( 1.745740669421566678E-14, 0.5184999999999992948, 5.000000000000000000 ) ) ;
#29 = DIRECTION ( 'NONE',  ( -4.275831445896957731E-31, -1.000000000000000000, -1.224646799147352961E-16 ) ) ;
#30 = AXIS2_PLACEMENT_3D ( 'NONE', #81, #118, #285 ) ;
#31 = PRODUCT_RELATED_PRODUCT_CATEGORY ( 'detail', '', ( #302 ) ) ;
#32 = CALENDAR_DATE ( 2021, 29, 11 ) ;
#33 = ORIENTED_EDGE ( 'NONE', *, *, #242, .T. ) ;
#34 = CARTESIAN_POINT ( 'NONE',  ( 1.778094382859736416E-14, -6.236715546280332998E-16, 5.092664718204937380 ) ) ;
#35 = PERSON_AND_ORGANIZATION ( #198, #60 ) ;
#36 =( LENGTH_UNIT ( ) NAMED_UNIT ( * ) SI_UNIT ( .MILLI., .METRE. ) );
#37 = DIRECTION ( 'NONE',  ( 4.275831445896957731E-31, 1.000000000000000000, 1.224646799147352961E-16 ) ) ;
#38 = PERSON_AND_ORGANIZATION ( #198, #60 ) ;
#39 = ADVANCED_FACE ( 'NONE', ( #92, #278 ), #73, .T. ) ;
#40 = PERSON_AND_ORGANIZATION ( #198, #60 ) ;
#41 = ADVANCED_FACE ( 'NONE', ( #168, #121 ), #159, .T. ) ;
#42 = APPROVAL_PERSON_ORGANIZATION ( #203, #257, #294 ) ;
#43 = AXIS2_PLACEMENT_3D ( 'NONE', #287, #215, #52 ) ;
#44 = MECHANICAL_CONTEXT ( 'NONE', #204, 'mechanical' ) ;
#45 = COORDINATED_UNIVERSAL_TIME_OFFSET ( 1, 0, .AHEAD. ) ;
#46 = DIRECTION ( 'NONE',  ( -3.491481338843133355E-15, 1.224646799147352961E-16, -1.000000000000000000 ) ) ;
#47 = FACE_OUTER_BOUND ( 'NONE', #108, .T. ) ;
#48 = CARTESIAN_POINT ( 'NONE',  ( -3.492591322006221290E-31, 1.225036128831765359E-32, -1.000317911813172024E-16 ) ) ;
#49 = AXIS2_PLACEMENT_3D ( 'NONE', #147, #288, #266 ) ;
#50 = EDGE_CURVE ( 'NONE', #173, #173, #300, .T. ) ;
#51 = DIRECTION ( 'NONE',  ( 3.491481338843133355E-15, -1.224646799147352961E-16, 1.000000000000000000 ) ) ;
#52 = DIRECTION ( 'NONE',  ( 0.0000000000000000000, 1.000000000000000000, 0.0000000000000000000 ) ) ;
#53 = EDGE_LOOP ( 'NONE', ( #3 ) ) ;
#54 = DIRECTION ( 'NONE',  ( 3.491481338843133355E-15, -1.224646799147352961E-16, 1.000000000000000000 ) ) ;
#55 = EDGE_LOOP ( 'NONE', ( #7 ) ) ;
#56 = CARTESIAN_POINT ( 'NONE',  ( 1.745740669421566678E-14, 0.5184999999999992948, 5.000000000000000000 ) ) ;
#57 = CALENDAR_DATE ( 2021, 29, 11 ) ;
#58 =( NAMED_UNIT ( * ) SI_UNIT ( $, .STERADIAN. ) SOLID_ANGLE_UNIT ( ) );
#59 = ADVANCED_FACE ( 'NONE', ( #190, #241 ), #236, .T. ) ;
#60 = ORGANIZATION ( 'UNSPECIFIED', 'UNSPECIFIED', '' ) ;
#61 = AXIS2_PLACEMENT_3D ( 'NONE', #34, #209, #129 ) ;
#62 = FACE_OUTER_BOUND ( 'NONE', #15, .T. ) ;
#63 = EDGE_LOOP ( 'NONE', ( #97 ) ) ;
#64 = FACE_OUTER_BOUND ( 'NONE', #80, .T. ) ;
#65 = PERSON_AND_ORGANIZATION ( #198, #60 ) ;
#66 = EDGE_LOOP ( 'NONE', ( #243 ) ) ;
#67 = APPROVAL ( #135, 'UNSPECIFIED' ) ;
#68 = DATE_TIME_ROLE ( 'classification_date' ) ;
#69 = LOCAL_TIME ( 15, 49, 38.00000000000000000, #89 ) ;
#70 = AXIS2_PLACEMENT_3D ( 'NONE', #77, #281, #142 ) ;
#71 = APPROVAL_ROLE ( '' ) ;
#72 = DIRECTION ( 'NONE',  ( -3.491481338843133355E-15, 1.224646799147352961E-16, -1.000000000000000000 ) ) ;
#73 = CYLINDRICAL_SURFACE ( 'NONE', #207, 1.500000000000000444 ) ;
#74 = APPROVAL_PERSON_ORGANIZATION ( #40, #67, #301 ) ;
#75 = DATE_AND_TIME ( #229, #112 ) ;
#76 = FACE_OUTER_BOUND ( 'NONE', #55, .T. ) ;
#77 = CARTESIAN_POINT ( 'NONE',  ( 3.840629472727446691E-14, -1.301042606982605321E-15, 11.00000000000000000 ) ) ;
#78 = EDGE_CURVE ( 'NONE', #271, #271, #270, .T. ) ;
#79 = ADVANCED_BREP_SHAPE_REPRESENTATION ( '966908', ( #250, #144, #18 ), #150 ) ;
#80 = EDGE_LOOP ( 'NONE', ( #148 ) ) ;
#81 = CARTESIAN_POINT ( 'NONE',  ( 1.326762908760390423E-13, -4.653657836759941152E-15, 38.00000000000000000 ) ) ;
#82 = EDGE_LOOP ( 'NONE', ( #267 ) ) ;
#83 = CC_DESIGN_DATE_AND_TIME_ASSIGNMENT ( #228, #186, ( #291 ) ) ;
#84 = EDGE_LOOP ( 'NONE', ( #197 ) ) ;
#85 = CARTESIAN_POINT ( 'NONE',  ( -1.892735826383161137E-31, 0.3741624327025949714, -5.421010862427522170E-17 ) ) ;
#86 = DIRECTION ( 'NONE',  ( 0.0000000000000000000, 1.000000000000000000, 0.0000000000000000000 ) ) ;
#87 = DIRECTION ( 'NONE',  ( 4.275831445896957731E-31, 1.000000000000000000, 1.224646799147352961E-16 ) ) ;
#88 = AXIS2_PLACEMENT_3D ( 'NONE', #235, #293, #202 ) ;
#89 = COORDINATED_UNIVERSAL_TIME_OFFSET ( 1, 0, .AHEAD. ) ;
#90 = ORIENTED_EDGE ( 'NONE', *, *, #101, .F. ) ;
#91 = CIRCLE ( 'NONE', #261, 0.5184999999999999609 ) ;
#92 = FACE_OUTER_BOUND ( 'NONE', #82, .T. ) ;
#93 = FACE_OUTER_BOUND ( 'NONE', #303, .T. ) ;
#94 = PERSON_AND_ORGANIZATION_ROLE ( 'creator' ) ;
#95 = AXIS2_PLACEMENT_3D ( 'NONE', #195, #239, #191 ) ;
#96 = PERSON_AND_ORGANIZATION_ROLE ( 'design_owner' ) ;
#97 = ORIENTED_EDGE ( 'NONE', *, *, #78, .F. ) ;
#98 = CC_DESIGN_SECURITY_CLASSIFICATION ( #296, ( #163 ) ) ;
#99 = ORIENTED_EDGE ( 'NONE', *, *, #111, .F. ) ;
#100 = CIRCLE ( 'NONE', #273, 1.200000000000003286 ) ;
#101 = EDGE_CURVE ( 'NONE', #103, #103, #178, .T. ) ;
#102 = VERTEX_POINT ( 'NONE', #28 ) ;
#103 = VERTEX_POINT ( 'NONE', #85 ) ;
#104 = ORIENTED_EDGE ( 'NONE', *, *, #263, .T. ) ;
#105 = COORDINATED_UNIVERSAL_TIME_OFFSET ( 1, 0, .AHEAD. ) ;
#106 = CONICAL_SURFACE ( 'NONE', #19, 1.499999999999997558, 0.1745329251994261477 ) ;
#107 = CC_DESIGN_PERSON_AND_ORGANIZATION_ASSIGNMENT ( #138, #21, ( #163 ) ) ;
#108 = EDGE_LOOP ( 'NONE', ( #155 ) ) ;
#109 = CARTESIAN_POINT ( 'NONE',  ( 5.951144055233099368E-14, -2.087380344103695792E-15, 17.04475401035638882 ) ) ;
#110 = DIRECTION ( 'NONE',  ( 3.491481338843133355E-15, -1.224646799147352961E-16, 1.000000000000000000 ) ) ;
#111 = EDGE_CURVE ( 'NONE', #2, #2, #216, .T. ) ;
#112 = LOCAL_TIME ( 15, 49, 38.00000000000000000, #45 ) ;
#113 = FACE_OUTER_BOUND ( 'NONE', #275, .T. ) ;
#114 = AXIS2_PLACEMENT_3D ( 'NONE', #109, #8, #86 ) ;
#115 = ADVANCED_FACE ( 'NONE', ( #47, #140 ), #253, .F. ) ;
#116 = DIRECTION ( 'NONE',  ( 1.000000000000000000, 0.0000000000000000000, 0.0000000000000000000 ) ) ;
#117 = CC_DESIGN_PERSON_AND_ORGANIZATION_ASSIGNMENT ( #280, #96, ( #302 ) ) ;
#118 = DIRECTION ( 'NONE',  ( -3.491481338843133355E-15, 1.224646799147352961E-16, -1.000000000000000000 ) ) ;
#119 = CONICAL_SURFACE ( 'NONE', #88, 0.4649999999999992473, 0.5235987755982927094 ) ;
#120 = CIRCLE ( 'NONE', #49, 0.5184999999999992948 ) ;
#121 = FACE_OUTER_BOUND ( 'NONE', #127, .T. ) ;
#122 = VERTEX_POINT ( 'NONE', #286 ) ;
#123 = CARTESIAN_POINT ( 'NONE',  ( 1.316288464743861212E-13, 1.499999999999998668, 37.69999999999999574 ) ) ;
#124 = DIRECTION ( 'NONE',  ( 0.0000000000000000000, 1.000000000000000000, 0.0000000000000000000 ) ) ;
#125 = ORIENTED_EDGE ( 'NONE', *, *, #50, .F. ) ;
#126 = ADVANCED_FACE ( 'NONE', ( #76, #283 ), #119, .T. ) ;
#127 = EDGE_LOOP ( 'NONE', ( #104 ) ) ;
#128 = CARTESIAN_POINT ( 'NONE',  ( 0.0000000000000000000, 0.0000000000000000000, 0.0000000000000000000 ) ) ;
#129 = DIRECTION ( 'NONE',  ( 0.0000000000000000000, 1.000000000000000000, 0.0000000000000000000 ) ) ;
#130 = ORIENTED_EDGE ( 'NONE', *, *, #192, .T. ) ;
#131 = CYLINDRICAL_SURFACE ( 'NONE', #208, 0.5184999999999996279 ) ;
#132 =( NAMED_UNIT ( * ) PLANE_ANGLE_UNIT ( ) SI_UNIT ( $, .RADIAN. ) );
#133 = DIRECTION ( 'NONE',  ( -3.491481338843133355E-15, 1.224646799147352961E-16, -1.000000000000000000 ) ) ;
#134 = DATE_AND_TIME ( #57, #69 ) ;
#135 = APPROVAL_STATUS ( 'not_yet_approved' ) ;
#136 = AXIS2_PLACEMENT_3D ( 'NONE', #248, #224, #210 ) ;
#137 = CARTESIAN_POINT ( 'NONE',  ( -1.746295661003110645E-31, 6.125180644158826796E-33, -5.001589559065860120E-17 ) ) ;
#138 = PERSON_AND_ORGANIZATION ( #198, #60 ) ;
#139 = DIRECTION ( 'NONE',  ( -3.491481338843133355E-15, 1.224646799147352961E-16, -1.000000000000000000 ) ) ;
#140 = FACE_OUTER_BOUND ( 'NONE', #84, .T. ) ;
#141 = CARTESIAN_POINT ( 'NONE',  ( 1.778094382859736416E-14, 0.4649999999999986366, 5.092664718204937380 ) ) ;
#142 = DIRECTION ( 'NONE',  ( 4.275831445896957731E-31, 1.000000000000000000, 1.224646799147352961E-16 ) ) ;
#143 = CARTESIAN_POINT ( 'NONE',  ( 3.961887347097082447E-14, 0.4953844939755802645, 11.34729635533384595 ) ) ;
#144 = MANIFOLD_SOLID_BREP ( 'Corps-Déplacer/Copier1[2]', #220 ) ;
#145 = EDGE_LOOP ( 'NONE', ( #172 ) ) ;
#146 = AXIS2_PLACEMENT_3D ( 'NONE', #295, #72, #37 ) ;
#147 = CARTESIAN_POINT ( 'NONE',  ( 8.728703347107831416E-16, -3.061616997868381785E-17, 0.2499999999999999445 ) ) ;
#148 = ORIENTED_EDGE ( 'NONE', *, *, #111, .T. ) ;
#149 = DATE_AND_TIME ( #272, #260 ) ;
#150 =( GEOMETRIC_REPRESENTATION_CONTEXT ( 3 ) GLOBAL_UNCERTAINTY_ASSIGNED_CONTEXT ( ( #170 ) ) GLOBAL_UNIT_ASSIGNED_CONTEXT ( ( #36, #132, #58 ) ) REPRESENTATION_CONTEXT ( 'NONE', 'WORKASPACE' ) );
#151 = AXIS2_PLACEMENT_3D ( 'NONE', #279, #133, #87 ) ;
#152 = DIRECTION ( 'NONE',  ( 0.0000000000000000000, -1.000000000000000000, 0.0000000000000000000 ) ) ;
#153 = EDGE_CURVE ( 'NONE', #176, #176, #217, .T. ) ;
#154 = PERSON_AND_ORGANIZATION_ROLE ( 'creator' ) ;
#155 = ORIENTED_EDGE ( 'NONE', *, *, #242, .F. ) ;
#156 = EDGE_LOOP ( 'NONE', ( #292 ) ) ;
#157 = DIRECTION ( 'NONE',  ( -3.491481338843133355E-15, 1.224646799147352961E-16, -1.000000000000000000 ) ) ;
#158 = PERSON_AND_ORGANIZATION_ROLE ( 'classification_officer' ) ;
#159 = CONICAL_SURFACE ( 'NONE', #290, 0.5184999999999992948, 0.5235987755982924874 ) ;
#160 = ADVANCED_FACE ( 'NONE', ( #221, #113 ), #106, .T. ) ;
#161 = DIRECTION ( 'NONE',  ( 4.275831445896956855E-31, 1.000000000000000000, 1.224646799147353207E-16 ) ) ;
#162 = CALENDAR_DATE ( 2021, 29, 11 ) ;
#163 = PRODUCT_DEFINITION_FORMATION_WITH_SPECIFIED_SOURCE ( 'ANY', '', #302, .NOT_KNOWN. ) ;
#164 = DIRECTION ( 'NONE',  ( 4.275831445896957731E-31, 1.000000000000000000, 1.224646799147353207E-16 ) ) ;
#165 = APPROVAL_DATE_TIME ( #75, #67 ) ;
#166 = DIRECTION ( 'NONE',  ( -3.491481338843133355E-15, 1.224646799147352961E-16, -1.000000000000000000 ) ) ;
#167 = APPLICATION_PROTOCOL_DEFINITION ( 'international standard', 'config_control_design', 1994, #9 ) ;
#168 = FACE_BOUND ( 'NONE', #245, .T. ) ;
#169 = CLOSED_SHELL ( 'NONE', ( #20, #126, #227, #115, #160, #39, #59, #177 ) ) ;
#170 = UNCERTAINTY_MEASURE_WITH_UNIT (LENGTH_MEASURE( 1.000000000000000082E-05 ), #36, 'distance_accuracy_value', 'NONE');
#171 = DIRECTION ( 'NONE',  ( 0.0000000000000000000, 1.000000000000000000, 0.0000000000000000000 ) ) ;
#172 = ORIENTED_EDGE ( 'NONE', *, *, #78, .T. ) ;
#173 = VERTEX_POINT ( 'NONE', #143 ) ;
#174 = EDGE_LOOP ( 'NONE', ( #99 ) ) ;
#175 = VERTEX_POINT ( 'NONE', #265 ) ;
#176 = VERTEX_POINT ( 'NONE', #218 ) ;
#177 = ADVANCED_FACE ( 'NONE', ( #213 ), #249, .F. ) ;
#178 = CIRCLE ( 'NONE', #212, 0.3741624327025949714 ) ;
#179 = APPROVAL_DATE_TIME ( #134, #189 ) ;
#180 = PLANE ( 'NONE',  #136 ) ;
#181 = DIRECTION ( 'NONE',  ( 3.491481338843133355E-15, -1.224646799147352961E-16, 1.000000000000000000 ) ) ;
#182 = AXIS2_PLACEMENT_3D ( 'NONE', #24, #139, #171 ) ;
#183 = CYLINDRICAL_SURFACE ( 'NONE', #146, 0.4649999999999996914 ) ;
#184 = ORIENTED_EDGE ( 'NONE', *, *, #153, .T. ) ;
#185 = DIRECTION ( 'NONE',  ( 0.0000000000000000000, 1.000000000000000000, 0.0000000000000000000 ) ) ;
#186 = DATE_TIME_ROLE ( 'creation_date' ) ;
#187 = APPROVAL_STATUS ( 'not_yet_approved' ) ;
#188 = PLANE ( 'NONE',  #27 ) ;
#189 = APPROVAL ( #187, 'UNSPECIFIED' ) ;
#190 = FACE_OUTER_BOUND ( 'NONE', #63, .T. ) ;
#191 = DIRECTION ( 'NONE',  ( 0.0000000000000000000, 1.000000000000000000, 0.0000000000000000000 ) ) ;
#192 = EDGE_CURVE ( 'NONE', #196, #196, #194, .T. ) ;
#193 = DIRECTION ( 'NONE',  ( -3.714426122251183190E-31, -1.000000000000000000, -1.045518006254104065E-16 ) ) ;
#194 = CIRCLE ( 'NONE', #61, 0.4649999999999992473 ) ;
#195 = CARTESIAN_POINT ( 'NONE',  ( 3.961887347097082447E-14, -1.389643016053601920E-15, 11.34729635533384595 ) ) ;
#196 = VERTEX_POINT ( 'NONE', #141 ) ;
#197 = ORIENTED_EDGE ( 'NONE', *, *, #50, .T. ) ;
#198 = PERSON ( 'UNSPECIFIED', 'UNSPECIFIED', 'UNSPECIFIED', ('UNSPECIFIED'), ('UNSPECIFIED'), ('UNSPECIFIED') ) ;
#199 = EDGE_LOOP ( 'NONE', ( #125 ) ) ;
#200 = ORIENTED_EDGE ( 'NONE', *, *, #192, .F. ) ;
#201 = CARTESIAN_POINT ( 'NONE',  ( 1.745740669421566678E-14, -6.123233995736765296E-16, 5.000000000000000000 ) ) ;
#202 = DIRECTION ( 'NONE',  ( 0.0000000000000000000, 1.000000000000000000, 0.0000000000000000000 ) ) ;
#203 = PERSON_AND_ORGANIZATION ( #198, #60 ) ;
#204 = APPLICATION_CONTEXT ( 'configuration controlled 3d designs of mechanical parts and assemblies' ) ;
#205 = DIRECTION ( 'NONE',  ( -4.275831445896957731E-31, -1.000000000000000000, -1.224646799147352961E-16 ) ) ;
#206 = LOCAL_TIME ( 15, 49, 38.00000000000000000, #238 ) ;
#207 = AXIS2_PLACEMENT_3D ( 'NONE', #258, #276, #164 ) ;
#208 = AXIS2_PLACEMENT_3D ( 'NONE', #225, #157, #161 ) ;
#209 = DIRECTION ( 'NONE',  ( -3.491481338843133355E-15, 1.224646799147352961E-16, -1.000000000000000000 ) ) ;
#210 = DIRECTION ( 'NONE',  ( -4.275831445896957731E-31, -1.000000000000000000, -1.224646799147352961E-16 ) ) ;
#211 = DIRECTION ( 'NONE',  ( 0.0000000000000000000, 0.0000000000000000000, 1.000000000000000000 ) ) ;
#212 = AXIS2_PLACEMENT_3D ( 'NONE', #48, #166, #262 ) ;
#213 = FACE_OUTER_BOUND ( 'NONE', #66, .T. ) ;
#214 = EDGE_CURVE ( 'NONE', #284, #284, #100, .T. ) ;
#215 = DIRECTION ( 'NONE',  ( -3.491481338843133355E-15, 1.224646799147352961E-16, -1.000000000000000000 ) ) ;
#216 = CIRCLE ( 'NONE', #43, 0.5184999999999999609 ) ;
#217 = CIRCLE ( 'NONE', #114, 1.499999999999997558 ) ;
#218 = CARTESIAN_POINT ( 'NONE',  ( 5.951144055233099368E-14, 1.499999999999995559, 17.04475401035638882 ) ) ;
#219 = DIRECTION ( 'NONE',  ( 0.0000000000000000000, 1.000000000000000000, 0.0000000000000000000 ) ) ;
#220 = CLOSED_SHELL ( 'NONE', ( #223, #41, #230, #282 ) ) ;
#221 = FACE_BOUND ( 'NONE', #199, .T. ) ;
#222 = FACE_OUTER_BOUND ( 'NONE', #298, .T. ) ;
#223 = ADVANCED_FACE ( 'NONE', ( #93 ), #188, .F. ) ;
#224 = DIRECTION ( 'NONE',  ( 3.491481338843133355E-15, -1.224646799147352961E-16, 1.000000000000000000 ) ) ;
#225 = CARTESIAN_POINT ( 'NONE',  ( 0.0000000000000000000, 0.0000000000000000000, 0.0000000000000000000 ) ) ;
#226 = CARTESIAN_POINT ( 'NONE',  ( 5.951144055233099368E-14, -2.087380344103695792E-15, 17.04475401035638882 ) ) ;
#227 = ADVANCED_FACE ( 'NONE', ( #62, #16 ), #183, .T. ) ;
#228 = DATE_AND_TIME ( #32, #231 ) ;
#229 = CALENDAR_DATE ( 2021, 29, 11 ) ;
#230 = ADVANCED_FACE ( 'NONE', ( #222, #64 ), #131, .T. ) ;
#231 = LOCAL_TIME ( 15, 49, 38.00000000000000000, #297 ) ;
#232 = CARTESIAN_POINT ( 'NONE',  ( 3.840629472727446691E-14, -1.347111479062088207E-15, 11.00000000000000000 ) ) ;
#233 = CC_DESIGN_DATE_AND_TIME_ASSIGNMENT ( #256, #68, ( #296 ) ) ;
#234 = CC_DESIGN_APPROVAL ( #189, ( #291 ) ) ;
#235 = CARTESIAN_POINT ( 'NONE',  ( 1.778094382859736416E-14, -6.236715546280332998E-16, 5.092664718204937380 ) ) ;
#236 = CONICAL_SURFACE ( 'NONE', #30, 1.200000000000003286, 0.7853981633974453924 ) ;
#237 = APPROVAL_DATE_TIME ( #149, #257 ) ;
#238 = COORDINATED_UNIVERSAL_TIME_OFFSET ( 1, 0, .AHEAD. ) ;
#239 = DIRECTION ( 'NONE',  ( -3.491481338843133355E-15, 1.224646799147352961E-16, -1.000000000000000000 ) ) ;
#240 = DESIGN_CONTEXT ( 'detailed design', #9, 'design' ) ;
#241 = FACE_BOUND ( 'NONE', #156, .T. ) ;
#242 = EDGE_CURVE ( 'NONE', #122, #122, #14, .T. ) ;
#243 = ORIENTED_EDGE ( 'NONE', *, *, #214, .F. ) ;
#244 = FACE_OUTER_BOUND ( 'NONE', #174, .T. ) ;
#245 = EDGE_LOOP ( 'NONE', ( #90 ) ) ;
#246 = CARTESIAN_POINT ( 'NONE',  ( 8.728703347107831416E-16, -3.061616997868381785E-17, 0.2499999999999999445 ) ) ;
#247 = CC_DESIGN_PERSON_AND_ORGANIZATION_ASSIGNMENT ( #65, #158, ( #296 ) ) ;
#248 = CARTESIAN_POINT ( 'NONE',  ( 1.745740669421566678E-14, 3.888127236550855366E-33, 5.000000000000000000 ) ) ;
#249 = PLANE ( 'NONE',  #151 ) ;
#250 = MANIFOLD_SOLID_BREP ( 'Corps-Déplacer/Copier1[1]', #169 ) ;
#251 = ORIENTED_EDGE ( 'NONE', *, *, #101, .T. ) ;
#252 = DIRECTION ( 'NONE',  ( -3.491481338843133355E-15, 1.224646799147352961E-16, -1.000000000000000000 ) ) ;
#253 = TOROIDAL_SURFACE ( 'NONE', #70, 2.465000000000000746, 2.000000000000000444 ) ;
#254 = SHAPE_DEFINITION_REPRESENTATION ( #22, #79 ) ;
#255 = AXIS2_PLACEMENT_3D ( 'NONE', #232, #46, #124 ) ;
#256 = DATE_AND_TIME ( #162, #206 ) ;
#257 = APPROVAL ( #12, 'UNSPECIFIED' ) ;
#258 = CARTESIAN_POINT ( 'NONE',  ( 0.0000000000000000000, 0.0000000000000000000, 0.0000000000000000000 ) ) ;
#259 = CARTESIAN_POINT ( 'NONE',  ( 1.326762908760390423E-13, -4.653657836759941152E-15, 38.00000000000000000 ) ) ;
#260 = LOCAL_TIME ( 15, 49, 38.00000000000000000, #105 ) ;
#261 = AXIS2_PLACEMENT_3D ( 'NONE', #201, #252, #219 ) ;
#262 = DIRECTION ( 'NONE',  ( 4.275831445896957731E-31, 1.000000000000000000, 1.224646799147352961E-16 ) ) ;
#263 = EDGE_CURVE ( 'NONE', #175, #175, #120, .T. ) ;
#264 = EDGE_LOOP ( 'NONE', ( #130 ) ) ;
#265 = CARTESIAN_POINT ( 'NONE',  ( 8.728703347107833388E-16, 0.5184999999999992948, 0.2500000000000000000 ) ) ;
#266 = DIRECTION ( 'NONE',  ( 3.714426122251183190E-31, 1.000000000000000000, 1.045518006254104065E-16 ) ) ;
#267 = ORIENTED_EDGE ( 'NONE', *, *, #153, .F. ) ;
#268 = AXIS2_PLACEMENT_3D ( 'NONE', #5, #54, #29 ) ;
#269 = APPROVAL_PERSON_ORGANIZATION ( #38, #189, #71 ) ;
#270 = CIRCLE ( 'NONE', #182, 1.500000000000003331 ) ;
#271 = VERTEX_POINT ( 'NONE', #123 ) ;
#272 = CALENDAR_DATE ( 2021, 29, 11 ) ;
#273 = AXIS2_PLACEMENT_3D ( 'NONE', #259, #10, #185 ) ;
#274 = CC_DESIGN_PERSON_AND_ORGANIZATION_ASSIGNMENT ( #277, #94, ( #163 ) ) ;
#275 = EDGE_LOOP ( 'NONE', ( #184 ) ) ;
#276 = DIRECTION ( 'NONE',  ( -3.491481338843133355E-15, 1.224646799147352961E-16, -1.000000000000000000 ) ) ;
#277 = PERSON_AND_ORGANIZATION ( #198, #60 ) ;
#278 = FACE_OUTER_BOUND ( 'NONE', #145, .T. ) ;
#279 = CARTESIAN_POINT ( 'NONE',  ( 1.326762908760390423E-13, 8.998558695971099120E-33, 38.00000000000000000 ) ) ;
#280 = PERSON_AND_ORGANIZATION ( #198, #60 ) ;
#281 = DIRECTION ( 'NONE',  ( -3.491481338843133355E-15, 1.224646799147352961E-16, -1.000000000000000000 ) ) ;
#282 = ADVANCED_FACE ( 'NONE', ( #244 ), #25, .T. ) ;
#283 = FACE_BOUND ( 'NONE', #264, .T. ) ;
#284 = VERTEX_POINT ( 'NONE', #23 ) ;
#285 = DIRECTION ( 'NONE',  ( 0.0000000000000000000, 1.000000000000000000, 0.0000000000000000000 ) ) ;
#286 = CARTESIAN_POINT ( 'NONE',  ( 3.840629472727446691E-14, 0.4649999999999988587, 11.00000000000000000 ) ) ;
#287 = CARTESIAN_POINT ( 'NONE',  ( 1.745740669421566678E-14, -6.123233995736765296E-16, 5.000000000000000000 ) ) ;
#288 = DIRECTION ( 'NONE',  ( -3.491481338843133355E-15, 1.224646799147352961E-16, -1.000000000000000000 ) ) ;
#289 = ORIENTED_EDGE ( 'NONE', *, *, #263, .F. ) ;
#290 = AXIS2_PLACEMENT_3D ( 'NONE', #246, #51, #193 ) ;
#291 = PRODUCT_DEFINITION ( 'UNKNOWN', '', #163, #240 ) ;
#292 = ORIENTED_EDGE ( 'NONE', *, *, #214, .T. ) ;
#293 = DIRECTION ( 'NONE',  ( -3.491481338843133355E-15, 1.224646799147352961E-16, -1.000000000000000000 ) ) ;
#294 = APPROVAL_ROLE ( '' ) ;
#295 = CARTESIAN_POINT ( 'NONE',  ( 0.0000000000000000000, 0.0000000000000000000, 0.0000000000000000000 ) ) ;
#296 = SECURITY_CLASSIFICATION ( '', '', #17 ) ;
#297 = COORDINATED_UNIVERSAL_TIME_OFFSET ( 1, 0, .AHEAD. ) ;
#298 = EDGE_LOOP ( 'NONE', ( #289 ) ) ;
#299 = CC_DESIGN_PERSON_AND_ORGANIZATION_ASSIGNMENT ( #35, #154, ( #291 ) ) ;
#300 = CIRCLE ( 'NONE', #95, 0.4953844939755816523 ) ;
#301 = APPROVAL_ROLE ( '' ) ;
#302 = PRODUCT ( '966908', '966908', '', ( #44 ) ) ;
#303 = EDGE_LOOP ( 'NONE', ( #251 ) ) ;
ENDSEC;
END-ISO-10303-21;
