ISO-10303-21;
HEADER;
FILE_DESCRIPTION (( 'STEP AP203' ),
    '1' );
FILE_NAME ('966852.step',
    '2023-09-28T06:25:36',
    ( '' ),
    ( '' ),
    'SwSTEP 2.0',
    'SolidWorks 2022',
    '' );
FILE_SCHEMA (( 'CONFIG_CONTROL_DESIGN' ));
ENDSEC;

DATA;
#1 = DIRECTION ( 'NONE',  ( -1.000000000000000000, 0.000000000000000000, 4.625929269271495577E-15 ) ) ;
#2 = ADVANCED_FACE ( 'NONE', ( #14, #51 ), #204, .T. ) ;
#3 = AXIS2_PLACEMENT_3D ( 'NONE', #335, #34, #153 ) ;
#4 = CARTESIAN_POINT ( 'NONE',  ( 2.094888803305880013E-14, 0.000000000000000000, 6.000000000000000000 ) ) ;
#5 = ADVANCED_FACE ( 'NONE', ( #233, #61 ), #60, .T. ) ;
#6 = FACE_OUTER_BOUND ( 'NONE', #48, .T. ) ;
#7 = DATE_AND_TIME ( #367, #300 ) ;
#8 = EDGE_LOOP ( 'NONE', ( #156 ) ) ;
#9 = DATE_AND_TIME ( #188, #86 ) ;
#10 = AXIS2_PLACEMENT_3D ( 'NONE', #294, #138, #383 ) ;
#11 = EDGE_LOOP ( 'NONE', ( #158 ) ) ;
#12 = APPROVAL_STATUS ( 'not_yet_approved' ) ;
#13 = ORIENTED_EDGE ( 'NONE', *, *, #82, .F. ) ;
#14 = FACE_BOUND ( 'NONE', #253, .T. ) ;
#15 = EDGE_LOOP ( 'NONE', ( #75 ) ) ;
#16 = CIRCLE ( 'NONE', #291, 1.500000000000000000 ) ;
#17 = PRODUCT_DEFINITION_FORMATION_WITH_SPECIFIED_SOURCE ( 'ANY', '', #302, .NOT_KNOWN. ) ;
#18 = DIRECTION ( 'NONE',  ( 1.000000000000000000, 0.000000000000000000, 0.000000000000000000 ) ) ;
#19 = CARTESIAN_POINT ( 'NONE',  ( 2.094888803305879382E-14, 0.000000000000000000, 5.999999999999998224 ) ) ;
#20 = DATE_AND_TIME ( #49, #286 ) ;
#21 = CYLINDRICAL_SURFACE ( 'NONE', #312, 0.4399999999999997247 ) ;
#22 = VERTEX_POINT ( 'NONE', #258 ) ;
#23 = PLANE ( 'NONE',  #381 ) ;
#24 = VERTEX_POINT ( 'NONE', #146 ) ;
#25 = CARTESIAN_POINT ( 'NONE',  ( 1.326762908760390423E-13, 0.000000000000000000, 38.00000000000000000 ) ) ;
#26 = EDGE_CURVE ( 'NONE', #345, #345, #241, .T. ) ;
#27 = VERTEX_POINT ( 'NONE', #65 ) ;
#28 = DIRECTION ( 'NONE',  ( 1.000000000000000000, 0.000000000000000000, -3.659181563082931671E-15 ) ) ;
#29 = CIRCLE ( 'NONE', #245, 0.4740741737109291920 ) ;
#30 = CARTESIAN_POINT ( 'NONE',  ( 0.5163236550358833998, 0.000000000000000000, 0.7055555555555546032 ) ) ;
#31 = DIRECTION ( 'NONE',  ( 3.491481338843133355E-15, -0.000000000000000000, 1.000000000000000000 ) ) ;
#32 = CARTESIAN_POINT ( 'NONE',  ( 1.326762908760390423E-13, 0.000000000000000000, 38.00000000000000000 ) ) ;
#33 = APPROVAL_ROLE ( '' ) ;
#34 = DIRECTION ( 'NONE',  ( 3.491481338843133355E-15, -0.000000000000000000, 1.000000000000000000 ) ) ;
#35 = DIRECTION ( 'NONE',  ( 0.000000000000000000, 0.000000000000000000, 1.000000000000000000 ) ) ;
#36 = AXIS2_PLACEMENT_3D ( 'NONE', #354, #255, #387 ) ;
#37 = LOCAL_TIME ( 8, 25, 36.00000000000000000, #101 ) ;
#38 = DIRECTION ( 'NONE',  ( 3.491481338843133355E-15, -0.000000000000000000, 1.000000000000000000 ) ) ;
#39 = ORIENTED_EDGE ( 'NONE', *, *, #231, .F. ) ;
#40 = PERSON_AND_ORGANIZATION_ROLE ( 'design_owner' ) ;
#41 = EDGE_CURVE ( 'NONE', #313, #313, #391, .T. ) ;
#42 = ORIENTED_EDGE ( 'NONE', *, *, #249, .T. ) ;
#43 = UNCERTAINTY_MEASURE_WITH_UNIT (LENGTH_MEASURE( 1.000000000000000082E-05 ), #190, 'distance_accuracy_value', 'NONE');
#44 = COORDINATED_UNIVERSAL_TIME_OFFSET ( 1, 0, .AHEAD. ) ;
#45 = APPROVAL ( #71, 'UNSPECIFIED' ) ;
#46 = AXIS2_PLACEMENT_3D ( 'NONE', #19, #168, #257 ) ;
#47 = APPROVAL_PERSON_ORGANIZATION ( #223, #322, #33 ) ;
#48 = EDGE_LOOP ( 'NONE', ( #215 ) ) ;
#49 = CALENDAR_DATE ( 2023, 28, 9 ) ;
#50 = EDGE_LOOP ( 'NONE', ( #224 ) ) ;
#51 = FACE_OUTER_BOUND ( 'NONE', #50, .T. ) ;
#52 = AXIS2_PLACEMENT_3D ( 'NONE', #94, #38, #329 ) ;
#53 = DIRECTION ( 'NONE',  ( -1.000000000000000000, 0.000000000000000000, 3.463423606550917424E-15 ) ) ;
#54 = APPROVAL_PERSON_ORGANIZATION ( #339, #45, #344 ) ;
#55 = DIRECTION ( 'NONE',  ( 1.000000000000000000, 0.000000000000000000, -3.501069515317774866E-15 ) ) ;
#56 = COORDINATED_UNIVERSAL_TIME_OFFSET ( 1, 0, .AHEAD. ) ;
#57 = DIRECTION ( 'NONE',  ( 3.491481338843133355E-15, -0.000000000000000000, 1.000000000000000000 ) ) ;
#58 = EDGE_CURVE ( 'NONE', #27, #27, #16, .T. ) ;
#59 = FACE_OUTER_BOUND ( 'NONE', #104, .T. ) ;
#60 = CONICAL_SURFACE ( 'NONE', #167, 0.7199999999999998623, 1.047197551196599186 ) ;
#61 = FACE_OUTER_BOUND ( 'NONE', #282, .T. ) ;
#62 = CARTESIAN_POINT ( 'NONE',  ( 0.7200000000000017497, 0.000000000000000000, 0.5144675925925882298 ) ) ;
#63 = DIRECTION ( 'NONE',  ( 3.491481338843133355E-15, -0.000000000000000000, 1.000000000000000000 ) ) ;
#64 = DIRECTION ( 'NONE',  ( 1.000000000000000000, 0.000000000000000000, -3.464752325703078711E-15 ) ) ;
#65 = CARTESIAN_POINT ( 'NONE',  ( 1.500000000000035083, 0.000000000000000000, 10.08762635361050641 ) ) ;
#66 = DIRECTION ( 'NONE',  ( 3.491481338843133355E-15, -0.000000000000000000, 1.000000000000000000 ) ) ;
#67 = FACE_OUTER_BOUND ( 'NONE', #222, .T. ) ;
#68 = ORIENTED_EDGE ( 'NONE', *, *, #338, .F. ) ;
#69 = APPLICATION_PROTOCOL_DEFINITION ( 'international standard', 'config_control_design', 1994, #377 ) ;
#70 = DIRECTION ( 'NONE',  ( 1.000000000000000000, 0.000000000000000000, -3.569744820421353704E-15 ) ) ;
#71 = APPROVAL_STATUS ( 'not_yet_approved' ) ;
#72 = AXIS2_PLACEMENT_3D ( 'NONE', #273, #368, #297 ) ;
#73 = ADVANCED_FACE ( 'NONE', ( #143, #235 ), #279, .T. ) ;
#74 = DATE_TIME_ROLE ( 'classification_date' ) ;
#75 = ORIENTED_EDGE ( 'NONE', *, *, #324, .T. ) ;
#76 = ADVANCED_FACE ( 'NONE', ( #175, #254 ), #174, .F. ) ;
#77 = EDGE_LOOP ( 'NONE', ( #107 ) ) ;
#78 = CARTESIAN_POINT ( 'NONE',  ( 1.500000000000128120, 0.000000000000000000, 37.69999999999998863 ) ) ;
#79 = CIRCLE ( 'NONE', #285, 0.5163236550358808463 ) ;
#80 = CC_DESIGN_SECURITY_CLASSIFICATION ( #102, ( #17 ) ) ;
#81 = ORIENTED_EDGE ( 'NONE', *, *, #41, .F. ) ;
#82 = EDGE_CURVE ( 'NONE', #293, #293, #91, .T. ) ;
#83 = DIRECTION ( 'NONE',  ( 1.000000000000000000, 0.000000000000000000, -3.449734185181150651E-15 ) ) ;
#84 = ADVANCED_BREP_SHAPE_REPRESENTATION ( '966852', ( #141, #327 ), #229 ) ;
#85 = AXIS2_PLACEMENT_3D ( 'NONE', #394, #124, #337 ) ;
#86 = LOCAL_TIME ( 8, 25, 36.00000000000000000, #44 ) ;
#87 = FACE_OUTER_BOUND ( 'NONE', #11, .T. ) ;
#88 = DIRECTION ( 'NONE',  ( 3.491481338843133355E-15, -0.000000000000000000, 1.000000000000000000 ) ) ;
#89 = VERTEX_POINT ( 'NONE', #62 ) ;
#90 = DIRECTION ( 'NONE',  ( -1.000000000000000000, 0.000000000000000000, 3.501069515317774866E-15 ) ) ;
#91 = CIRCLE ( 'NONE', #112, 1.199999999999993960 ) ;
#92 = DIRECTION ( 'NONE',  ( 1.000000000000000000, 0.000000000000000000, -3.659181563082931671E-15 ) ) ;
#93 = DIRECTION ( 'NONE',  ( 1.000000000000000000, 0.000000000000000000, -3.464752325703078711E-15 ) ) ;
#94 = CARTESIAN_POINT ( 'NONE',  ( 1.385681656353361253E-15, 0.000000000000000000, 0.3968749999999979239 ) ) ;
#95 = AXIS2_PLACEMENT_3D ( 'NONE', #117, #57, #171 ) ;
#96 = ADVANCED_FACE ( 'NONE', ( #59 ), #23, .F. ) ;
#97 = CARTESIAN_POINT ( 'NONE',  ( 1.898897084632405692E-15, 0.000000000000000000, 0.5438657407407441191 ) ) ;
#98 = APPLICATION_PROTOCOL_DEFINITION ( 'international standard', 'config_control_design', 1994, #353 ) ;
#99 = DIRECTION ( 'NONE',  ( 1.000000000000000000, 0.000000000000000000, -3.491481338843133355E-15 ) ) ;
#100 = AXIS2_PLACEMENT_3D ( 'NONE', #148, #265, #182 ) ;
#101 = COORDINATED_UNIVERSAL_TIME_OFFSET ( 1, 0, .AHEAD. ) ;
#102 = SECURITY_CLASSIFICATION ( '', '', #306 ) ;
#103 = EDGE_LOOP ( 'NONE', ( #128 ) ) ;
#104 = EDGE_LOOP ( 'NONE', ( #193 ) ) ;
#105 = DIRECTION ( 'NONE',  ( 1.000000000000000000, 0.000000000000000000, 0.000000000000000000 ) ) ;
#106 = DIRECTION ( 'NONE',  ( 1.000000000000000000, 0.000000000000000000, -3.491481338843133355E-15 ) ) ;
#107 = ORIENTED_EDGE ( 'NONE', *, *, #115, .T. ) ;
#108 = CONICAL_SURFACE ( 'NONE', #52, 0.5163236550358808463, 1.047197551196599630 ) ;
#109 = EDGE_LOOP ( 'NONE', ( #316 ) ) ;
#110 = EDGE_LOOP ( 'NONE', ( #275 ) ) ;
#111 = DIRECTION ( 'NONE',  ( -3.491481338843133355E-15, 0.000000000000000000, -1.000000000000000000 ) ) ;
#112 = AXIS2_PLACEMENT_3D ( 'NONE', #25, #196, #384 ) ;
#113 = FACE_OUTER_BOUND ( 'NONE', #349, .T. ) ;
#114 = CC_DESIGN_APPROVAL ( #45, ( #210 ) ) ;
#115 = EDGE_CURVE ( 'NONE', #22, #22, #272, .T. ) ;
#116 = DIRECTION ( 'NONE',  ( 3.491481338843133355E-15, -0.000000000000000000, 1.000000000000000000 ) ) ;
#117 = CARTESIAN_POINT ( 'NONE',  ( 1.316288464743861212E-13, 0.000000000000000000, 37.69999999999999574 ) ) ;
#118 = CIRCLE ( 'NONE', #340, 0.7199999999999999734 ) ;
#119 = CARTESIAN_POINT ( 'NONE',  ( 2.463434055739325110E-15, 0.000000000000000000, 0.7055555555555564906 ) ) ;
#120 = VERTEX_POINT ( 'NONE', #236 ) ;
#121 = DIRECTION ( 'NONE',  ( 1.000000000000000000, 0.000000000000000000, -3.463423606550917424E-15 ) ) ;
#122 = EDGE_CURVE ( 'NONE', #120, #120, #220, .T. ) ;
#123 = FACE_OUTER_BOUND ( 'NONE', #382, .T. ) ;
#124 = DIRECTION ( 'NONE',  ( 3.491481338843133355E-15, -0.000000000000000000, 1.000000000000000000 ) ) ;
#125 = DIRECTION ( 'NONE',  ( 3.491481338843133355E-15, -0.000000000000000000, 1.000000000000000000 ) ) ;
#126 = PERSON_AND_ORGANIZATION_ROLE ( 'creator' ) ;
#127 = ADVANCED_FACE ( 'NONE', ( #205, #144 ), #21, .T. ) ;
#128 = ORIENTED_EDGE ( 'NONE', *, *, #26, .T. ) ;
#129 = APPROVAL_DATE_TIME ( #9, #45 ) ;
#130 = CC_DESIGN_APPROVAL ( #139, ( #102 ) ) ;
#131 = EDGE_LOOP ( 'NONE', ( #133 ) ) ;
#132 = ORIENTED_EDGE ( 'NONE', *, *, #283, .F. ) ;
#133 = ORIENTED_EDGE ( 'NONE', *, *, #122, .F. ) ;
#134 = SHAPE_DEFINITION_REPRESENTATION ( #266, #84 ) ;
#135 = AXIS2_PLACEMENT_3D ( 'NONE', #358, #301, #92 ) ;
#136 = ORIENTED_EDGE ( 'NONE', *, *, #249, .F. ) ;
#137 = ADVANCED_FACE ( 'NONE', ( #259, #389 ), #320, .T. ) ;
#138 = DIRECTION ( 'NONE',  ( 3.491481338843133355E-15, -0.000000000000000000, 1.000000000000000000 ) ) ;
#139 = APPROVAL ( #200, 'UNSPECIFIED' ) ;
#140 = DIRECTION ( 'NONE',  ( 1.000000000000000000, 0.000000000000000000, 0.000000000000000000 ) ) ;
#141 = MANIFOLD_SOLID_BREP ( 'Corps-Déplacer/Copier1', #172 ) ;
#142 = CIRCLE ( 'NONE', #85, 0.4399450256743362431 ) ;
#143 = FACE_OUTER_BOUND ( 'NONE', #131, .T. ) ;
#144 = FACE_OUTER_BOUND ( 'NONE', #110, .T. ) ;
#145 = ADVANCED_FACE ( 'NONE', ( #113, #87 ), #202, .T. ) ;
#146 = CARTESIAN_POINT ( 'NONE',  ( 0.4399450256743362431, 0.000000000000000000, -1.536059847258808129E-15 ) ) ;
#147 = DIRECTION ( 'NONE',  ( 3.491481338843133355E-15, -0.000000000000000000, 1.000000000000000000 ) ) ;
#148 = CARTESIAN_POINT ( 'NONE',  ( 1.796253998976582368E-15, 0.000000000000000000, 0.5144675925925906723 ) ) ;
#149 = CIRCLE ( 'NONE', #234, 0.7199999999999998623 ) ;
#150 = FACE_BOUND ( 'NONE', #163, .T. ) ;
#151 = FACE_OUTER_BOUND ( 'NONE', #109, .T. ) ;
#152 = APPROVAL_DATE_TIME ( #7, #322 ) ;
#153 = DIRECTION ( 'NONE',  ( 1.000000000000000000, 0.000000000000000000, 0.000000000000000000 ) ) ;
#154 = CARTESIAN_POINT ( 'NONE',  ( 1.077752399385963857E-15, 0.000000000000000000, 0.3086805555555585667 ) ) ;
#155 = CALENDAR_DATE ( 2023, 28, 9 ) ;
#156 = ORIENTED_EDGE ( 'NONE', *, *, #183, .F. ) ;
#157 = CARTESIAN_POINT ( 'NONE',  ( 0.7200000000000006395, 0.000000000000000000, 0.1910879629629632925 ) ) ;
#158 = ORIENTED_EDGE ( 'NONE', *, *, #195, .T. ) ;
#159 = AXIS2_PLACEMENT_3D ( 'NONE', #170, #328, #83 ) ;
#160 =( NAMED_UNIT ( * ) SI_UNIT ( $, .STERADIAN. ) SOLID_ANGLE_UNIT ( ) );
#161 = APPROVAL_PERSON_ORGANIZATION ( #379, #139, #321 ) ;
#162 = DIRECTION ( 'NONE',  ( 3.491481338843133355E-15, -0.000000000000000000, 1.000000000000000000 ) ) ;
#163 = EDGE_LOOP ( 'NONE', ( #13 ) ) ;
#164 = ORIENTED_EDGE ( 'NONE', *, *, #122, .T. ) ;
#165 = EDGE_LOOP ( 'NONE', ( #309 ) ) ;
#166 = ADVANCED_FACE ( 'NONE', ( #232, #325 ), #256, .F. ) ;
#167 = AXIS2_PLACEMENT_3D ( 'NONE', #230, #317, #53 ) ;
#168 = DIRECTION ( 'NONE',  ( 3.491481338843133355E-15, -0.000000000000000000, 1.000000000000000000 ) ) ;
#169 = ADVANCED_FACE ( 'NONE', ( #67, #207 ), #108, .T. ) ;
#170 = CARTESIAN_POINT ( 'NONE',  ( 2.463434055739325110E-15, 0.000000000000000000, 0.7055555555555564906 ) ) ;
#171 = DIRECTION ( 'NONE',  ( 1.000000000000000000, 0.000000000000000000, -4.625929269271495577E-15 ) ) ;
#172 = CLOSED_SHELL ( 'NONE', ( #376, #73, #137, #2, #260, #169, #145, #5, #363, #76, #127, #166, #208, #319, #361, #96 ) ) ;
#173 = AXIS2_PLACEMENT_3D ( 'NONE', #268, #305, #1 ) ;
#174 = PLANE ( 'NONE',  #36 ) ;
#175 = FACE_BOUND ( 'NONE', #346, .T. ) ;
#176 = FACE_OUTER_BOUND ( 'NONE', #378, .T. ) ;
#177 = VERTEX_POINT ( 'NONE', #298 ) ;
#178 = DIRECTION ( 'NONE',  ( 3.491481338843133355E-15, -0.000000000000000000, 1.000000000000000000 ) ) ;
#179 = AXIS2_PLACEMENT_3D ( 'NONE', #374, #162, #106 ) ;
#180 = DIRECTION ( 'NONE',  ( 3.491481338843133355E-15, -0.000000000000000000, 1.000000000000000000 ) ) ;
#181 = DATE_AND_TIME ( #155, #392 ) ;
#182 = DIRECTION ( 'NONE',  ( 1.000000000000000000, 0.000000000000000000, -3.463423606550917030E-15 ) ) ;
#183 = EDGE_CURVE ( 'NONE', #261, #261, #29, .T. ) ;
#184 = ORIENTED_EDGE ( 'NONE', *, *, #218, .T. ) ;
#185 = PERSON_AND_ORGANIZATION_ROLE ( 'design_supplier' ) ;
#186 = CYLINDRICAL_SURFACE ( 'NONE', #72, 1.499999999999998224 ) ;
#187 = AXIS2_PLACEMENT_3D ( 'NONE', #119, #237, #70 ) ;
#188 = CALENDAR_DATE ( 2023, 28, 9 ) ;
#189 = EDGE_LOOP ( 'NONE', ( #281 ) ) ;
#190 =( LENGTH_UNIT ( ) NAMED_UNIT ( * ) SI_UNIT ( .MILLI., .METRE. ) );
#191 = EDGE_LOOP ( 'NONE', ( #42 ) ) ;
#192 = AXIS2_PLACEMENT_3D ( 'NONE', #386, #288, #140 ) ;
#193 = ORIENTED_EDGE ( 'NONE', *, *, #82, .T. ) ;
#194 = ORIENTED_EDGE ( 'NONE', *, *, #195, .F. ) ;
#195 = EDGE_CURVE ( 'NONE', #89, #89, #251, .T. ) ;
#196 = DIRECTION ( 'NONE',  ( 3.491481338843133355E-15, -0.000000000000000000, 1.000000000000000000 ) ) ;
#197 = CONICAL_SURFACE ( 'NONE', #135, 0.4740741737109291920, 0.2617993877991425244 ) ;
#198 = ORGANIZATION ( 'UNSPECIFIED', 'UNSPECIFIED', '' ) ;
#199 = DIRECTION ( 'NONE',  ( 3.491481338843133355E-15, -0.000000000000000000, 1.000000000000000000 ) ) ;
#200 = APPROVAL_STATUS ( 'not_yet_approved' ) ;
#201 = CARTESIAN_POINT ( 'NONE',  ( 1.326762908760390423E-13, 0.000000000000000000, 38.00000000000000000 ) ) ;
#202 = CYLINDRICAL_SURFACE ( 'NONE', #308, 0.7199999999999999734 ) ;
#203 = CARTESIAN_POINT ( 'NONE',  ( 0.5163236550358819565, 0.000000000000000000, 0.3086805555555567904 ) ) ;
#204 = CONICAL_SURFACE ( 'NONE', #390, 0.7199999999999999734, 1.047197551196599630 ) ;
#205 = FACE_OUTER_BOUND ( 'NONE', #372, .T. ) ;
#206 = CARTESIAN_POINT ( 'NONE',  ( 1.200000000000126743, 0.000000000000000000, 37.99999999999999289 ) ) ;
#207 = FACE_BOUND ( 'NONE', #165, .T. ) ;
#208 = ADVANCED_FACE ( 'NONE', ( #123, #209 ), #197, .T. ) ;
#209 = FACE_BOUND ( 'NONE', #310, .T. ) ;
#210 = PRODUCT_DEFINITION ( 'UNKNOWN', '', #17, #278 ) ;
#211 = PERSON ( 'UNSPECIFIED', 'UNSPECIFIED', 'UNSPECIFIED', ('UNSPECIFIED'), ('UNSPECIFIED'), ('UNSPECIFIED') ) ;
#212 = CARTESIAN_POINT ( 'NONE',  ( 0.5163236550358831778, 0.000000000000000000, 0.6614583333333349247 ) ) ;
#213 = CARTESIAN_POINT ( 'NONE',  ( 2.185254989917141649E-14, 0.000000000000000000, 6.258819045102510970 ) ) ;
#214 = CYLINDRICAL_SURFACE ( 'NONE', #3, 0.5163236550358808463 ) ;
#215 = ORIENTED_EDGE ( 'NONE', *, *, #26, .F. ) ;
#216 = PERSON_AND_ORGANIZATION ( #211, #198 ) ;
#217 = DIRECTION ( 'NONE',  ( 1.000000000000000000, 0.000000000000000000, -3.569744820421353704E-15 ) ) ;
#218 = EDGE_CURVE ( 'NONE', #263, #263, #149, .T. ) ;
#219 = PERSON_AND_ORGANIZATION ( #211, #198 ) ;
#220 = CIRCLE ( 'NONE', #356, 0.7199999999999999734 ) ;
#221 = CALENDAR_DATE ( 2023, 28, 9 ) ;
#222 = EDGE_LOOP ( 'NONE', ( #194 ) ) ;
#223 = PERSON_AND_ORGANIZATION ( #211, #198 ) ;
#224 = ORIENTED_EDGE ( 'NONE', *, *, #338, .T. ) ;
#225 = MECHANICAL_CONTEXT ( 'NONE', #353, 'mechanical' ) ;
#226 = EDGE_LOOP ( 'NONE', ( #132 ) ) ;
#227 = ORIENTED_EDGE ( 'NONE', *, *, #324, .F. ) ;
#228 = DIRECTION ( 'NONE',  ( -1.000000000000000000, 0.000000000000000000, 3.491481338843133355E-15 ) ) ;
#229 =( GEOMETRIC_REPRESENTATION_CONTEXT ( 3 ) GLOBAL_UNCERTAINTY_ASSIGNED_CONTEXT ( ( #43 ) ) GLOBAL_UNIT_ASSIGNED_CONTEXT ( ( #190, #343, #160 ) ) REPRESENTATION_CONTEXT ( 'NONE', 'WORKASPACE' ) );
#230 = CARTESIAN_POINT ( 'NONE',  ( 1.898897084632405692E-15, 0.000000000000000000, 0.5438657407407441191 ) ) ;
#231 = EDGE_CURVE ( 'NONE', #359, #359, #318, .T. ) ;
#232 = FACE_OUTER_BOUND ( 'NONE', #8, .T. ) ;
#233 = FACE_BOUND ( 'NONE', #226, .T. ) ;
#234 = AXIS2_PLACEMENT_3D ( 'NONE', #97, #331, #121 ) ;
#235 = FACE_BOUND ( 'NONE', #191, .T. ) ;
#236 = CARTESIAN_POINT ( 'NONE',  ( 0.7200000000000005285, 0.000000000000000000, 0.1616898148148099013 ) ) ;
#237 = DIRECTION ( 'NONE',  ( 3.491481338843133355E-15, -0.000000000000000000, 1.000000000000000000 ) ) ;
#238 = CC_DESIGN_PERSON_AND_ORGANIZATION_ASSIGNMENT ( #246, #280, ( #210 ) ) ;
#239 = CYLINDRICAL_SURFACE ( 'NONE', #326, 0.5163236550358808463 ) ;
#240 = FACE_OUTER_BOUND ( 'NONE', #247, .T. ) ;
#241 = CIRCLE ( 'NONE', #95, 1.499999999999996669 ) ;
#242 = CARTESIAN_POINT ( 'NONE',  ( 2.309469427255626412E-15, 0.000000000000000000, 0.6614583333333368120 ) ) ;
#243 = PERSON_AND_ORGANIZATION ( #211, #198 ) ;
#244 = ORIENTED_EDGE ( 'NONE', *, *, #183, .T. ) ;
#245 = AXIS2_PLACEMENT_3D ( 'NONE', #213, #180, #28 ) ;
#246 = PERSON_AND_ORGANIZATION ( #211, #198 ) ;
#247 = EDGE_LOOP ( 'NONE', ( #227 ) ) ;
#248 = ORIENTED_EDGE ( 'NONE', *, *, #283, .T. ) ;
#249 = EDGE_CURVE ( 'NONE', #24, #24, #142, .T. ) ;
#250 = EDGE_LOOP ( 'NONE', ( #68 ) ) ;
#251 = CIRCLE ( 'NONE', #100, 0.7199999999999999734 ) ;
#252 = APPROVAL_DATE_TIME ( #20, #139 ) ;
#253 = EDGE_LOOP ( 'NONE', ( #39 ) ) ;
#254 = FACE_OUTER_BOUND ( 'NONE', #15, .T. ) ;
#255 = DIRECTION ( 'NONE',  ( -3.491481338843133355E-15, 0.000000000000000000, -1.000000000000000000 ) ) ;
#256 = TOROIDAL_SURFACE ( 'NONE', #264, 1.439999999999999503, 1.000000000000000000 ) ;
#257 = DIRECTION ( 'NONE',  ( 1.000000000000000000, 0.000000000000000000, -3.942553354492748560E-15 ) ) ;
#258 = CARTESIAN_POINT ( 'NONE',  ( 0.4400000000000203193, 0.000000000000000000, 5.999999999999996447 ) ) ;
#259 = FACE_OUTER_BOUND ( 'NONE', #250, .T. ) ;
#260 = ADVANCED_FACE ( 'NONE', ( #176, #307 ), #239, .T. ) ;
#261 = VERTEX_POINT ( 'NONE', #355 ) ;
#262 = DIRECTION ( 'NONE',  ( -3.491481338843133355E-15, 0.000000000000000000, -1.000000000000000000 ) ) ;
#263 = VERTEX_POINT ( 'NONE', #393 ) ;
#264 = AXIS2_PLACEMENT_3D ( 'NONE', #4, #395, #99 ) ;
#265 = DIRECTION ( 'NONE',  ( 3.491481338843133355E-15, -0.000000000000000000, 1.000000000000000000 ) ) ;
#266 = PRODUCT_DEFINITION_SHAPE ( 'NONE', 'NONE',  #210 ) ;
#267 = DIRECTION ( 'NONE',  ( 1.000000000000000000, 0.000000000000000000, 0.000000000000000000 ) ) ;
#268 = CARTESIAN_POINT ( 'NONE',  ( 1.316288464743861212E-13, 0.000000000000000000, 37.69999999999999574 ) ) ;
#269 = PRODUCT_RELATED_PRODUCT_CATEGORY ( 'detail', '', ( #302 ) ) ;
#270 = PERSON_AND_ORGANIZATION ( #211, #198 ) ;
#271 = FACE_OUTER_BOUND ( 'NONE', #342, .T. ) ;
#272 = CIRCLE ( 'NONE', #46, 0.4399999999999993916 ) ;
#273 = CARTESIAN_POINT ( 'NONE',  ( 1.326762908760390423E-13, 0.000000000000000000, 38.00000000000000000 ) ) ;
#274 = COORDINATED_UNIVERSAL_TIME_OFFSET ( 1, 0, .AHEAD. ) ;
#275 = ORIENTED_EDGE ( 'NONE', *, *, #41, .T. ) ;
#276 = CC_DESIGN_PERSON_AND_ORGANIZATION_ASSIGNMENT ( #243, #370, ( #102 ) ) ;
#277 = EDGE_LOOP ( 'NONE', ( #248 ) ) ;
#278 = DESIGN_CONTEXT ( 'detailed design', #377, 'design' ) ;
#279 = CONICAL_SURFACE ( 'NONE', #10, 0.4399450256743362431, 1.047197551196606291 ) ;
#280 = PERSON_AND_ORGANIZATION_ROLE ( 'creator' ) ;
#281 = ORIENTED_EDGE ( 'NONE', *, *, #231, .T. ) ;
#282 = EDGE_LOOP ( 'NONE', ( #184 ) ) ;
#283 = EDGE_CURVE ( 'NONE', #388, #388, #371, .T. ) ;
#284 = ORIENTED_EDGE ( 'NONE', *, *, #218, .F. ) ;
#285 = AXIS2_PLACEMENT_3D ( 'NONE', #360, #125, #93 ) ;
#286 = LOCAL_TIME ( 8, 25, 36.00000000000000000, #56 ) ;
#287 = CARTESIAN_POINT ( 'NONE',  ( 1.326762908760390423E-13, 0.000000000000000000, 38.00000000000000000 ) ) ;
#288 = DIRECTION ( 'NONE',  ( 3.491481338843133355E-15, -0.000000000000000000, 1.000000000000000000 ) ) ;
#289 = CC_DESIGN_PERSON_AND_ORGANIZATION_ASSIGNMENT ( #219, #40, ( #302 ) ) ;
#290 = CARTESIAN_POINT ( 'NONE',  ( 1.326762908760390423E-13, 1.199999999999993960, 38.00000000000000000 ) ) ;
#291 = AXIS2_PLACEMENT_3D ( 'NONE', #295, #199, #352 ) ;
#292 = CC_DESIGN_APPROVAL ( #322, ( #17 ) ) ;
#293 = VERTEX_POINT ( 'NONE', #206 ) ;
#294 = CARTESIAN_POINT ( 'NONE',  ( 0.000000000000000000, 0.000000000000000000, 0.000000000000000000 ) ) ;
#295 = CARTESIAN_POINT ( 'NONE',  ( 3.522075916685330423E-14, 0.000000000000000000, 10.08762635361051174 ) ) ;
#296 = CC_DESIGN_DATE_AND_TIME_ASSIGNMENT ( #341, #74, ( #102 ) ) ;
#297 = DIRECTION ( 'NONE',  ( 1.000000000000000000, 0.000000000000000000, -4.625929269271490844E-15 ) ) ;
#298 = CARTESIAN_POINT ( 'NONE',  ( 0.5163236550358822896, 0.000000000000000000, 0.3968749999999961475 ) ) ;
#299 = CIRCLE ( 'NONE', #187, 0.5163236550358808463 ) ;
#300 = LOCAL_TIME ( 8, 25, 36.00000000000000000, #274 ) ;
#301 = DIRECTION ( 'NONE',  ( 3.491481338843133355E-15, -0.000000000000000000, 1.000000000000000000 ) ) ;
#302 = PRODUCT ( '966852', '966852', '', ( #225 ) ) ;
#303 = DIRECTION ( 'NONE',  ( 1.000000000000000000, 0.000000000000000000, -3.501069515317774866E-15 ) ) ;
#304 = DATE_TIME_ROLE ( 'creation_date' ) ;
#305 = DIRECTION ( 'NONE',  ( -3.491481338843133355E-15, 0.000000000000000000, -1.000000000000000000 ) ) ;
#306 = SECURITY_CLASSIFICATION_LEVEL ( 'unclassified' ) ;
#307 = FACE_OUTER_BOUND ( 'NONE', #189, .T. ) ;
#308 = AXIS2_PLACEMENT_3D ( 'NONE', #201, #116, #323 ) ;
#309 = ORIENTED_EDGE ( 'NONE', *, *, #333, .T. ) ;
#310 = EDGE_LOOP ( 'NONE', ( #244 ) ) ;
#311 = ORIENTED_EDGE ( 'NONE', *, *, #115, .F. ) ;
#312 = AXIS2_PLACEMENT_3D ( 'NONE', #287, #147, #18 ) ;
#313 = VERTEX_POINT ( 'NONE', #357 ) ;
#314 = CC_DESIGN_DATE_AND_TIME_ASSIGNMENT ( #181, #304, ( #210 ) ) ;
#315 = ORIENTED_EDGE ( 'NONE', *, *, #333, .F. ) ;
#316 = ORIENTED_EDGE ( 'NONE', *, *, #58, .T. ) ;
#317 = DIRECTION ( 'NONE',  ( -3.491481338843133355E-15, 0.000000000000000000, -1.000000000000000000 ) ) ;
#318 = CIRCLE ( 'NONE', #385, 0.5163236550358808463 ) ;
#319 = ADVANCED_FACE ( 'NONE', ( #6, #151 ), #186, .T. ) ;
#320 = CYLINDRICAL_SURFACE ( 'NONE', #192, 0.7199999999999999734 ) ;
#321 = APPROVAL_ROLE ( '' ) ;
#322 = APPROVAL ( #12, 'UNSPECIFIED' ) ;
#323 = DIRECTION ( 'NONE',  ( 1.000000000000000000, 0.000000000000000000, 0.000000000000000000 ) ) ;
#324 = EDGE_CURVE ( 'NONE', #330, #330, #299, .T. ) ;
#325 = FACE_OUTER_BOUND ( 'NONE', #77, .T. ) ;
#326 = AXIS2_PLACEMENT_3D ( 'NONE', #32, #66, #267 ) ;
#327 = AXIS2_PLACEMENT_3D ( 'NONE', #336, #35, #105 ) ;
#328 = DIRECTION ( 'NONE',  ( 3.491481338843133355E-15, -0.000000000000000000, 1.000000000000000000 ) ) ;
#329 = DIRECTION ( 'NONE',  ( 1.000000000000000000, 0.000000000000000000, -3.464752325703078711E-15 ) ) ;
#330 = VERTEX_POINT ( 'NONE', #30 ) ;
#331 = DIRECTION ( 'NONE',  ( 3.491481338843133355E-15, -0.000000000000000000, 1.000000000000000000 ) ) ;
#332 = VERTEX_POINT ( 'NONE', #157 ) ;
#333 = EDGE_CURVE ( 'NONE', #177, #177, #79, .T. ) ;
#334 = CARTESIAN_POINT ( 'NONE',  ( 6.671800567627430381E-16, 0.000000000000000000, 0.1910879629629658183 ) ) ;
#335 = CARTESIAN_POINT ( 'NONE',  ( 1.326762908760390423E-13, 0.000000000000000000, 38.00000000000000000 ) ) ;
#336 = CARTESIAN_POINT ( 'NONE',  ( 0.000000000000000000, 0.000000000000000000, 0.000000000000000000 ) ) ;
#337 = DIRECTION ( 'NONE',  ( 1.000000000000000000, 0.000000000000000000, -3.491481338843133355E-15 ) ) ;
#338 = EDGE_CURVE ( 'NONE', #332, #332, #118, .T. ) ;
#339 = PERSON_AND_ORGANIZATION ( #211, #198 ) ;
#340 = AXIS2_PLACEMENT_3D ( 'NONE', #334, #31, #303 ) ;
#341 = DATE_AND_TIME ( #221, #37 ) ;
#342 = EDGE_LOOP ( 'NONE', ( #136 ) ) ;
#343 =( NAMED_UNIT ( * ) PLANE_ANGLE_UNIT ( ) SI_UNIT ( $, .RADIAN. ) );
#344 = APPROVAL_ROLE ( '' ) ;
#345 = VERTEX_POINT ( 'NONE', #78 ) ;
#346 = EDGE_LOOP ( 'NONE', ( #81 ) ) ;
#347 = CONICAL_SURFACE ( 'NONE', #173, 1.499999999999996669, 0.7853981633974497223 ) ;
#348 = CARTESIAN_POINT ( 'NONE',  ( 6.671800567627430381E-16, 0.000000000000000000, 0.1910879629629658183 ) ) ;
#349 = EDGE_LOOP ( 'NONE', ( #284 ) ) ;
#350 = CARTESIAN_POINT ( 'NONE',  ( 5.645369711069196157E-16, 0.000000000000000000, 0.1616898148148124270 ) ) ;
#351 = CC_DESIGN_PERSON_AND_ORGANIZATION_ASSIGNMENT ( #216, #185, ( #17 ) ) ;
#352 = DIRECTION ( 'NONE',  ( 1.000000000000000000, 0.000000000000000000, -3.469446951953614189E-15 ) ) ;
#353 = APPLICATION_CONTEXT ( 'configuration controlled 3d designs of mechanical parts and assemblies' ) ;
#354 = CARTESIAN_POINT ( 'NONE',  ( 2.463434055739323533E-15, 0.5163236550358808463, 0.7055555555555560465 ) ) ;
#355 = CARTESIAN_POINT ( 'NONE',  ( 0.4740741737109510634, 0.000000000000000000, 6.258819045102509193 ) ) ;
#356 = AXIS2_PLACEMENT_3D ( 'NONE', #350, #88, #55 ) ;
#357 = CARTESIAN_POINT ( 'NONE',  ( 0.4400000000000024447, 0.000000000000000000, 0.7055555555555549363 ) ) ;
#358 = CARTESIAN_POINT ( 'NONE',  ( 2.185254989917141649E-14, 0.000000000000000000, 6.258819045102510970 ) ) ;
#359 = VERTEX_POINT ( 'NONE', #203 ) ;
#360 = CARTESIAN_POINT ( 'NONE',  ( 1.385681656353361253E-15, 0.000000000000000000, 0.3968749999999979239 ) ) ;
#361 = ADVANCED_FACE ( 'NONE', ( #150, #362 ), #347, .T. ) ;
#362 = FACE_OUTER_BOUND ( 'NONE', #103, .T. ) ;
#363 = ADVANCED_FACE ( 'NONE', ( #240, #366 ), #214, .T. ) ;
#364 = CC_DESIGN_PERSON_AND_ORGANIZATION_ASSIGNMENT ( #270, #126, ( #17 ) ) ;
#365 = AXIS2_PLACEMENT_3D ( 'NONE', #242, #178, #217 ) ;
#366 = FACE_OUTER_BOUND ( 'NONE', #277, .T. ) ;
#367 = CALENDAR_DATE ( 2023, 28, 9 ) ;
#368 = DIRECTION ( 'NONE',  ( 3.491481338843133355E-15, -0.000000000000000000, 1.000000000000000000 ) ) ;
#369 = PLANE ( 'NONE',  #179 ) ;
#370 = PERSON_AND_ORGANIZATION_ROLE ( 'classification_officer' ) ;
#371 = CIRCLE ( 'NONE', #365, 0.5163236550358808463 ) ;
#372 = EDGE_LOOP ( 'NONE', ( #311 ) ) ;
#373 = COORDINATED_UNIVERSAL_TIME_OFFSET ( 1, 0, .AHEAD. ) ;
#374 = CARTESIAN_POINT ( 'NONE',  ( -1.712298598636404673E-33, 0.000000000000000000, -4.904218102462370549E-19 ) ) ;
#375 = ORIENTED_EDGE ( 'NONE', *, *, #58, .F. ) ;
#376 = ADVANCED_FACE ( 'NONE', ( #271 ), #369, .F. ) ;
#377 = APPLICATION_CONTEXT ( 'configuration controlled 3d designs of mechanical parts and assemblies' ) ;
#378 = EDGE_LOOP ( 'NONE', ( #315 ) ) ;
#379 = PERSON_AND_ORGANIZATION ( #211, #198 ) ;
#380 = EDGE_LOOP ( 'NONE', ( #164 ) ) ;
#381 = AXIS2_PLACEMENT_3D ( 'NONE', #290, #111, #228 ) ;
#382 = EDGE_LOOP ( 'NONE', ( #375 ) ) ;
#383 = DIRECTION ( 'NONE',  ( 1.000000000000000000, 0.000000000000000000, -3.491481338843133355E-15 ) ) ;
#384 = DIRECTION ( 'NONE',  ( 1.000000000000000000, 0.000000000000000000, -5.782411586589386432E-15 ) ) ;
#385 = AXIS2_PLACEMENT_3D ( 'NONE', #154, #63, #64 ) ;
#386 = CARTESIAN_POINT ( 'NONE',  ( 1.326762908760390423E-13, 0.000000000000000000, 38.00000000000000000 ) ) ;
#387 = DIRECTION ( 'NONE',  ( -1.000000000000000000, 0.000000000000000000, 3.491481338843133355E-15 ) ) ;
#388 = VERTEX_POINT ( 'NONE', #212 ) ;
#389 = FACE_OUTER_BOUND ( 'NONE', #380, .T. ) ;
#390 = AXIS2_PLACEMENT_3D ( 'NONE', #348, #262, #90 ) ;
#391 = CIRCLE ( 'NONE', #159, 0.4400000000000000022 ) ;
#392 = LOCAL_TIME ( 8, 25, 36.00000000000000000, #373 ) ;
#393 = CARTESIAN_POINT ( 'NONE',  ( 0.7200000000000017497, 0.000000000000000000, 0.5438657407407415656 ) ) ;
#394 = CARTESIAN_POINT ( 'NONE',  ( 0.000000000000000000, 0.000000000000000000, 0.000000000000000000 ) ) ;
#395 = DIRECTION ( 'NONE',  ( 3.491481338843133355E-15, -0.000000000000000000, 1.000000000000000000 ) ) ;
ENDSEC;
END-ISO-10303-21;
