ISO-10303-21;
HEADER;
FILE_DESCRIPTION (( 'STEP AP203' ),
    '1' );
FILE_NAME ('966851.step',
    '2023-09-28T06:25:36',
    ( '' ),
    ( '' ),
    'SwSTEP 2.0',
    'SolidWorks 2022',
    '' );
FILE_SCHEMA (( 'CONFIG_CONTROL_DESIGN' ));
ENDSEC;

DATA;
#1 = VERTEX_POINT ( 'NONE', #116 ) ;
#2 = CYLINDRICAL_SURFACE ( 'NONE', #390, 0.4658641119153659194 ) ;
#3 = ADVANCED_FACE ( 'NONE', ( #19, #109 ), #4, .T. ) ;
#4 = CONICAL_SURFACE ( 'NONE', #193, 0.4190741737109293097, 0.2617993877991426910 ) ;
#5 = FACE_OUTER_BOUND ( 'NONE', #196, .T. ) ;
#6 = CARTESIAN_POINT ( 'NONE',  ( 2.771363312706737101E-15, 0.4658641119153659194, 0.7937499999999999556 ) ) ;
#7 = DIRECTION ( 'NONE',  ( 3.491481338843133355E-15, -0.000000000000000000, 1.000000000000000000 ) ) ;
#8 = CC_DESIGN_PERSON_AND_ORGANIZATION_ASSIGNMENT ( #154, #10, ( #342 ) ) ;
#9 = DATE_AND_TIME ( #224, #307 ) ;
#10 = PERSON_AND_ORGANIZATION_ROLE ( 'creator' ) ;
#11 = CIRCLE ( 'NONE', #237, 0.4190741737109293097 ) ;
#12 = EDGE_LOOP ( 'NONE', ( #137 ) ) ;
#13 = ORIENTED_EDGE ( 'NONE', *, *, #51, .F. ) ;
#14 = CONICAL_SURFACE ( 'NONE', #122, 0.4658641119153659749, 1.047197551196602294 ) ;
#15 = CIRCLE ( 'NONE', #162, 0.4658641119153659194 ) ;
#16 = APPROVAL_STATUS ( 'not_yet_approved' ) ;
#17 = ORIENTED_EDGE ( 'NONE', *, *, #53, .T. ) ;
#18 = COORDINATED_UNIVERSAL_TIME_OFFSET ( 1, 0, .AHEAD. ) ;
#19 = FACE_OUTER_BOUND ( 'NONE', #230, .T. ) ;
#20 = CC_DESIGN_PERSON_AND_ORGANIZATION_ASSIGNMENT ( #254, #226, ( #342 ) ) ;
#21 = EDGE_LOOP ( 'NONE', ( #263 ) ) ;
#22 = DIRECTION ( 'NONE',  ( 3.491481338843133355E-15, -0.000000000000000000, 1.000000000000000000 ) ) ;
#23 = CC_DESIGN_DATE_AND_TIME_ASSIGNMENT ( #135, #321, ( #149 ) ) ;
#24 = FACE_BOUND ( 'NONE', #136, .T. ) ;
#25 = CYLINDRICAL_SURFACE ( 'NONE', #326, 0.4658641119153659194 ) ;
#26 = ADVANCED_FACE ( 'NONE', ( #215, #240 ), #212, .T. ) ;
#27 = DIRECTION ( 'NONE',  ( -1.000000000000000000, 0.000000000000000000, 3.491481338843133355E-15 ) ) ;
#28 = CARTESIAN_POINT ( 'NONE',  ( 1.558891863397540531E-15, 0.000000000000000000, 0.4464843750000002665 ) ) ;
#29 = AXIS2_PLACEMENT_3D ( 'NONE', #217, #89, #276 ) ;
#30 = DIRECTION ( 'NONE',  ( -3.491481338843133355E-15, 0.000000000000000000, -1.000000000000000000 ) ) ;
#31 = FACE_OUTER_BOUND ( 'NONE', #21, .T. ) ;
#32 = DIRECTION ( 'NONE',  ( 1.000000000000000000, 0.000000000000000000, -3.469446951953614189E-15 ) ) ;
#33 = CARTESIAN_POINT ( 'NONE',  ( 2.136259220211447332E-15, 0.000000000000000000, 0.6118489583333344140 ) ) ;
#34 = DIRECTION ( 'NONE',  ( 3.491481338843133355E-15, -0.000000000000000000, 1.000000000000000000 ) ) ;
#35 = DIRECTION ( 'NONE',  ( 3.491481338843133355E-15, -0.000000000000000000, 1.000000000000000000 ) ) ;
#36 = AXIS2_PLACEMENT_3D ( 'NONE', #155, #140, #107 ) ;
#37 = APPLICATION_PROTOCOL_DEFINITION ( 'international standard', 'config_control_design', 1994, #138 ) ;
#38 = ADVANCED_FACE ( 'NONE', ( #271, #302 ), #92, .T. ) ;
#39 = APPROVAL_DATE_TIME ( #309, #76 ) ;
#40 = PLANE ( 'NONE',  #152 ) ;
#41 =( GEOMETRIC_REPRESENTATION_CONTEXT ( 3 ) GLOBAL_UNCERTAINTY_ASSIGNED_CONTEXT ( ( #246 ) ) GLOBAL_UNIT_ASSIGNED_CONTEXT ( ( #221, #187, #128 ) ) REPRESENTATION_CONTEXT ( 'NONE', 'WORKASPACE' ) );
#42 = CARTESIAN_POINT ( 'NONE',  ( 1.500000000000035971, 0.000000000000000000, 10.29288914802679678 ) ) ;
#43 = ORIENTED_EDGE ( 'NONE', *, *, #108, .F. ) ;
#44 = EDGE_CURVE ( 'NONE', #270, #270, #377, .T. ) ;
#45 = EDGE_LOOP ( 'NONE', ( #375 ) ) ;
#46 = APPROVAL_ROLE ( '' ) ;
#47 = ADVANCED_FACE ( 'NONE', ( #238, #331 ), #2, .T. ) ;
#48 = ORIENTED_EDGE ( 'NONE', *, *, #325, .F. ) ;
#49 = CIRCLE ( 'NONE', #223, 0.3849999999999995093 ) ;
#50 = EDGE_LOOP ( 'NONE', ( #350 ) ) ;
#51 = EDGE_CURVE ( 'NONE', #392, #392, #306, .T. ) ;
#52 = EDGE_LOOP ( 'NONE', ( #382 ) ) ;
#53 = EDGE_CURVE ( 'NONE', #91, #91, #156, .T. ) ;
#54 = CARTESIAN_POINT ( 'NONE',  ( 1.326762908760390423E-13, 0.000000000000000000, 38.00000000000000000 ) ) ;
#55 = AXIS2_PLACEMENT_3D ( 'NONE', #205, #294, #58 ) ;
#56 = DIRECTION ( 'NONE',  ( 3.491481338843133355E-15, -0.000000000000000000, 1.000000000000000000 ) ) ;
#57 = PLANE ( 'NONE',  #177 ) ;
#58 = DIRECTION ( 'NONE',  ( 1.000000000000000000, 0.000000000000000000, -3.491481338843133355E-15 ) ) ;
#59 = CYLINDRICAL_SURFACE ( 'NONE', #29, 1.499999999999998224 ) ;
#60 = DIRECTION ( 'NONE',  ( 1.000000000000000000, 0.000000000000000000, -3.490939132533370434E-15 ) ) ;
#61 = AXIS2_PLACEMENT_3D ( 'NONE', #216, #34, #268 ) ;
#62 = DIRECTION ( 'NONE',  ( -1.000000000000000000, 0.000000000000000000, 4.625929269271495577E-15 ) ) ;
#63 = DIRECTION ( 'NONE',  ( 1.000000000000000000, 0.000000000000000000, -5.782411586589386432E-15 ) ) ;
#64 = VERTEX_POINT ( 'NONE', #387 ) ;
#65 = CARTESIAN_POINT ( 'NONE',  ( 0.6950000000000019496, 0.000000000000000000, 0.5787760416666638541 ) ) ;
#66 = DIRECTION ( 'NONE',  ( 1.000000000000000000, 0.000000000000000000, 0.000000000000000000 ) ) ;
#67 = CLOSED_SHELL ( 'NONE', ( #182, #267, #164, #303, #85, #133, #38, #115, #47, #255, #26, #120, #3, #320, #328, #334 ) ) ;
#68 = DIRECTION ( 'NONE',  ( 1.000000000000000000, 0.000000000000000000, -3.490939132533370829E-15 ) ) ;
#69 = EDGE_CURVE ( 'NONE', #214, #214, #318, .T. ) ;
#70 = DIRECTION ( 'NONE',  ( 0.000000000000000000, 0.000000000000000000, 1.000000000000000000 ) ) ;
#71 = PERSON_AND_ORGANIZATION ( #213, #264 ) ;
#72 = FACE_OUTER_BOUND ( 'NONE', #229, .T. ) ;
#73 = PERSON_AND_ORGANIZATION_ROLE ( 'classification_officer' ) ;
#74 = ORIENTED_EDGE ( 'NONE', *, *, #325, .T. ) ;
#75 = EDGE_LOOP ( 'NONE', ( #257 ) ) ;
#76 = APPROVAL ( #102, 'UNSPECIFIED' ) ;
#77 = ORIENTED_EDGE ( 'NONE', *, *, #51, .T. ) ;
#78 = ADVANCED_BREP_SHAPE_REPRESENTATION ( '966851', ( #144, #384 ), #41 ) ;
#79 = EDGE_LOOP ( 'NONE', ( #13 ) ) ;
#80 = CIRCLE ( 'NONE', #127, 0.4658641119153659194 ) ;
#81 = APPROVAL_PERSON_ORGANIZATION ( #289, #345, #46 ) ;
#82 = DIRECTION ( 'NONE',  ( 1.000000000000000000, 0.000000000000000000, -4.139418711049924123E-15 ) ) ;
#83 = FACE_OUTER_BOUND ( 'NONE', #348, .T. ) ;
#84 = CARTESIAN_POINT ( 'NONE',  ( 1.316288464743861212E-13, 0.000000000000000000, 37.69999999999999574 ) ) ;
#85 = ADVANCED_FACE ( 'NONE', ( #31, #395 ), #25, .T. ) ;
#86 = LOCAL_TIME ( 8, 25, 36.00000000000000000, #153 ) ;
#87 = VERTEX_POINT ( 'NONE', #208 ) ;
#88 = FACE_OUTER_BOUND ( 'NONE', #79, .T. ) ;
#89 = DIRECTION ( 'NONE',  ( 3.491481338843133355E-15, -0.000000000000000000, 1.000000000000000000 ) ) ;
#90 = DIRECTION ( 'NONE',  ( 3.491481338843133355E-15, -0.000000000000000000, 1.000000000000000000 ) ) ;
#91 = VERTEX_POINT ( 'NONE', #172 ) ;
#92 = CYLINDRICAL_SURFACE ( 'NONE', #383, 0.6949999999999998401 ) ;
#93 = CIRCLE ( 'NONE', #312, 0.3850000000000000089 ) ;
#94 = DIRECTION ( 'NONE',  ( -3.491481338843133355E-15, 0.000000000000000000, -1.000000000000000000 ) ) ;
#95 = CARTESIAN_POINT ( 'NONE',  ( 2.598153105662567486E-15, 0.000000000000000000, 0.7441406250000004441 ) ) ;
#96 = PRODUCT_DEFINITION ( 'UNKNOWN', '', #342, #185 ) ;
#97 = DIRECTION ( 'NONE',  ( 3.491481338843133355E-15, -0.000000000000000000, 1.000000000000000000 ) ) ;
#98 = ORIENTED_EDGE ( 'NONE', *, *, #69, .T. ) ;
#99 = VERTEX_POINT ( 'NONE', #42 ) ;
#100 = APPROVAL_PERSON_ORGANIZATION ( #123, #286, #347 ) ;
#101 = SECURITY_CLASSIFICATION_LEVEL ( 'unclassified' ) ;
#102 = APPROVAL_STATUS ( 'not_yet_approved' ) ;
#103 = AXIS2_PLACEMENT_3D ( 'NONE', #336, #35, #248 ) ;
#104 = ORIENTED_EDGE ( 'NONE', *, *, #161, .T. ) ;
#105 = EDGE_LOOP ( 'NONE', ( #74 ) ) ;
#106 = ORIENTED_EDGE ( 'NONE', *, *, #373, .F. ) ;
#107 = DIRECTION ( 'NONE',  ( 1.000000000000000000, 0.000000000000000000, -3.491481338843133355E-15 ) ) ;
#108 = EDGE_CURVE ( 'NONE', #183, #183, #93, .T. ) ;
#109 = FACE_BOUND ( 'NONE', #376, .T. ) ;
#110 = EDGE_LOOP ( 'NONE', ( #43 ) ) ;
#111 = CARTESIAN_POINT ( 'NONE',  ( 1.558891863397540531E-15, 0.000000000000000000, 0.4464843750000002665 ) ) ;
#112 = VERTEX_POINT ( 'NONE', #151 ) ;
#113 = FACE_OUTER_BOUND ( 'NONE', #12, .T. ) ;
#114 = CIRCLE ( 'NONE', #349, 0.4658641119153659749 ) ;
#115 = ADVANCED_FACE ( 'NONE', ( #388, #113 ), #351, .T. ) ;
#116 = CARTESIAN_POINT ( 'NONE',  ( 0.4658641119153671406, 0.000000000000000000, 0.3472656250000009104 ) ) ;
#117 = DIRECTION ( 'NONE',  ( 3.491481338843133355E-15, -0.000000000000000000, 1.000000000000000000 ) ) ;
#118 = CARTESIAN_POINT ( 'NONE',  ( 1.316288464743861212E-13, 0.000000000000000000, 37.69999999999999574 ) ) ;
#119 = DIRECTION ( 'NONE',  ( 1.000000000000000000, 0.000000000000000000, 0.000000000000000000 ) ) ;
#120 = ADVANCED_FACE ( 'NONE', ( #236, #139 ), #258, .F. ) ;
#121 = DIRECTION ( 'NONE',  ( 3.491481338843133355E-15, -0.000000000000000000, 1.000000000000000000 ) ) ;
#122 = AXIS2_PLACEMENT_3D ( 'NONE', #28, #234, #393 ) ;
#123 = PERSON_AND_ORGANIZATION ( #213, #264 ) ;
#124 = DIRECTION ( 'NONE',  ( 1.000000000000000000, 0.000000000000000000, -3.490939132533370434E-15 ) ) ;
#125 = DATE_TIME_ROLE ( 'creation_date' ) ;
#126 = DIRECTION ( 'NONE',  ( 3.491481338843133355E-15, -0.000000000000000000, 1.000000000000000000 ) ) ;
#127 = AXIS2_PLACEMENT_3D ( 'NONE', #158, #181, #68 ) ;
#128 =( NAMED_UNIT ( * ) SI_UNIT ( $, .STERADIAN. ) SOLID_ANGLE_UNIT ( ) );
#129 = PRODUCT_DEFINITION_SHAPE ( 'NONE', 'NONE',  #96 ) ;
#130 = VERTEX_POINT ( 'NONE', #256 ) ;
#131 = ORIENTED_EDGE ( 'NONE', *, *, #44, .T. ) ;
#132 = ORIENTED_EDGE ( 'NONE', *, *, #53, .F. ) ;
#133 = ADVANCED_FACE ( 'NONE', ( #88, #209 ), #14, .T. ) ;
#134 = EDGE_LOOP ( 'NONE', ( #77 ) ) ;
#135 = DATE_AND_TIME ( #379, #186 ) ;
#136 = EDGE_LOOP ( 'NONE', ( #132 ) ) ;
#137 = ORIENTED_EDGE ( 'NONE', *, *, #241, .T. ) ;
#138 = APPLICATION_CONTEXT ( 'configuration controlled 3d designs of mechanical parts and assemblies' ) ;
#139 = FACE_OUTER_BOUND ( 'NONE', #105, .T. ) ;
#140 = DIRECTION ( 'NONE',  ( 3.491481338843133355E-15, -0.000000000000000000, 1.000000000000000000 ) ) ;
#141 = CC_DESIGN_DATE_AND_TIME_ASSIGNMENT ( #9, #125, ( #96 ) ) ;
#142 = FACE_OUTER_BOUND ( 'NONE', #260, .T. ) ;
#143 = CARTESIAN_POINT ( 'NONE',  ( 1.326762908760390423E-13, 0.000000000000000000, 38.00000000000000000 ) ) ;
#144 = MANIFOLD_SOLID_BREP ( 'Corps-Déplacer/Copier1', #67 ) ;
#145 = DIRECTION ( 'NONE',  ( 3.491481338843133355E-15, -0.000000000000000000, 1.000000000000000000 ) ) ;
#146 = PRODUCT_RELATED_PRODUCT_CATEGORY ( 'detail', '', ( #192 ) ) ;
#147 = CARTESIAN_POINT ( 'NONE',  ( 1.326762908760390423E-13, 0.000000000000000000, 38.00000000000000000 ) ) ;
#148 = CIRCLE ( 'NONE', #227, 0.6949999999999999512 ) ;
#149 = SECURITY_CLASSIFICATION ( '', '', #101 ) ;
#150 = FACE_OUTER_BOUND ( 'NONE', #288, .T. ) ;
#151 = CARTESIAN_POINT ( 'NONE',  ( 0.6950000000000006173, 0.000000000000000000, 0.1819010416666658747 ) ) ;
#152 = AXIS2_PLACEMENT_3D ( 'NONE', #190, #191, #311 ) ;
#153 = COORDINATED_UNIVERSAL_TIME_OFFSET ( 1, 0, .AHEAD. ) ;
#154 = PERSON_AND_ORGANIZATION ( #213, #264 ) ;
#155 = CARTESIAN_POINT ( 'NONE',  ( 0.000000000000000000, 0.000000000000000000, 0.000000000000000000 ) ) ;
#156 = CIRCLE ( 'NONE', #297, 1.199999999999993960 ) ;
#157 = APPROVAL_PERSON_ORGANIZATION ( #249, #76, #343 ) ;
#158 = CARTESIAN_POINT ( 'NONE',  ( 1.212471449309206233E-15, 0.000000000000000000, 0.3472656250000025202 ) ) ;
#159 = EDGE_LOOP ( 'NONE', ( #291 ) ) ;
#160 = ORIENTED_EDGE ( 'NONE', *, *, #362, .F. ) ;
#161 = EDGE_CURVE ( 'NONE', #64, #64, #114, .T. ) ;
#162 = AXIS2_PLACEMENT_3D ( 'NONE', #335, #145, #244 ) ;
#163 = EDGE_LOOP ( 'NONE', ( #104 ) ) ;
#164 = ADVANCED_FACE ( 'NONE', ( #83, #72 ), #365, .T. ) ;
#165 = EDGE_LOOP ( 'NONE', ( #323 ) ) ;
#166 = EDGE_LOOP ( 'NONE', ( #285 ) ) ;
#167 = FACE_BOUND ( 'NONE', #219, .T. ) ;
#168 = SHAPE_DEFINITION_REPRESENTATION ( #129, #78 ) ;
#169 = DIRECTION ( 'NONE',  ( -3.491481338843133355E-15, 0.000000000000000000, -1.000000000000000000 ) ) ;
#170 = AXIS2_PLACEMENT_3D ( 'NONE', #245, #126, #66 ) ;
#171 = DIRECTION ( 'NONE',  ( 1.000000000000000000, 0.000000000000000000, -4.625929269271495577E-15 ) ) ;
#172 = CARTESIAN_POINT ( 'NONE',  ( 1.200000000000126743, 0.000000000000000000, 37.99999999999999289 ) ) ;
#173 = DIRECTION ( 'NONE',  ( 3.491481338843133355E-15, -0.000000000000000000, 1.000000000000000000 ) ) ;
#174 = CARTESIAN_POINT ( 'NONE',  ( 2.094888803305879382E-14, 0.000000000000000000, 5.999999999999998224 ) ) ;
#175 = DIRECTION ( 'NONE',  ( 1.000000000000000000, 0.000000000000000000, 0.000000000000000000 ) ) ;
#176 = CONICAL_SURFACE ( 'NONE', #36, 0.3799381538836287819, 1.047197551196595411 ) ;
#177 = AXIS2_PLACEMENT_3D ( 'NONE', #330, #30, #27 ) ;
#178 = CARTESIAN_POINT ( 'NONE',  ( 0.3850000000000027844, 0.000000000000000000, 0.7937500000000015099 ) ) ;
#179 = DIRECTION ( 'NONE',  ( 3.491481338843133355E-15, -0.000000000000000000, 1.000000000000000000 ) ) ;
#180 = DIRECTION ( 'NONE',  ( -1.000000000000000000, 0.000000000000000000, 3.510007033226453485E-15 ) ) ;
#181 = DIRECTION ( 'NONE',  ( 3.491481338843133355E-15, -0.000000000000000000, 1.000000000000000000 ) ) ;
#182 = ADVANCED_FACE ( 'NONE', ( #222 ), #40, .F. ) ;
#183 = VERTEX_POINT ( 'NONE', #178 ) ;
#184 = DIRECTION ( 'NONE',  ( -3.491481338843133355E-15, 0.000000000000000000, -1.000000000000000000 ) ) ;
#185 = DESIGN_CONTEXT ( 'detailed design', #138, 'design' ) ;
#186 = LOCAL_TIME ( 8, 25, 36.00000000000000000, #18 ) ;
#187 =( NAMED_UNIT ( * ) PLANE_ANGLE_UNIT ( ) SI_UNIT ( $, .RADIAN. ) );
#188 = EDGE_CURVE ( 'NONE', #1, #1, #80, .T. ) ;
#189 = COORDINATED_UNIVERSAL_TIME_OFFSET ( 1, 0, .AHEAD. ) ;
#190 = CARTESIAN_POINT ( 'NONE',  ( -1.552159492600537467E-33, 0.000000000000000000, -4.445561473671887444E-19 ) ) ;
#191 = DIRECTION ( 'NONE',  ( 3.491481338843133355E-15, -0.000000000000000000, 1.000000000000000000 ) ) ;
#192 = PRODUCT ( '966851', '966851', '', ( #305 ) ) ;
#193 = AXIS2_PLACEMENT_3D ( 'NONE', #352, #231, #82 ) ;
#194 = CIRCLE ( 'NONE', #61, 0.6949999999999999512 ) ;
#195 = DIRECTION ( 'NONE',  ( 1.000000000000000000, 0.000000000000000000, 0.000000000000000000 ) ) ;
#196 = EDGE_LOOP ( 'NONE', ( #228 ) ) ;
#197 = COORDINATED_UNIVERSAL_TIME_OFFSET ( 1, 0, .AHEAD. ) ;
#198 = ORIENTED_EDGE ( 'NONE', *, *, #210, .F. ) ;
#199 = EDGE_CURVE ( 'NONE', #112, #112, #148, .T. ) ;
#200 = EDGE_LOOP ( 'NONE', ( #17 ) ) ;
#201 = CIRCLE ( 'NONE', #103, 0.6949999999999998401 ) ;
#202 = AXIS2_PLACEMENT_3D ( 'NONE', #118, #332, #62 ) ;
#203 = EDGE_LOOP ( 'NONE', ( #106 ) ) ;
#204 = ORIENTED_EDGE ( 'NONE', *, *, #44, .F. ) ;
#205 = CARTESIAN_POINT ( 'NONE',  ( 0.000000000000000000, 0.000000000000000000, 0.000000000000000000 ) ) ;
#206 = AXIS2_PLACEMENT_3D ( 'NONE', #299, #56, #175 ) ;
#207 = CONICAL_SURFACE ( 'NONE', #391, 0.6949999999999999512, 1.047197551196602516 ) ;
#208 = CARTESIAN_POINT ( 'NONE',  ( 0.4190741737109511256, 0.000000000000000000, 6.258819045102509193 ) ) ;
#209 = FACE_BOUND ( 'NONE', #163, .T. ) ;
#210 = EDGE_CURVE ( 'NONE', #301, #301, #278, .T. ) ;
#211 = FACE_OUTER_BOUND ( 'NONE', #200, .T. ) ;
#212 = CYLINDRICAL_SURFACE ( 'NONE', #206, 0.3849999999999997868 ) ;
#213 = PERSON ( 'UNSPECIFIED', 'UNSPECIFIED', 'UNSPECIFIED', ('UNSPECIFIED'), ('UNSPECIFIED'), ('UNSPECIFIED') ) ;
#214 = VERTEX_POINT ( 'NONE', #295 ) ;
#215 = FACE_OUTER_BOUND ( 'NONE', #315, .T. ) ;
#216 = CARTESIAN_POINT ( 'NONE',  ( 7.505775638580857823E-16, 0.000000000000000000, 0.2149739583333365456 ) ) ;
#217 = CARTESIAN_POINT ( 'NONE',  ( 1.326762908760390423E-13, 0.000000000000000000, 38.00000000000000000 ) ) ;
#218 = PLANE ( 'NONE',  #251 ) ;
#219 = EDGE_LOOP ( 'NONE', ( #385 ) ) ;
#220 = CC_DESIGN_PERSON_AND_ORGANIZATION_ASSIGNMENT ( #280, #374, ( #96 ) ) ;
#221 =( LENGTH_UNIT ( ) NAMED_UNIT ( * ) SI_UNIT ( .MILLI., .METRE. ) );
#222 = FACE_OUTER_BOUND ( 'NONE', #265, .T. ) ;
#223 = AXIS2_PLACEMENT_3D ( 'NONE', #174, #121, #298 ) ;
#224 = CALENDAR_DATE ( 2023, 28, 9 ) ;
#225 = FACE_OUTER_BOUND ( 'NONE', #75, .T. ) ;
#226 = PERSON_AND_ORGANIZATION_ROLE ( 'design_supplier' ) ;
#227 = AXIS2_PLACEMENT_3D ( 'NONE', #283, #7, #250 ) ;
#228 = ORIENTED_EDGE ( 'NONE', *, *, #359, .T. ) ;
#229 = EDGE_LOOP ( 'NONE', ( #287 ) ) ;
#230 = EDGE_LOOP ( 'NONE', ( #322 ) ) ;
#231 = DIRECTION ( 'NONE',  ( 3.491481338843133355E-15, -0.000000000000000000, 1.000000000000000000 ) ) ;
#232 = CC_DESIGN_PERSON_AND_ORGANIZATION_ASSIGNMENT ( #284, #310, ( #192 ) ) ;
#233 = DIRECTION ( 'NONE',  ( 3.491481338843133355E-15, -0.000000000000000000, 1.000000000000000000 ) ) ;
#234 = DIRECTION ( 'NONE',  ( 3.491481338843133355E-15, -0.000000000000000000, 1.000000000000000000 ) ) ;
#235 = VERTEX_POINT ( 'NONE', #354 ) ;
#236 = FACE_OUTER_BOUND ( 'NONE', #45, .T. ) ;
#237 = AXIS2_PLACEMENT_3D ( 'NONE', #274, #337, #394 ) ;
#238 = FACE_OUTER_BOUND ( 'NONE', #203, .T. ) ;
#239 = CARTESIAN_POINT ( 'NONE',  ( 3.593743038311657627E-14, 0.000000000000000000, 10.29288914802680210 ) ) ;
#240 = FACE_OUTER_BOUND ( 'NONE', #166, .T. ) ;
#241 = EDGE_CURVE ( 'NONE', #364, #364, #201, .T. ) ;
#242 = CARTESIAN_POINT ( 'NONE',  ( 0.4658641119153685839, 0.000000000000000000, 0.7441406249999987788 ) ) ;
#243 = AXIS2_PLACEMENT_3D ( 'NONE', #353, #333, #324 ) ;
#244 = DIRECTION ( 'NONE',  ( 1.000000000000000000, 0.000000000000000000, -3.490939132533370829E-15 ) ) ;
#245 = CARTESIAN_POINT ( 'NONE',  ( 1.326762908760390423E-13, 0.000000000000000000, 38.00000000000000000 ) ) ;
#246 = UNCERTAINTY_MEASURE_WITH_UNIT (LENGTH_MEASURE( 1.000000000000000082E-05 ), #221, 'distance_accuracy_value', 'NONE');
#247 = APPROVAL_STATUS ( 'not_yet_approved' ) ;
#248 = DIRECTION ( 'NONE',  ( 1.000000000000000000, 0.000000000000000000, -3.432006876932533006E-15 ) ) ;
#249 = PERSON_AND_ORGANIZATION ( #213, #264 ) ;
#250 = DIRECTION ( 'NONE',  ( 1.000000000000000000, 0.000000000000000000, -3.510007033226453485E-15 ) ) ;
#251 = AXIS2_PLACEMENT_3D ( 'NONE', #6, #184, #369 ) ;
#252 = CC_DESIGN_APPROVAL ( #345, ( #149 ) ) ;
#253 = CARTESIAN_POINT ( 'NONE',  ( 0.000000000000000000, 0.000000000000000000, 0.000000000000000000 ) ) ;
#254 = PERSON_AND_ORGANIZATION ( #213, #264 ) ;
#255 = ADVANCED_FACE ( 'NONE', ( #277, #338 ), #218, .F. ) ;
#256 = CARTESIAN_POINT ( 'NONE',  ( 0.4658641119153686949, 0.000000000000000000, 0.7937500000000011768 ) ) ;
#257 = ORIENTED_EDGE ( 'NONE', *, *, #199, .F. ) ;
#258 = TOROIDAL_SURFACE ( 'NONE', #389, 1.384999999999999343, 0.9999999999999995559 ) ;
#259 = AXIS2_PLACEMENT_3D ( 'NONE', #239, #275, #32 ) ;
#260 = EDGE_LOOP ( 'NONE', ( #98 ) ) ;
#261 = EDGE_LOOP ( 'NONE', ( #198 ) ) ;
#262 = DATE_AND_TIME ( #292, #371 ) ;
#263 = ORIENTED_EDGE ( 'NONE', *, *, #161, .F. ) ;
#264 = ORGANIZATION ( 'UNSPECIFIED', 'UNSPECIFIED', '' ) ;
#265 = EDGE_LOOP ( 'NONE', ( #204 ) ) ;
#266 = DIRECTION ( 'NONE',  ( 3.491481338843133355E-15, -0.000000000000000000, 1.000000000000000000 ) ) ;
#267 = ADVANCED_FACE ( 'NONE', ( #225, #344 ), #176, .T. ) ;
#268 = DIRECTION ( 'NONE',  ( 1.000000000000000000, 0.000000000000000000, -3.510007033226453485E-15 ) ) ;
#269 = CARTESIAN_POINT ( 'NONE',  ( 2.771363312706746567E-15, 0.000000000000000000, 0.7937500000000028422 ) ) ;
#270 = VERTEX_POINT ( 'NONE', #360 ) ;
#271 = FACE_OUTER_BOUND ( 'NONE', #317, .T. ) ;
#272 = CONICAL_SURFACE ( 'NONE', #202, 1.499999999999996669, 0.7853981633974497223 ) ;
#273 = CIRCLE ( 'NONE', #259, 1.500000000000000000 ) ;
#274 = CARTESIAN_POINT ( 'NONE',  ( 2.185254989917141649E-14, 0.000000000000000000, 6.258819045102510970 ) ) ;
#275 = DIRECTION ( 'NONE',  ( 3.491481338843133355E-15, -0.000000000000000000, 1.000000000000000000 ) ) ;
#276 = DIRECTION ( 'NONE',  ( 1.000000000000000000, 0.000000000000000000, -4.625929269271490844E-15 ) ) ;
#277 = FACE_BOUND ( 'NONE', #110, .T. ) ;
#278 = CIRCLE ( 'NONE', #341, 0.4658641119153659749 ) ;
#279 = CC_DESIGN_APPROVAL ( #76, ( #342 ) ) ;
#280 = PERSON_AND_ORGANIZATION ( #213, #264 ) ;
#281 = APPLICATION_CONTEXT ( 'configuration controlled 3d designs of mechanical parts and assemblies' ) ;
#282 = CARTESIAN_POINT ( 'NONE',  ( 0.6950000000000007283, 0.000000000000000000, 0.2149739583333341031 ) ) ;
#283 = CARTESIAN_POINT ( 'NONE',  ( 6.351040924952996299E-16, 0.000000000000000000, 0.1819010416666683172 ) ) ;
#284 = PERSON_AND_ORGANIZATION ( #213, #264 ) ;
#285 = ORIENTED_EDGE ( 'NONE', *, *, #108, .T. ) ;
#286 = APPROVAL ( #247, 'UNSPECIFIED' ) ;
#287 = ORIENTED_EDGE ( 'NONE', *, *, #199, .T. ) ;
#288 = EDGE_LOOP ( 'NONE', ( #316 ) ) ;
#289 = PERSON_AND_ORGANIZATION ( #213, #264 ) ;
#290 = EDGE_LOOP ( 'NONE', ( #131 ) ) ;
#291 = ORIENTED_EDGE ( 'NONE', *, *, #373, .T. ) ;
#292 = CALENDAR_DATE ( 2023, 28, 9 ) ;
#293 = CARTESIAN_POINT ( 'NONE',  ( 1.326762908760390423E-13, 0.000000000000000000, 38.00000000000000000 ) ) ;
#294 = DIRECTION ( 'NONE',  ( 3.491481338843133355E-15, -0.000000000000000000, 1.000000000000000000 ) ) ;
#295 = CARTESIAN_POINT ( 'NONE',  ( 1.500000000000128120, 0.000000000000000000, 37.69999999999998863 ) ) ;
#296 = DIRECTION ( 'NONE',  ( 3.491481338843133355E-15, -0.000000000000000000, 1.000000000000000000 ) ) ;
#297 = AXIS2_PLACEMENT_3D ( 'NONE', #54, #22, #63 ) ;
#298 = DIRECTION ( 'NONE',  ( 1.000000000000000000, 0.000000000000000000, -4.505775262277426926E-15 ) ) ;
#299 = CARTESIAN_POINT ( 'NONE',  ( 1.326762908760390423E-13, 0.000000000000000000, 38.00000000000000000 ) ) ;
#300 = CC_DESIGN_SECURITY_CLASSIFICATION ( #149, ( #342 ) ) ;
#301 = VERTEX_POINT ( 'NONE', #242 ) ;
#302 = FACE_OUTER_BOUND ( 'NONE', #134, .T. ) ;
#303 = ADVANCED_FACE ( 'NONE', ( #167, #150 ), #207, .T. ) ;
#304 = CARTESIAN_POINT ( 'NONE',  ( 0.6950000000000020606, 0.000000000000000000, 0.6118489583333320825 ) ) ;
#305 = MECHANICAL_CONTEXT ( 'NONE', #281, 'mechanical' ) ;
#306 = CIRCLE ( 'NONE', #243, 0.6949999999999998401 ) ;
#307 = LOCAL_TIME ( 8, 25, 36.00000000000000000, #346 ) ;
#308 = APPLICATION_PROTOCOL_DEFINITION ( 'international standard', 'config_control_design', 1994, #281 ) ;
#309 = DATE_AND_TIME ( #372, #319 ) ;
#310 = PERSON_AND_ORGANIZATION_ROLE ( 'design_owner' ) ;
#311 = DIRECTION ( 'NONE',  ( 1.000000000000000000, 0.000000000000000000, -3.491481338843133355E-15 ) ) ;
#312 = AXIS2_PLACEMENT_3D ( 'NONE', #269, #296, #358 ) ;
#313 = CC_DESIGN_APPROVAL ( #286, ( #96 ) ) ;
#314 = APPROVAL_DATE_TIME ( #340, #286 ) ;
#315 = EDGE_LOOP ( 'NONE', ( #48 ) ) ;
#316 = ORIENTED_EDGE ( 'NONE', *, *, #362, .T. ) ;
#317 = EDGE_LOOP ( 'NONE', ( #380 ) ) ;
#318 = CIRCLE ( 'NONE', #363, 1.499999999999996669 ) ;
#319 = LOCAL_TIME ( 8, 25, 36.00000000000000000, #189 ) ;
#320 = ADVANCED_FACE ( 'NONE', ( #366, #5 ), #59, .T. ) ;
#321 = DATE_TIME_ROLE ( 'classification_date' ) ;
#322 = ORIENTED_EDGE ( 'NONE', *, *, #359, .F. ) ;
#323 = ORIENTED_EDGE ( 'NONE', *, *, #69, .F. ) ;
#324 = DIRECTION ( 'NONE',  ( 1.000000000000000000, 0.000000000000000000, -3.432006876932533006E-15 ) ) ;
#325 = EDGE_CURVE ( 'NONE', #235, #235, #49, .T. ) ;
#326 = AXIS2_PLACEMENT_3D ( 'NONE', #143, #179, #119 ) ;
#327 = DIRECTION ( 'NONE',  ( 1.000000000000000000, 0.000000000000000000, 0.000000000000000000 ) ) ;
#328 = ADVANCED_FACE ( 'NONE', ( #24, #142 ), #272, .T. ) ;
#329 = DIRECTION ( 'NONE',  ( 1.000000000000000000, 0.000000000000000000, 0.000000000000000000 ) ) ;
#330 = CARTESIAN_POINT ( 'NONE',  ( 1.326762908760390423E-13, 1.199999999999993960, 38.00000000000000000 ) ) ;
#331 = FACE_OUTER_BOUND ( 'NONE', #50, .T. ) ;
#332 = DIRECTION ( 'NONE',  ( -3.491481338843133355E-15, 0.000000000000000000, -1.000000000000000000 ) ) ;
#333 = DIRECTION ( 'NONE',  ( 3.491481338843133355E-15, -0.000000000000000000, 1.000000000000000000 ) ) ;
#334 = ADVANCED_FACE ( 'NONE', ( #211 ), #57, .F. ) ;
#335 = CARTESIAN_POINT ( 'NONE',  ( 2.771363312706746567E-15, 0.000000000000000000, 0.7937500000000028422 ) ) ;
#336 = CARTESIAN_POINT ( 'NONE',  ( 2.136259220211447332E-15, 0.000000000000000000, 0.6118489583333344140 ) ) ;
#337 = DIRECTION ( 'NONE',  ( 3.491481338843133355E-15, -0.000000000000000000, 1.000000000000000000 ) ) ;
#338 = FACE_OUTER_BOUND ( 'NONE', #159, .T. ) ;
#339 = EDGE_CURVE ( 'NONE', #87, #87, #11, .T. ) ;
#340 = DATE_AND_TIME ( #367, #86 ) ;
#341 = AXIS2_PLACEMENT_3D ( 'NONE', #95, #97, #124 ) ;
#342 = PRODUCT_DEFINITION_FORMATION_WITH_SPECIFIED_SOURCE ( 'ANY', '', #192, .NOT_KNOWN. ) ;
#343 = APPROVAL_ROLE ( '' ) ;
#344 = FACE_BOUND ( 'NONE', #290, .T. ) ;
#345 = APPROVAL ( #16, 'UNSPECIFIED' ) ;
#346 = COORDINATED_UNIVERSAL_TIME_OFFSET ( 1, 0, .AHEAD. ) ;
#347 = APPROVAL_ROLE ( '' ) ;
#348 = EDGE_LOOP ( 'NONE', ( #160 ) ) ;
#349 = AXIS2_PLACEMENT_3D ( 'NONE', #111, #90, #60 ) ;
#350 = ORIENTED_EDGE ( 'NONE', *, *, #210, .T. ) ;
#351 = CONICAL_SURFACE ( 'NONE', #370, 0.6949999999999998401, 1.047197551196602294 ) ;
#352 = CARTESIAN_POINT ( 'NONE',  ( 2.185254989917141649E-14, 0.000000000000000000, 6.258819045102510970 ) ) ;
#353 = CARTESIAN_POINT ( 'NONE',  ( 2.020785748848660883E-15, 0.000000000000000000, 0.5787760416666662966 ) ) ;
#354 = CARTESIAN_POINT ( 'NONE',  ( 0.3850000000000204370, 0.000000000000000000, 5.999999999999996447 ) ) ;
#355 = CARTESIAN_POINT ( 'NONE',  ( 2.094888803305880013E-14, 0.000000000000000000, 6.000000000000000000 ) ) ;
#356 = CC_DESIGN_PERSON_AND_ORGANIZATION_ASSIGNMENT ( #71, #73, ( #149 ) ) ;
#357 = CARTESIAN_POINT ( 'NONE',  ( 7.505775638580857823E-16, 0.000000000000000000, 0.2149739583333365456 ) ) ;
#358 = DIRECTION ( 'NONE',  ( 1.000000000000000000, 0.000000000000000000, -3.379331446708065855E-15 ) ) ;
#359 = EDGE_CURVE ( 'NONE', #99, #99, #273, .T. ) ;
#360 = CARTESIAN_POINT ( 'NONE',  ( 0.3799381538836287819, 0.000000000000000000, -1.326546974199200654E-15 ) ) ;
#361 = DIRECTION ( 'NONE',  ( -1.000000000000000000, 0.000000000000000000, 3.432006876932533006E-15 ) ) ;
#362 = EDGE_CURVE ( 'NONE', #368, #368, #194, .T. ) ;
#363 = AXIS2_PLACEMENT_3D ( 'NONE', #84, #117, #171 ) ;
#364 = VERTEX_POINT ( 'NONE', #304 ) ;
#365 = CYLINDRICAL_SURFACE ( 'NONE', #170, 0.6949999999999999512 ) ;
#366 = FACE_OUTER_BOUND ( 'NONE', #165, .T. ) ;
#367 = CALENDAR_DATE ( 2023, 28, 9 ) ;
#368 = VERTEX_POINT ( 'NONE', #282 ) ;
#369 = DIRECTION ( 'NONE',  ( -1.000000000000000000, 0.000000000000000000, 3.491481338843133355E-15 ) ) ;
#370 = AXIS2_PLACEMENT_3D ( 'NONE', #33, #169, #361 ) ;
#371 = LOCAL_TIME ( 8, 25, 36.00000000000000000, #197 ) ;
#372 = CALENDAR_DATE ( 2023, 28, 9 ) ;
#373 = EDGE_CURVE ( 'NONE', #130, #130, #15, .T. ) ;
#374 = PERSON_AND_ORGANIZATION_ROLE ( 'creator' ) ;
#375 = ORIENTED_EDGE ( 'NONE', *, *, #339, .F. ) ;
#376 = EDGE_LOOP ( 'NONE', ( #378 ) ) ;
#377 = CIRCLE ( 'NONE', #55, 0.3799381538836287819 ) ;
#378 = ORIENTED_EDGE ( 'NONE', *, *, #339, .T. ) ;
#379 = CALENDAR_DATE ( 2023, 28, 9 ) ;
#380 = ORIENTED_EDGE ( 'NONE', *, *, #241, .F. ) ;
#381 = APPROVAL_DATE_TIME ( #262, #345 ) ;
#382 = ORIENTED_EDGE ( 'NONE', *, *, #188, .T. ) ;
#383 = AXIS2_PLACEMENT_3D ( 'NONE', #293, #173, #327 ) ;
#384 = AXIS2_PLACEMENT_3D ( 'NONE', #253, #70, #195 ) ;
#385 = ORIENTED_EDGE ( 'NONE', *, *, #188, .F. ) ;
#386 = DIRECTION ( 'NONE',  ( 1.000000000000000000, 0.000000000000000000, -3.491481338843133355E-15 ) ) ;
#387 = CARTESIAN_POINT ( 'NONE',  ( 0.4658641119153675847, 0.000000000000000000, 0.4464843749999986566 ) ) ;
#388 = FACE_BOUND ( 'NONE', #261, .T. ) ;
#389 = AXIS2_PLACEMENT_3D ( 'NONE', #355, #266, #386 ) ;
#390 = AXIS2_PLACEMENT_3D ( 'NONE', #147, #233, #329 ) ;
#391 = AXIS2_PLACEMENT_3D ( 'NONE', #357, #94, #180 ) ;
#392 = VERTEX_POINT ( 'NONE', #65 ) ;
#393 = DIRECTION ( 'NONE',  ( 1.000000000000000000, 0.000000000000000000, -3.490939132533370434E-15 ) ) ;
#394 = DIRECTION ( 'NONE',  ( 1.000000000000000000, 0.000000000000000000, -4.139418711049924123E-15 ) ) ;
#395 = FACE_OUTER_BOUND ( 'NONE', #52, .T. ) ;
ENDSEC;
END-ISO-10303-21;
