ISO-10303-21;
HEADER;
FILE_DESCRIPTION (( 'STEP AP203' ),
    '1' );
FILE_NAME ('966850.step',
    '2023-09-28T06:25:35',
    ( '' ),
    ( '' ),
    'SwSTEP 2.0',
    'SolidWorks 2022',
    '' );
FILE_SCHEMA (( 'CONFIG_CONTROL_DESIGN' ));
ENDSEC;

DATA;
#1 = DIRECTION ( 'NONE',  ( 3.491481338843133355E-15, -0.000000000000000000, 1.000000000000000000 ) ) ;
#2 = CONICAL_SURFACE ( 'NONE', #115, 0.5040741737109291076, 0.2617993877991427465 ) ;
#3 = DIRECTION ( 'NONE',  ( 3.491481338843133355E-15, -0.000000000000000000, 1.000000000000000000 ) ) ;
#4 = CC_DESIGN_PERSON_AND_ORGANIZATION_ASSIGNMENT ( #261, #79, ( #123 ) ) ;
#5 = FACE_OUTER_BOUND ( 'NONE', #257, .T. ) ;
#6 = DIRECTION ( 'NONE',  ( 1.000000000000000000, 0.000000000000000000, -3.465562973125569567E-15 ) ) ;
#7 = AXIS2_PLACEMENT_3D ( 'NONE', #358, #301, #206 ) ;
#8 = AXIS2_PLACEMENT_3D ( 'NONE', #277, #370, #221 ) ;
#9 = CARTESIAN_POINT ( 'NONE',  ( 1.385681656353361253E-15, 0.000000000000000000, 0.3968749999999979239 ) ) ;
#10 = CYLINDRICAL_SURFACE ( 'NONE', #8, 0.8249999999999999556 ) ;
#11 = CARTESIAN_POINT ( 'NONE',  ( 3.832132893318918165E-14, 0.000000000000000000, 10.97566482938344024 ) ) ;
#12 = DIRECTION ( 'NONE',  ( 3.491481338843133355E-15, -0.000000000000000000, 1.000000000000000000 ) ) ;
#13 = APPROVAL_DATE_TIME ( #291, #41 ) ;
#14 = CIRCLE ( 'NONE', #365, 0.5040741737109291076 ) ;
#15 = APPROVAL_PERSON_ORGANIZATION ( #148, #41, #144 ) ;
#16 = DIRECTION ( 'NONE',  ( 1.000000000000000000, 0.000000000000000000, -3.491481338843133355E-15 ) ) ;
#17 = APPLICATION_PROTOCOL_DEFINITION ( 'international standard', 'config_control_design', 1994, #287 ) ;
#18 = EDGE_LOOP ( 'NONE', ( #172 ) ) ;
#19 = EDGE_CURVE ( 'NONE', #75, #75, #236, .T. ) ;
#20 = DIRECTION ( 'NONE',  ( 1.000000000000000000, 0.000000000000000000, 0.000000000000000000 ) ) ;
#21 = ORIENTED_EDGE ( 'NONE', *, *, #333, .F. ) ;
#22 = DATE_AND_TIME ( #357, #194 ) ;
#23 = DIRECTION ( 'NONE',  ( -1.000000000000000000, 0.000000000000000000, 3.491481338843133355E-15 ) ) ;
#24 = LOCAL_TIME ( 8, 25, 35.00000000000000000, #29 ) ;
#25 = CARTESIAN_POINT ( 'NONE',  ( 2.309469427255626412E-15, 0.000000000000000000, 0.6614583333333368120 ) ) ;
#26 = EDGE_LOOP ( 'NONE', ( #55 ) ) ;
#27 = EDGE_LOOP ( 'NONE', ( #46 ) ) ;
#28 = ADVANCED_FACE ( 'NONE', ( #195, #251 ), #80, .T. ) ;
#29 = COORDINATED_UNIVERSAL_TIME_OFFSET ( 1, 0, .AHEAD. ) ;
#30 = FACE_OUTER_BOUND ( 'NONE', #84, .T. ) ;
#31 = AXIS2_PLACEMENT_3D ( 'NONE', #363, #331, #93 ) ;
#32 = CARTESIAN_POINT ( 'NONE',  ( 1.326762908760390423E-13, 0.000000000000000000, 38.00000000000000000 ) ) ;
#33 = PRODUCT_DEFINITION_SHAPE ( 'NONE', 'NONE',  #74 ) ;
#34 = CARTESIAN_POINT ( 'NONE',  ( 7.258332485660395200E-16, 0.000000000000000000, 0.2078869047619016919 ) ) ;
#35 = APPROVAL ( #208, 'UNSPECIFIED' ) ;
#36 = LOCAL_TIME ( 8, 25, 35.00000000000000000, #328 ) ;
#37 = DIRECTION ( 'NONE',  ( 3.491481338843133355E-15, -0.000000000000000000, 1.000000000000000000 ) ) ;
#38 = VERTEX_POINT ( 'NONE', #101 ) ;
#39 = VERTEX_POINT ( 'NONE', #71 ) ;
#40 = AXIS2_PLACEMENT_3D ( 'NONE', #45, #182, #303 ) ;
#41 = APPROVAL ( #167, 'UNSPECIFIED' ) ;
#42 = VERTEX_POINT ( 'NONE', #164 ) ;
#43 = COORDINATED_UNIVERSAL_TIME_OFFSET ( 1, 0, .AHEAD. ) ;
#44 = DIRECTION ( 'NONE',  ( 1.000000000000000000, 0.000000000000000000, -3.469446951953614189E-15 ) ) ;
#45 = CARTESIAN_POINT ( 'NONE',  ( 3.167272357379125072E-15, 0.000000000000000000, 0.9071428571428563625 ) ) ;
#46 = ORIENTED_EDGE ( 'NONE', *, *, #19, .F. ) ;
#47 = DIRECTION ( 'NONE',  ( 1.000000000000000000, 0.000000000000000000, 0.000000000000000000 ) ) ;
#48 = CARTESIAN_POINT ( 'NONE',  ( 1.781590701025764213E-15, 0.000000000000000000, 0.5102678571428584942 ) ) ;
#49 =( NAMED_UNIT ( * ) PLANE_ANGLE_UNIT ( ) SI_UNIT ( $, .RADIAN. ) );
#50 = LOCAL_TIME ( 8, 25, 35.00000000000000000, #233 ) ;
#51 = EDGE_LOOP ( 'NONE', ( #67 ) ) ;
#52 = DATE_AND_TIME ( #258, #237 ) ;
#53 = FACE_BOUND ( 'NONE', #63, .T. ) ;
#54 = ORIENTED_EDGE ( 'NONE', *, *, #305, .T. ) ;
#55 = ORIENTED_EDGE ( 'NONE', *, *, #384, .T. ) ;
#56 = MECHANICAL_CONTEXT ( 'NONE', #287, 'mechanical' ) ;
#57 = DIRECTION ( 'NONE',  ( 1.000000000000000000, 0.000000000000000000, -3.465562973125571145E-15 ) ) ;
#58 = APPROVAL_ROLE ( '' ) ;
#59 = AXIS2_PLACEMENT_3D ( 'NONE', #9, #187, #6 ) ;
#60 = PERSON ( 'UNSPECIFIED', 'UNSPECIFIED', 'UNSPECIFIED', ('UNSPECIFIED'), ('UNSPECIFIED'), ('UNSPECIFIED') ) ;
#61 = FACE_OUTER_BOUND ( 'NONE', #383, .T. ) ;
#62 = FACE_OUTER_BOUND ( 'NONE', #254, .T. ) ;
#63 = EDGE_LOOP ( 'NONE', ( #184 ) ) ;
#64 = AXIS2_PLACEMENT_3D ( 'NONE', #48, #169, #154 ) ;
#65 = EDGE_CURVE ( 'NONE', #38, #38, #96, .T. ) ;
#66 = CIRCLE ( 'NONE', #341, 0.4649293187241465009 ) ;
#67 = ORIENTED_EDGE ( 'NONE', *, *, #313, .F. ) ;
#68 = APPROVAL ( #323, 'UNSPECIFIED' ) ;
#69 = CARTESIAN_POINT ( 'NONE',  ( 1.316288464743861212E-13, 0.000000000000000000, 37.69999999999999574 ) ) ;
#70 = CARTESIAN_POINT ( 'NONE',  ( 0.8250000000000007327, 0.000000000000000000, 0.2078869047618988053 ) ) ;
#71 = CARTESIAN_POINT ( 'NONE',  ( 0.4700000000000031375, 0.000000000000000000, 0.9071428571428546972 ) ) ;
#72 = CARTESIAN_POINT ( 'NONE',  ( 0.5631304136175629971, 0.000000000000000000, 0.5102678571428564958 ) ) ;
#73 = DIRECTION ( 'NONE',  ( 1.000000000000000000, 0.000000000000000000, -3.482588796468590275E-15 ) ) ;
#74 = PRODUCT_DEFINITION ( 'UNKNOWN', '', #123, #253 ) ;
#75 = VERTEX_POINT ( 'NONE', #246 ) ;
#76 = FACE_OUTER_BOUND ( 'NONE', #227, .T. ) ;
#77 = EDGE_CURVE ( 'NONE', #280, #280, #393, .T. ) ;
#78 = EDGE_LOOP ( 'NONE', ( #21 ) ) ;
#79 = PERSON_AND_ORGANIZATION_ROLE ( 'design_supplier' ) ;
#80 = CYLINDRICAL_SURFACE ( 'NONE', #207, 1.499999999999998224 ) ;
#81 = ORIENTED_EDGE ( 'NONE', *, *, #103, .F. ) ;
#82 = CARTESIAN_POINT ( 'NONE',  ( 0.5631304136175641073, 0.000000000000000000, 0.8504464285714241623 ) ) ;
#83 = ADVANCED_FACE ( 'NONE', ( #388, #278 ), #225, .T. ) ;
#84 = EDGE_LOOP ( 'NONE', ( #112 ) ) ;
#85 = TOROIDAL_SURFACE ( 'NONE', #113, 1.469999999999999085, 0.9999999999999995559 ) ;
#86 = APPROVAL_PERSON_ORGANIZATION ( #265, #35, #58 ) ;
#87 = FACE_BOUND ( 'NONE', #391, .T. ) ;
#88 = VERTEX_POINT ( 'NONE', #82 ) ;
#89 = FACE_OUTER_BOUND ( 'NONE', #138, .T. ) ;
#90 = ORIENTED_EDGE ( 'NONE', *, *, #173, .F. ) ;
#91 = CARTESIAN_POINT ( 'NONE',  ( 2.534403123801455300E-14, 0.000000000000000000, 7.258819045102511858 ) ) ;
#92 = ORIENTED_EDGE ( 'NONE', *, *, #311, .F. ) ;
#93 = DIRECTION ( 'NONE',  ( 1.000000000000000000, 0.000000000000000000, -3.548298019043469128E-15 ) ) ;
#94 = ADVANCED_FACE ( 'NONE', ( #373, #136 ), #196, .T. ) ;
#95 = CALENDAR_DATE ( 2023, 28, 9 ) ;
#96 = CIRCLE ( 'NONE', #185, 0.5631304136175612207 ) ;
#97 = CIRCLE ( 'NONE', #178, 0.8249999999999999556 ) ;
#98 = CARTESIAN_POINT ( 'NONE',  ( 0.8250000000000022871, 0.000000000000000000, 0.6614583333333339255 ) ) ;
#99 = VERTEX_POINT ( 'NONE', #367 ) ;
#100 = CLOSED_SHELL ( 'NONE', ( #117, #272, #203, #244, #94, #232, #382, #346, #132, #189, #300, #269, #339, #28, #83, #143 ) ) ;
#101 = CARTESIAN_POINT ( 'NONE',  ( 0.5631304136175643293, 0.000000000000000000, 0.9071428571428543641 ) ) ;
#102 = CARTESIAN_POINT ( 'NONE',  ( 2.534403123801455300E-14, 0.000000000000000000, 7.258819045102511858 ) ) ;
#103 = EDGE_CURVE ( 'NONE', #99, #99, #140, .T. ) ;
#104 = VERTEX_POINT ( 'NONE', #224 ) ;
#105 = ORIENTED_EDGE ( 'NONE', *, *, #173, .T. ) ;
#106 = CC_DESIGN_DATE_AND_TIME_ASSIGNMENT ( #22, #165, ( #335 ) ) ;
#107 = PERSON_AND_ORGANIZATION_ROLE ( 'design_owner' ) ;
#108 = DATE_AND_TIME ( #380, #50 ) ;
#109 = EDGE_LOOP ( 'NONE', ( #329 ) ) ;
#110 = APPROVAL_ROLE ( '' ) ;
#111 = CARTESIAN_POINT ( 'NONE',  ( 1.326762908760390423E-13, 0.000000000000000000, 38.00000000000000000 ) ) ;
#112 = ORIENTED_EDGE ( 'NONE', *, *, #333, .T. ) ;
#113 = AXIS2_PLACEMENT_3D ( 'NONE', #204, #146, #262 ) ;
#114 = SECURITY_CLASSIFICATION_LEVEL ( 'unclassified' ) ;
#115 = AXIS2_PLACEMENT_3D ( 'NONE', #102, #37, #135 ) ;
#116 = CARTESIAN_POINT ( 'NONE',  ( 0.000000000000000000, 0.000000000000000000, 0.000000000000000000 ) ) ;
#117 = ADVANCED_FACE ( 'NONE', ( #76 ), #198, .F. ) ;
#118 = DIRECTION ( 'NONE',  ( 3.491481338843133355E-15, -0.000000000000000000, 1.000000000000000000 ) ) ;
#119 = FACE_OUTER_BOUND ( 'NONE', #235, .T. ) ;
#120 = CARTESIAN_POINT ( 'NONE',  ( 1.326762908760390423E-13, 0.000000000000000000, 38.00000000000000000 ) ) ;
#121 = CONICAL_SURFACE ( 'NONE', #281, 0.8249999999999999556, 1.047197551196613174 ) ;
#122 = CYLINDRICAL_SURFACE ( 'NONE', #274, 0.8249999999999999556 ) ;
#123 = PRODUCT_DEFINITION_FORMATION_WITH_SPECIFIED_SOURCE ( 'ANY', '', #364, .NOT_KNOWN. ) ;
#124 = DIRECTION ( 'NONE',  ( 3.491481338843133355E-15, -0.000000000000000000, 1.000000000000000000 ) ) ;
#125 = FACE_OUTER_BOUND ( 'NONE', #78, .T. ) ;
#126 = CC_DESIGN_SECURITY_CLASSIFICATION ( #335, ( #123 ) ) ;
#127 = FACE_BOUND ( 'NONE', #156, .T. ) ;
#128 = DIRECTION ( 'NONE',  ( 3.491481338843133355E-15, -0.000000000000000000, 1.000000000000000000 ) ) ;
#129 = DIRECTION ( 'NONE',  ( -3.491481338843133355E-15, 0.000000000000000000, -1.000000000000000000 ) ) ;
#130 = CARTESIAN_POINT ( 'NONE',  ( 2.444036937190193033E-14, 0.000000000000000000, 6.999999999999999112 ) ) ;
#131 = ORGANIZATION ( 'UNSPECIFIED', 'UNSPECIFIED', '' ) ;
#132 = ADVANCED_FACE ( 'NONE', ( #353, #234 ), #325, .T. ) ;
#133 = DIRECTION ( 'NONE',  ( 1.000000000000000000, 0.000000000000000000, -3.482588796468590275E-15 ) ) ;
#134 = EDGE_LOOP ( 'NONE', ( #81 ) ) ;
#135 = DIRECTION ( 'NONE',  ( 1.000000000000000000, 0.000000000000000000, -3.441405186871599441E-15 ) ) ;
#136 = FACE_OUTER_BOUND ( 'NONE', #210, .T. ) ;
#137 = CC_DESIGN_DATE_AND_TIME_ASSIGNMENT ( #52, #259, ( #74 ) ) ;
#138 = EDGE_LOOP ( 'NONE', ( #90 ) ) ;
#139 = DIRECTION ( 'NONE',  ( 1.000000000000000000, 0.000000000000000000, -3.465562973125571145E-15 ) ) ;
#140 = CIRCLE ( 'NONE', #271, 1.500000000000000000 ) ;
#141 = PERSON_AND_ORGANIZATION_ROLE ( 'creator' ) ;
#142 = ORIENTED_EDGE ( 'NONE', *, *, #313, .T. ) ;
#143 = ADVANCED_FACE ( 'NONE', ( #389 ), #179, .F. ) ;
#144 = APPROVAL_ROLE ( '' ) ;
#145 = EDGE_LOOP ( 'NONE', ( #205 ) ) ;
#146 = DIRECTION ( 'NONE',  ( 3.491481338843133355E-15, -0.000000000000000000, 1.000000000000000000 ) ) ;
#147 = AXIS2_PLACEMENT_3D ( 'NONE', #390, #150, #23 ) ;
#148 = PERSON_AND_ORGANIZATION ( #60, #131 ) ;
#149 = ORIENTED_EDGE ( 'NONE', *, *, #317, .T. ) ;
#150 = DIRECTION ( 'NONE',  ( -3.491481338843133355E-15, 0.000000000000000000, -1.000000000000000000 ) ) ;
#151 = CARTESIAN_POINT ( 'NONE',  ( 1.781590701025764213E-15, 0.000000000000000000, 0.5102678571428584942 ) ) ;
#152 = ORIENTED_EDGE ( 'NONE', *, *, #243, .T. ) ;
#153 = CIRCLE ( 'NONE', #218, 0.8249999999999999556 ) ;
#154 = DIRECTION ( 'NONE',  ( 1.000000000000000000, 0.000000000000000000, -3.465562973125571145E-15 ) ) ;
#155 = DIRECTION ( 'NONE',  ( 3.491481338843133355E-15, -0.000000000000000000, 1.000000000000000000 ) ) ;
#156 = EDGE_LOOP ( 'NONE', ( #352 ) ) ;
#157 = DIRECTION ( 'NONE',  ( 1.000000000000000000, 0.000000000000000000, -4.625929269271495577E-15 ) ) ;
#158 = CIRCLE ( 'NONE', #315, 0.5631304136175612207 ) ;
#159 = CARTESIAN_POINT ( 'NONE',  ( 8.578029301235232135E-16, 0.000000000000000000, 0.2456845238095264894 ) ) ;
#160 = DIRECTION ( 'NONE',  ( -1.000000000000000000, 0.000000000000000000, 3.548298019043469128E-15 ) ) ;
#161 = DIRECTION ( 'NONE',  ( 1.000000000000000000, 0.000000000000000000, -3.491481338843133355E-15 ) ) ;
#162 = DIRECTION ( 'NONE',  ( 3.491481338843133355E-15, -0.000000000000000000, 1.000000000000000000 ) ) ;
#163 = CIRCLE ( 'NONE', #355, 0.8249999999999999556 ) ;
#164 = CARTESIAN_POINT ( 'NONE',  ( 0.8250000000000025091, 0.000000000000000000, 0.6992559523809517286 ) ) ;
#165 = DATE_TIME_ROLE ( 'classification_date' ) ;
#166 = ORIENTED_EDGE ( 'NONE', *, *, #311, .T. ) ;
#167 = APPROVAL_STATUS ( 'not_yet_approved' ) ;
#168 = DIRECTION ( 'NONE',  ( 3.491481338843133355E-15, -0.000000000000000000, 1.000000000000000000 ) ) ;
#169 = DIRECTION ( 'NONE',  ( 3.491481338843133355E-15, -0.000000000000000000, 1.000000000000000000 ) ) ;
#170 = PERSON_AND_ORGANIZATION ( #60, #131 ) ;
#171 = APPLICATION_CONTEXT ( 'configuration controlled 3d designs of mechanical parts and assemblies' ) ;
#172 = ORIENTED_EDGE ( 'NONE', *, *, #77, .F. ) ;
#173 = EDGE_CURVE ( 'NONE', #310, #310, #153, .T. ) ;
#174 = APPROVAL_DATE_TIME ( #108, #68 ) ;
#175 = DIRECTION ( 'NONE',  ( 1.000000000000000000, 0.000000000000000000, -5.782411586589386432E-15 ) ) ;
#176 = PERSON_AND_ORGANIZATION ( #60, #131 ) ;
#177 = DIRECTION ( 'NONE',  ( 1.000000000000000000, 0.000000000000000000, -3.491481338843133355E-15 ) ) ;
#178 = AXIS2_PLACEMENT_3D ( 'NONE', #159, #219, #133 ) ;
#179 = PLANE ( 'NONE',  #7 ) ;
#180 = CC_DESIGN_PERSON_AND_ORGANIZATION_ASSIGNMENT ( #229, #295, ( #123 ) ) ;
#181 = ORIENTED_EDGE ( 'NONE', *, *, #103, .T. ) ;
#182 = DIRECTION ( 'NONE',  ( 3.491481338843133355E-15, -0.000000000000000000, 1.000000000000000000 ) ) ;
#183 = DIRECTION ( 'NONE',  ( 3.491481338843133355E-15, -0.000000000000000000, 1.000000000000000000 ) ) ;
#184 = ORIENTED_EDGE ( 'NONE', *, *, #284, .F. ) ;
#185 = AXIS2_PLACEMENT_3D ( 'NONE', #199, #223, #139 ) ;
#186 = VERTEX_POINT ( 'NONE', #308 ) ;
#187 = DIRECTION ( 'NONE',  ( 3.491481338843133355E-15, -0.000000000000000000, 1.000000000000000000 ) ) ;
#188 = AXIS2_PLACEMENT_3D ( 'NONE', #151, #183, #57 ) ;
#189 = ADVANCED_FACE ( 'NONE', ( #53, #340 ), #334, .F. ) ;
#190 = AXIS2_PLACEMENT_3D ( 'NONE', #345, #193, #160 ) ;
#191 = DIRECTION ( 'NONE',  ( 1.000000000000000000, 0.000000000000000000, -3.690901012716615975E-15 ) ) ;
#192 = VERTEX_POINT ( 'NONE', #312 ) ;
#193 = DIRECTION ( 'NONE',  ( -3.491481338843133355E-15, 0.000000000000000000, -1.000000000000000000 ) ) ;
#194 = LOCAL_TIME ( 8, 25, 35.00000000000000000, #43 ) ;
#195 = FACE_OUTER_BOUND ( 'NONE', #51, .T. ) ;
#196 = CYLINDRICAL_SURFACE ( 'NONE', #255, 0.5631304136175613317 ) ;
#197 = DIRECTION ( 'NONE',  ( 3.491481338843133355E-15, -0.000000000000000000, 1.000000000000000000 ) ) ;
#198 = PLANE ( 'NONE',  #360 ) ;
#199 = CARTESIAN_POINT ( 'NONE',  ( 3.167272357379125072E-15, 0.000000000000000000, 0.9071428571428563625 ) ) ;
#200 =( NAMED_UNIT ( * ) SI_UNIT ( $, .STERADIAN. ) SOLID_ANGLE_UNIT ( ) );
#201 =( GEOMETRIC_REPRESENTATION_CONTEXT ( 3 ) GLOBAL_UNCERTAINTY_ASSIGNED_CONTEXT ( ( #369 ) ) GLOBAL_UNIT_ASSIGNED_CONTEXT ( ( #293, #49, #200 ) ) REPRESENTATION_CONTEXT ( 'NONE', 'WORKASPACE' ) );
#202 = PERSON_AND_ORGANIZATION ( #60, #131 ) ;
#203 = ADVANCED_FACE ( 'NONE', ( #62, #268 ), #122, .T. ) ;
#204 = CARTESIAN_POINT ( 'NONE',  ( 2.444036937190193349E-14, 0.000000000000000000, 7.000000000000000000 ) ) ;
#205 = ORIENTED_EDGE ( 'NONE', *, *, #65, .T. ) ;
#206 = DIRECTION ( 'NONE',  ( -1.000000000000000000, 0.000000000000000000, 3.491481338843133355E-15 ) ) ;
#207 = AXIS2_PLACEMENT_3D ( 'NONE', #371, #12, #319 ) ;
#208 = APPROVAL_STATUS ( 'not_yet_approved' ) ;
#209 = APPROVAL_PERSON_ORGANIZATION ( #176, #68, #110 ) ;
#210 = EDGE_LOOP ( 'NONE', ( #54 ) ) ;
#211 = DIRECTION ( 'NONE',  ( 1.000000000000000000, 0.000000000000000000, -3.548298019043469128E-15 ) ) ;
#212 = ORIENTED_EDGE ( 'NONE', *, *, #267, .F. ) ;
#213 = APPROVAL_DATE_TIME ( #395, #35 ) ;
#214 = CONICAL_SURFACE ( 'NONE', #299, 0.4649293187241465009, 1.047197551196606513 ) ;
#215 = CC_DESIGN_APPROVAL ( #68, ( #123 ) ) ;
#216 = CARTESIAN_POINT ( 'NONE',  ( 0.4649293187241465009, 0.000000000000000000, -1.623292040206408832E-15 ) ) ;
#217 = VERTEX_POINT ( 'NONE', #70 ) ;
#218 = AXIS2_PLACEMENT_3D ( 'NONE', #25, #298, #211 ) ;
#219 = DIRECTION ( 'NONE',  ( 3.491481338843133355E-15, -0.000000000000000000, 1.000000000000000000 ) ) ;
#220 = CARTESIAN_POINT ( 'NONE',  ( 1.316288464743861212E-13, 0.000000000000000000, 37.69999999999999574 ) ) ;
#221 = DIRECTION ( 'NONE',  ( 1.000000000000000000, 0.000000000000000000, 0.000000000000000000 ) ) ;
#222 = DIRECTION ( 'NONE',  ( 3.491481338843133355E-15, -0.000000000000000000, 1.000000000000000000 ) ) ;
#223 = DIRECTION ( 'NONE',  ( 3.491481338843133355E-15, -0.000000000000000000, 1.000000000000000000 ) ) ;
#224 = CARTESIAN_POINT ( 'NONE',  ( 1.500000000000128120, 0.000000000000000000, 37.69999999999998863 ) ) ;
#225 = CONICAL_SURFACE ( 'NONE', #385, 1.499999999999996669, 0.7853981633974497223 ) ;
#226 = CC_DESIGN_APPROVAL ( #41, ( #74 ) ) ;
#227 = EDGE_LOOP ( 'NONE', ( #92 ) ) ;
#228 = EDGE_LOOP ( 'NONE', ( #362 ) ) ;
#229 = PERSON_AND_ORGANIZATION ( #60, #131 ) ;
#230 = CC_DESIGN_PERSON_AND_ORGANIZATION_ASSIGNMENT ( #202, #107, ( #364 ) ) ;
#231 = EDGE_LOOP ( 'NONE', ( #378 ) ) ;
#232 = ADVANCED_FACE ( 'NONE', ( #89, #359 ), #248, .T. ) ;
#233 = COORDINATED_UNIVERSAL_TIME_OFFSET ( 1, 0, .AHEAD. ) ;
#234 = FACE_OUTER_BOUND ( 'NONE', #26, .T. ) ;
#235 = EDGE_LOOP ( 'NONE', ( #327 ) ) ;
#236 = CIRCLE ( 'NONE', #324, 1.199999999999993960 ) ;
#237 = LOCAL_TIME ( 8, 25, 35.00000000000000000, #297 ) ;
#238 = PERSON_AND_ORGANIZATION_ROLE ( 'classification_officer' ) ;
#239 = DIRECTION ( 'NONE',  ( 3.491481338843133355E-15, -0.000000000000000000, 1.000000000000000000 ) ) ;
#240 = ORIENTED_EDGE ( 'NONE', *, *, #267, .T. ) ;
#241 = SHAPE_DEFINITION_REPRESENTATION ( #33, #332 ) ;
#242 = DIRECTION ( 'NONE',  ( 1.000000000000000000, 0.000000000000000000, -3.441405186871599441E-15 ) ) ;
#243 = EDGE_CURVE ( 'NONE', #192, #192, #14, .T. ) ;
#244 = ADVANCED_FACE ( 'NONE', ( #337, #61 ), #121, .T. ) ;
#245 = VERTEX_POINT ( 'NONE', #342 ) ;
#246 = CARTESIAN_POINT ( 'NONE',  ( 1.200000000000126743, 0.000000000000000000, 37.99999999999999289 ) ) ;
#247 = FACE_OUTER_BOUND ( 'NONE', #379, .T. ) ;
#248 = CONICAL_SURFACE ( 'NONE', #188, 0.5631304136175612207, 1.047197551196593857 ) ;
#249 = CIRCLE ( 'NONE', #40, 0.4699999999999999734 ) ;
#250 = DIRECTION ( 'NONE',  ( 3.491481338843133355E-15, -0.000000000000000000, 1.000000000000000000 ) ) ;
#251 = FACE_OUTER_BOUND ( 'NONE', #375, .T. ) ;
#252 = CARTESIAN_POINT ( 'NONE',  ( 0.5631304136175628861, 0.000000000000000000, 0.3968749999999959810 ) ) ;
#253 = DESIGN_CONTEXT ( 'detailed design', #171, 'design' ) ;
#254 = EDGE_LOOP ( 'NONE', ( #266 ) ) ;
#255 = AXIS2_PLACEMENT_3D ( 'NONE', #349, #222, #318 ) ;
#256 = EDGE_LOOP ( 'NONE', ( #142 ) ) ;
#257 = EDGE_LOOP ( 'NONE', ( #240 ) ) ;
#258 = CALENDAR_DATE ( 2023, 28, 9 ) ;
#259 = DATE_TIME_ROLE ( 'creation_date' ) ;
#260 = ORIENTED_EDGE ( 'NONE', *, *, #273, .T. ) ;
#261 = PERSON_AND_ORGANIZATION ( #60, #131 ) ;
#262 = DIRECTION ( 'NONE',  ( 1.000000000000000000, 0.000000000000000000, -3.491481338843133355E-15 ) ) ;
#263 = AXIS2_PLACEMENT_3D ( 'NONE', #69, #3, #157 ) ;
#264 = EDGE_LOOP ( 'NONE', ( #294 ) ) ;
#265 = PERSON_AND_ORGANIZATION ( #60, #131 ) ;
#266 = ORIENTED_EDGE ( 'NONE', *, *, #317, .F. ) ;
#267 = EDGE_CURVE ( 'NONE', #42, #42, #292, .T. ) ;
#268 = FACE_OUTER_BOUND ( 'NONE', #296, .T. ) ;
#269 = ADVANCED_FACE ( 'NONE', ( #304, #30 ), #85, .F. ) ;
#270 = DIRECTION ( 'NONE',  ( -3.491481338843133355E-15, 0.000000000000000000, -1.000000000000000000 ) ) ;
#271 = AXIS2_PLACEMENT_3D ( 'NONE', #11, #168, #44 ) ;
#272 = ADVANCED_FACE ( 'NONE', ( #386, #87 ), #214, .T. ) ;
#273 = EDGE_CURVE ( 'NONE', #217, #217, #163, .T. ) ;
#274 = AXIS2_PLACEMENT_3D ( 'NONE', #120, #118, #20 ) ;
#275 = AXIS2_PLACEMENT_3D ( 'NONE', #130, #250, #191 ) ;
#276 = DIRECTION ( 'NONE',  ( 1.000000000000000000, 0.000000000000000000, -3.465562973125571145E-15 ) ) ;
#277 = CARTESIAN_POINT ( 'NONE',  ( 1.326762908760390423E-13, 0.000000000000000000, 38.00000000000000000 ) ) ;
#278 = FACE_OUTER_BOUND ( 'NONE', #256, .T. ) ;
#279 = CARTESIAN_POINT ( 'NONE',  ( 0.000000000000000000, 0.000000000000000000, 0.000000000000000000 ) ) ;
#280 = VERTEX_POINT ( 'NONE', #72 ) ;
#281 = AXIS2_PLACEMENT_3D ( 'NONE', #302, #270, #392 ) ;
#282 = CIRCLE ( 'NONE', #275, 0.4699999999999993072 ) ;
#283 = DIRECTION ( 'NONE',  ( 1.000000000000000000, 0.000000000000000000, 0.000000000000000000 ) ) ;
#284 = EDGE_CURVE ( 'NONE', #39, #39, #249, .T. ) ;
#285 = VERTEX_POINT ( 'NONE', #252 ) ;
#286 = ORIENTED_EDGE ( 'NONE', *, *, #243, .F. ) ;
#287 = APPLICATION_CONTEXT ( 'configuration controlled 3d designs of mechanical parts and assemblies' ) ;
#288 = APPLICATION_PROTOCOL_DEFINITION ( 'international standard', 'config_control_design', 1994, #171 ) ;
#289 = PRODUCT_RELATED_PRODUCT_CATEGORY ( 'detail', '', ( #364 ) ) ;
#290 = CARTESIAN_POINT ( 'NONE',  ( 1.326762908760390423E-13, 0.000000000000000000, 38.00000000000000000 ) ) ;
#291 = DATE_AND_TIME ( #351, #36 ) ;
#292 = CIRCLE ( 'NONE', #31, 0.8249999999999999556 ) ;
#293 =( LENGTH_UNIT ( ) NAMED_UNIT ( * ) SI_UNIT ( .MILLI., .METRE. ) );
#294 = ORIENTED_EDGE ( 'NONE', *, *, #65, .F. ) ;
#295 = PERSON_AND_ORGANIZATION_ROLE ( 'creator' ) ;
#296 = EDGE_LOOP ( 'NONE', ( #260 ) ) ;
#297 = COORDINATED_UNIVERSAL_TIME_OFFSET ( 1, 0, .AHEAD. ) ;
#298 = DIRECTION ( 'NONE',  ( 3.491481338843133355E-15, -0.000000000000000000, 1.000000000000000000 ) ) ;
#299 = AXIS2_PLACEMENT_3D ( 'NONE', #116, #239, #177 ) ;
#300 = ADVANCED_FACE ( 'NONE', ( #125, #119 ), #307, .T. ) ;
#301 = DIRECTION ( 'NONE',  ( -3.491481338843133355E-15, 0.000000000000000000, -1.000000000000000000 ) ) ;
#302 = CARTESIAN_POINT ( 'NONE',  ( 8.578029301235232135E-16, 0.000000000000000000, 0.2456845238095264894 ) ) ;
#303 = DIRECTION ( 'NONE',  ( 1.000000000000000000, 0.000000000000000000, -3.460219699421823039E-15 ) ) ;
#304 = FACE_OUTER_BOUND ( 'NONE', #350, .T. ) ;
#305 = EDGE_CURVE ( 'NONE', #285, #285, #376, .T. ) ;
#306 = CC_DESIGN_APPROVAL ( #35, ( #335 ) ) ;
#307 = CYLINDRICAL_SURFACE ( 'NONE', #361, 0.4699999999999995848 ) ;
#308 = CARTESIAN_POINT ( 'NONE',  ( 0.8250000000000008438, 0.000000000000000000, 0.2456845238095236028 ) ) ;
#309 = FACE_OUTER_BOUND ( 'NONE', #134, .T. ) ;
#310 = VERTEX_POINT ( 'NONE', #98 ) ;
#311 = EDGE_CURVE ( 'NONE', #372, #372, #66, .T. ) ;
#312 = CARTESIAN_POINT ( 'NONE',  ( 0.5040741737109544207, 0.000000000000000000, 7.258819045102510081 ) ) ;
#313 = EDGE_CURVE ( 'NONE', #104, #104, #394, .T. ) ;
#314 = CARTESIAN_POINT ( 'NONE',  ( 2.969317835042924184E-15, 0.000000000000000000, 0.8504464285714261607 ) ) ;
#315 = AXIS2_PLACEMENT_3D ( 'NONE', #314, #128, #276 ) ;
#316 = PERSON_AND_ORGANIZATION ( #60, #131 ) ;
#317 = EDGE_CURVE ( 'NONE', #186, #186, #97, .T. ) ;
#318 = DIRECTION ( 'NONE',  ( 1.000000000000000000, 0.000000000000000000, 0.000000000000000000 ) ) ;
#319 = DIRECTION ( 'NONE',  ( 1.000000000000000000, 0.000000000000000000, -4.625929269271490844E-15 ) ) ;
#320 = EDGE_LOOP ( 'NONE', ( #152 ) ) ;
#321 = DIRECTION ( 'NONE',  ( 3.491481338843133355E-15, -0.000000000000000000, 1.000000000000000000 ) ) ;
#322 = ORIENTED_EDGE ( 'NONE', *, *, #77, .T. ) ;
#323 = APPROVAL_STATUS ( 'not_yet_approved' ) ;
#324 = AXIS2_PLACEMENT_3D ( 'NONE', #290, #197, #175 ) ;
#325 = CYLINDRICAL_SURFACE ( 'NONE', #343, 0.5631304136175612207 ) ;
#326 = CONICAL_SURFACE ( 'NONE', #190, 0.8249999999999999556, 1.047197551196613619 ) ;
#327 = ORIENTED_EDGE ( 'NONE', *, *, #284, .T. ) ;
#328 = COORDINATED_UNIVERSAL_TIME_OFFSET ( 1, 0, .AHEAD. ) ;
#329 = ORIENTED_EDGE ( 'NONE', *, *, #273, .F. ) ;
#330 = CC_DESIGN_PERSON_AND_ORGANIZATION_ASSIGNMENT ( #170, #141, ( #74 ) ) ;
#331 = DIRECTION ( 'NONE',  ( 3.491481338843133355E-15, -0.000000000000000000, 1.000000000000000000 ) ) ;
#332 = ADVANCED_BREP_SHAPE_REPRESENTATION ( '966850', ( #336, #387 ), #201 ) ;
#333 = EDGE_CURVE ( 'NONE', #245, #245, #282, .T. ) ;
#334 = PLANE ( 'NONE',  #147 ) ;
#335 = SECURITY_CLASSIFICATION ( '', '', #114 ) ;
#336 = MANIFOLD_SOLID_BREP ( 'Corps-Déplacer/Copier1', #100 ) ;
#337 = FACE_BOUND ( 'NONE', #228, .T. ) ;
#338 = CC_DESIGN_PERSON_AND_ORGANIZATION_ASSIGNMENT ( #316, #238, ( #335 ) ) ;
#339 = ADVANCED_FACE ( 'NONE', ( #309, #344 ), #2, .T. ) ;
#340 = FACE_OUTER_BOUND ( 'NONE', #145, .T. ) ;
#341 = AXIS2_PLACEMENT_3D ( 'NONE', #279, #368, #161 ) ;
#342 = CARTESIAN_POINT ( 'NONE',  ( 0.4700000000000237321, 0.000000000000000000, 6.999999999999997335 ) ) ;
#343 = AXIS2_PLACEMENT_3D ( 'NONE', #111, #162, #283 ) ;
#344 = FACE_BOUND ( 'NONE', #320, .T. ) ;
#345 = CARTESIAN_POINT ( 'NONE',  ( 2.441439108813086045E-15, 0.000000000000000000, 0.6992559523809547262 ) ) ;
#346 = ADVANCED_FACE ( 'NONE', ( #127, #5 ), #326, .T. ) ;
#347 = DIRECTION ( 'NONE',  ( -1.000000000000000000, 0.000000000000000000, 4.625929269271495577E-15 ) ) ;
#348 = FACE_OUTER_BOUND ( 'NONE', #374, .T. ) ;
#349 = CARTESIAN_POINT ( 'NONE',  ( 1.326762908760390423E-13, 0.000000000000000000, 38.00000000000000000 ) ) ;
#350 = EDGE_LOOP ( 'NONE', ( #286 ) ) ;
#351 = CALENDAR_DATE ( 2023, 28, 9 ) ;
#352 = ORIENTED_EDGE ( 'NONE', *, *, #384, .F. ) ;
#353 = FACE_OUTER_BOUND ( 'NONE', #264, .T. ) ;
#354 = DIRECTION ( 'NONE',  ( 0.000000000000000000, 0.000000000000000000, 1.000000000000000000 ) ) ;
#355 = AXIS2_PLACEMENT_3D ( 'NONE', #34, #155, #73 ) ;
#356 = EDGE_LOOP ( 'NONE', ( #322 ) ) ;
#357 = CALENDAR_DATE ( 2023, 28, 9 ) ;
#358 = CARTESIAN_POINT ( 'NONE',  ( 1.326762908760390423E-13, 1.199999999999993960, 38.00000000000000000 ) ) ;
#359 = FACE_BOUND ( 'NONE', #356, .T. ) ;
#360 = AXIS2_PLACEMENT_3D ( 'NONE', #377, #321, #16 ) ;
#361 = AXIS2_PLACEMENT_3D ( 'NONE', #32, #1, #366 ) ;
#362 = ORIENTED_EDGE ( 'NONE', *, *, #305, .F. ) ;
#363 = CARTESIAN_POINT ( 'NONE',  ( 2.441439108813086045E-15, 0.000000000000000000, 0.6992559523809547262 ) ) ;
#364 = PRODUCT ( '966850', '966850', '', ( #56 ) ) ;
#365 = AXIS2_PLACEMENT_3D ( 'NONE', #91, #124, #242 ) ;
#366 = DIRECTION ( 'NONE',  ( 1.000000000000000000, 0.000000000000000000, 0.000000000000000000 ) ) ;
#367 = CARTESIAN_POINT ( 'NONE',  ( 1.500000000000038414, 0.000000000000000000, 10.97566482938343491 ) ) ;
#368 = DIRECTION ( 'NONE',  ( 3.491481338843133355E-15, -0.000000000000000000, 1.000000000000000000 ) ) ;
#369 = UNCERTAINTY_MEASURE_WITH_UNIT (LENGTH_MEASURE( 1.000000000000000082E-05 ), #293, 'distance_accuracy_value', 'NONE');
#370 = DIRECTION ( 'NONE',  ( 3.491481338843133355E-15, -0.000000000000000000, 1.000000000000000000 ) ) ;
#371 = CARTESIAN_POINT ( 'NONE',  ( 1.326762908760390423E-13, 0.000000000000000000, 38.00000000000000000 ) ) ;
#372 = VERTEX_POINT ( 'NONE', #216 ) ;
#373 = FACE_OUTER_BOUND ( 'NONE', #18, .T. ) ;
#374 = EDGE_LOOP ( 'NONE', ( #105 ) ) ;
#375 = EDGE_LOOP ( 'NONE', ( #181 ) ) ;
#376 = CIRCLE ( 'NONE', #59, 0.5631304136175614428 ) ;
#377 = CARTESIAN_POINT ( 'NONE',  ( -2.475622669453393663E-33, 0.000000000000000000, -7.090465132698278275E-19 ) ) ;
#378 = ORIENTED_EDGE ( 'NONE', *, *, #19, .T. ) ;
#379 = EDGE_LOOP ( 'NONE', ( #212 ) ) ;
#380 = CALENDAR_DATE ( 2023, 28, 9 ) ;
#381 = CARTESIAN_POINT ( 'NONE',  ( 0.000000000000000000, 0.000000000000000000, 0.000000000000000000 ) ) ;
#382 = ADVANCED_FACE ( 'NONE', ( #247, #348 ), #10, .T. ) ;
#383 = EDGE_LOOP ( 'NONE', ( #149 ) ) ;
#384 = EDGE_CURVE ( 'NONE', #88, #88, #158, .T. ) ;
#385 = AXIS2_PLACEMENT_3D ( 'NONE', #220, #129, #347 ) ;
#386 = FACE_OUTER_BOUND ( 'NONE', #109, .T. ) ;
#387 = AXIS2_PLACEMENT_3D ( 'NONE', #381, #354, #47 ) ;
#388 = FACE_BOUND ( 'NONE', #27, .T. ) ;
#389 = FACE_OUTER_BOUND ( 'NONE', #231, .T. ) ;
#390 = CARTESIAN_POINT ( 'NONE',  ( 3.167272357379130989E-15, 0.5631304136175612207, 0.9071428571428580279 ) ) ;
#391 = EDGE_LOOP ( 'NONE', ( #166 ) ) ;
#392 = DIRECTION ( 'NONE',  ( -1.000000000000000000, 0.000000000000000000, 3.482588796468590275E-15 ) ) ;
#393 = CIRCLE ( 'NONE', #64, 0.5631304136175612207 ) ;
#394 = CIRCLE ( 'NONE', #263, 1.499999999999996669 ) ;
#395 = DATE_AND_TIME ( #95, #24 ) ;
ENDSEC;
END-ISO-10303-21;
