ISO-10303-21;
HEADER;
FILE_DESCRIPTION (( 'STEP AP203' ),
    '1' );
FILE_NAME ('966849.step',
    '2023-09-28T06:25:35',
    ( '' ),
    ( '' ),
    'SwSTEP 2.0',
    'SolidWorks 2022',
    '' );
FILE_SCHEMA (( 'CONFIG_CONTROL_DESIGN' ));
ENDSEC;

DATA;
#1 = ORIENTED_EDGE ( 'NONE', *, *, #394, .F. ) ;
#2 = AXIS2_PLACEMENT_3D ( 'NONE', #320, #18, #350 ) ;
#3 = CIRCLE ( 'NONE', #70, 0.9499999999999998446 ) ;
#4 = DATE_AND_TIME ( #345, #391 ) ;
#5 = EDGE_LOOP ( 'NONE', ( #1 ) ) ;
#6 = DIRECTION ( 'NONE',  ( 3.491481338843133355E-15, -0.000000000000000000, 1.000000000000000000 ) ) ;
#7 = APPROVAL ( #346, 'UNSPECIFIED' ) ;
#8 = CARTESIAN_POINT ( 'NONE',  ( 0.9500000000000008438, 0.000000000000000000, 0.2425347222222188071 ) ) ;
#9 = FACE_OUTER_BOUND ( 'NONE', #158, .T. ) ;
#10 = ADVANCED_FACE ( 'NONE', ( #334, #218 ), #185, .T. ) ;
#11 = CARTESIAN_POINT ( 'NONE',  ( 0.5300000000000036904, 0.000000000000000000, 1.058333333333332682 ) ) ;
#12 = ORIENTED_EDGE ( 'NONE', *, *, #86, .F. ) ;
#13 = AXIS2_PLACEMENT_3D ( 'NONE', #137, #103, #266 ) ;
#14 = AXIS2_PLACEMENT_3D ( 'NONE', #230, #378, #238 ) ;
#15 = DIRECTION ( 'NONE',  ( 0.000000000000000000, 0.000000000000000000, 1.000000000000000000 ) ) ;
#16 = DIRECTION ( 'NONE',  ( 1.000000000000000000, 0.000000000000000000, -3.491481338843133355E-15 ) ) ;
#17 = DIRECTION ( 'NONE',  ( 3.491481338843133355E-15, -0.000000000000000000, 1.000000000000000000 ) ) ;
#18 = DIRECTION ( 'NONE',  ( 3.491481338843133355E-15, -0.000000000000000000, 1.000000000000000000 ) ) ;
#19 = AXIS2_PLACEMENT_3D ( 'NONE', #301, #276, #362 ) ;
#20 = FACE_OUTER_BOUND ( 'NONE', #278, .T. ) ;
#21 = ADVANCED_FACE ( 'NONE', ( #9, #97 ), #340, .T. ) ;
#22 = DIRECTION ( 'NONE',  ( 1.000000000000000000, 0.000000000000000000, -3.075346393834017065E-15 ) ) ;
#23 = ADVANCED_FACE ( 'NONE', ( #99, #153 ), #24, .T. ) ;
#24 = CONICAL_SURFACE ( 'NONE', #288, 1.499999999999996669, 0.7853981633974497223 ) ;
#25 = CARTESIAN_POINT ( 'NONE',  ( 0.6444854825538248733, 0.000000000000000000, 1.058333333333332460 ) ) ;
#26 = FACE_OUTER_BOUND ( 'NONE', #187, .T. ) ;
#27 = EDGE_LOOP ( 'NONE', ( #248 ) ) ;
#28 = VERTEX_POINT ( 'NONE', #146 ) ;
#29 = ORIENTED_EDGE ( 'NONE', *, *, #111, .T. ) ;
#30 = CYLINDRICAL_SURFACE ( 'NONE', #341, 0.6444854825538213206 ) ;
#31 = CONICAL_SURFACE ( 'NONE', #260, 0.5640741737109286058, 0.2617993877991430240 ) ;
#32 = CONICAL_SURFACE ( 'NONE', #348, 0.9499999999999999556, 1.047197551196591192 ) ;
#33 = ADVANCED_FACE ( 'NONE', ( #46, #229 ), #205, .T. ) ;
#34 = DIRECTION ( 'NONE',  ( 3.491481338843133355E-15, -0.000000000000000000, 1.000000000000000000 ) ) ;
#35 = DIRECTION ( 'NONE',  ( 3.491481338843133355E-15, -0.000000000000000000, 1.000000000000000000 ) ) ;
#36 = PRODUCT_DEFINITION_SHAPE ( 'NONE', 'NONE',  #259 ) ;
#37 = DATE_TIME_ROLE ( 'creation_date' ) ;
#38 = SECURITY_CLASSIFICATION_LEVEL ( 'unclassified' ) ;
#39 = EDGE_LOOP ( 'NONE', ( #95 ) ) ;
#40 = AXIS2_PLACEMENT_3D ( 'NONE', #327, #232, #295 ) ;
#41 = EDGE_LOOP ( 'NONE', ( #311 ) ) ;
#42 =( NAMED_UNIT ( * ) SI_UNIT ( $, .STERADIAN. ) SOLID_ANGLE_UNIT ( ) );
#43 = EDGE_LOOP ( 'NONE', ( #363 ) ) ;
#44 = CARTESIAN_POINT ( 'NONE',  ( 0.000000000000000000, 0.000000000000000000, 0.000000000000000000 ) ) ;
#45 = APPLICATION_PROTOCOL_DEFINITION ( 'international standard', 'config_control_design', 1994, #375 ) ;
#46 = FACE_OUTER_BOUND ( 'NONE', #338, .T. ) ;
#47 =( GEOMETRIC_REPRESENTATION_CONTEXT ( 3 ) GLOBAL_UNCERTAINTY_ASSIGNED_CONTEXT ( ( #61 ) ) GLOBAL_UNIT_ASSIGNED_CONTEXT ( ( #368, #372, #42 ) ) REPRESENTATION_CONTEXT ( 'NONE', 'WORKASPACE' ) );
#48 = COORDINATED_UNIVERSAL_TIME_OFFSET ( 1, 0, .AHEAD. ) ;
#49 = CARTESIAN_POINT ( 'NONE',  ( 2.918466071074201231E-14, 0.000000000000000000, 8.358819045102515943 ) ) ;
#50 = FACE_OUTER_BOUND ( 'NONE', #386, .T. ) ;
#51 = AXIS2_PLACEMENT_3D ( 'NONE', #385, #90, #388 ) ;
#52 = FACE_OUTER_BOUND ( 'NONE', #122, .T. ) ;
#53 = FACE_BOUND ( 'NONE', #27, .T. ) ;
#54 = DIRECTION ( 'NONE',  ( 1.000000000000000000, 0.000000000000000000, -3.537922878636909870E-15 ) ) ;
#55 = DIRECTION ( 'NONE',  ( 1.000000000000000000, 0.000000000000000000, -3.364551108860585097E-15 ) ) ;
#56 = DIRECTION ( 'NONE',  ( 3.491481338843133355E-15, -0.000000000000000000, 1.000000000000000000 ) ) ;
#57 = DIRECTION ( 'NONE',  ( 3.491481338843133355E-15, -0.000000000000000000, 1.000000000000000000 ) ) ;
#58 = CARTESIAN_POINT ( 'NONE',  ( 0.5640741737109576937, 0.000000000000000000, 8.358819045102514167 ) ) ;
#59 = EDGE_LOOP ( 'NONE', ( #256 ) ) ;
#60 = AXIS2_PLACEMENT_3D ( 'NONE', #212, #114, #272 ) ;
#61 = UNCERTAINTY_MEASURE_WITH_UNIT (LENGTH_MEASURE( 1.000000000000000082E-05 ), #368, 'distance_accuracy_value', 'NONE');
#62 = APPROVAL_DATE_TIME ( #191, #7 ) ;
#63 = VERTEX_POINT ( 'NONE', #261 ) ;
#64 = ORIENTED_EDGE ( 'NONE', *, *, #133, .T. ) ;
#65 = PERSON_AND_ORGANIZATION_ROLE ( 'design_supplier' ) ;
#66 = ORIENTED_EDGE ( 'NONE', *, *, #383, .T. ) ;
#67 = COORDINATED_UNIVERSAL_TIME_OFFSET ( 1, 0, .AHEAD. ) ;
#68 = DIRECTION ( 'NONE',  ( 3.491481338843133355E-15, -0.000000000000000000, 1.000000000000000000 ) ) ;
#69 = DIRECTION ( 'NONE',  ( 1.000000000000000000, 0.000000000000000000, -3.532778664303614529E-15 ) ) ;
#70 = AXIS2_PLACEMENT_3D ( 'NONE', #79, #269, #54 ) ;
#71 = PERSON_AND_ORGANIZATION ( #267, #322 ) ;
#72 = ORIENTED_EDGE ( 'NONE', *, *, #86, .T. ) ;
#73 = EDGE_CURVE ( 'NONE', #304, #304, #161, .T. ) ;
#74 = DATE_TIME_ROLE ( 'classification_date' ) ;
#75 = AXIS2_PLACEMENT_3D ( 'NONE', #126, #226, #108 ) ;
#76 = DIRECTION ( 'NONE',  ( 3.491481338843133355E-15, -0.000000000000000000, 1.000000000000000000 ) ) ;
#77 = PRODUCT_DEFINITION_FORMATION_WITH_SPECIFIED_SOURCE ( 'ANY', '', #309, .NOT_KNOWN. ) ;
#78 = CARTESIAN_POINT ( 'NONE',  ( 1.326762908760390423E-13, 0.000000000000000000, 38.00000000000000000 ) ) ;
#79 = CARTESIAN_POINT ( 'NONE',  ( 2.694380998464873158E-15, 0.000000000000000000, 0.7717013888888859530 ) ) ;
#80 = DIRECTION ( 'NONE',  ( 3.491481338843133355E-15, -0.000000000000000000, 1.000000000000000000 ) ) ;
#81 = CARTESIAN_POINT ( 'NONE',  ( 2.848345626948596311E-15, 0.000000000000000000, 0.8157986111111126259 ) ) ;
#82 = CARTESIAN_POINT ( 'NONE',  ( 3.464204140883415558E-15, 0.000000000000000000, 0.9921874999999982236 ) ) ;
#83 = CARTESIAN_POINT ( 'NONE',  ( 0.9500000000000027311, 0.000000000000000000, 0.8157986111111092953 ) ) ;
#84 = AXIS2_PLACEMENT_3D ( 'NONE', #170, #80, #298 ) ;
#85 = FACE_OUTER_BOUND ( 'NONE', #287, .T. ) ;
#86 = EDGE_CURVE ( 'NONE', #392, #392, #100, .T. ) ;
#87 = ORIENTED_EDGE ( 'NONE', *, *, #73, .T. ) ;
#88 = CARTESIAN_POINT ( 'NONE',  ( 0.5299175385115041381, 0.000000000000000000, -1.850197196838604108E-15 ) ) ;
#89 = EDGE_LOOP ( 'NONE', ( #12 ) ) ;
#90 = DIRECTION ( 'NONE',  ( 3.491481338843133355E-15, -0.000000000000000000, 1.000000000000000000 ) ) ;
#91 = ORIENTED_EDGE ( 'NONE', *, *, #353, .F. ) ;
#92 = AXIS2_PLACEMENT_3D ( 'NONE', #332, #57, #302 ) ;
#93 = CC_DESIGN_PERSON_AND_ORGANIZATION_ASSIGNMENT ( #188, #155, ( #330 ) ) ;
#94 = PERSON_AND_ORGANIZATION_ROLE ( 'creator' ) ;
#95 = ORIENTED_EDGE ( 'NONE', *, *, #344, .F. ) ;
#96 = PERSON_AND_ORGANIZATION ( #267, #322 ) ;
#97 = FACE_OUTER_BOUND ( 'NONE', #220, .T. ) ;
#98 = APPROVAL_STATUS ( 'not_yet_approved' ) ;
#99 = FACE_BOUND ( 'NONE', #39, .T. ) ;
#100 = CIRCLE ( 'NONE', #215, 0.5299175385115041381 ) ;
#101 = LOCAL_TIME ( 8, 25, 35.00000000000000000, #48 ) ;
#102 = APPROVAL_ROLE ( '' ) ;
#103 = DIRECTION ( 'NONE',  ( 3.491481338843133355E-15, -0.000000000000000000, 1.000000000000000000 ) ) ;
#104 = AXIS2_PLACEMENT_3D ( 'NONE', #81, #262, #349 ) ;
#105 = DIRECTION ( 'NONE',  ( -1.000000000000000000, 0.000000000000000000, 4.625929269271495577E-15 ) ) ;
#106 = CC_DESIGN_APPROVAL ( #222, ( #77 ) ) ;
#107 = DIRECTION ( 'NONE',  ( 1.000000000000000000, 0.000000000000000000, -4.625929269271490844E-15 ) ) ;
#108 = DIRECTION ( 'NONE',  ( 1.000000000000000000, 0.000000000000000000, -3.469446951953614189E-15 ) ) ;
#109 = FACE_OUTER_BOUND ( 'NONE', #5, .T. ) ;
#110 = AXIS2_PLACEMENT_3D ( 'NONE', #132, #17, #134 ) ;
#111 = EDGE_CURVE ( 'NONE', #28, #28, #280, .T. ) ;
#112 = DIRECTION ( 'NONE',  ( 3.491481338843133355E-15, -0.000000000000000000, 1.000000000000000000 ) ) ;
#113 = ORIENTED_EDGE ( 'NONE', *, *, #151, .T. ) ;
#114 = DIRECTION ( 'NONE',  ( 3.491481338843133355E-15, -0.000000000000000000, 1.000000000000000000 ) ) ;
#115 = DIRECTION ( 'NONE',  ( 3.491481338843133355E-15, -0.000000000000000000, 1.000000000000000000 ) ) ;
#116 = VERTEX_POINT ( 'NONE', #184 ) ;
#117 = DIRECTION ( 'NONE',  ( -3.491481338843133355E-15, 0.000000000000000000, -1.000000000000000000 ) ) ;
#118 = FACE_OUTER_BOUND ( 'NONE', #245, .T. ) ;
#119 = DIRECTION ( 'NONE',  ( -3.491481338843133355E-15, 0.000000000000000000, -1.000000000000000000 ) ) ;
#120 = EDGE_CURVE ( 'NONE', #241, #241, #236, .T. ) ;
#121 = CC_DESIGN_PERSON_AND_ORGANIZATION_ASSIGNMENT ( #366, #94, ( #77 ) ) ;
#122 = EDGE_LOOP ( 'NONE', ( #160 ) ) ;
#123 = APPROVAL_DATE_TIME ( #4, #222 ) ;
#124 = EDGE_LOOP ( 'NONE', ( #87 ) ) ;
#125 = ORIENTED_EDGE ( 'NONE', *, *, #159, .T. ) ;
#126 = CARTESIAN_POINT ( 'NONE',  ( 4.138013526090214172E-14, 0.000000000000000000, 11.85174178092930219 ) ) ;
#127 = CALENDAR_DATE ( 2023, 28, 9 ) ;
#128 = ADVANCED_FACE ( 'NONE', ( #138, #167 ), #31, .T. ) ;
#129 = MECHANICAL_CONTEXT ( 'NONE', #375, 'mechanical' ) ;
#130 = AXIS2_PLACEMENT_3D ( 'NONE', #140, #377, #374 ) ;
#131 = PERSON_AND_ORGANIZATION ( #267, #322 ) ;
#132 = CARTESIAN_POINT ( 'NONE',  ( 0.000000000000000000, 0.000000000000000000, 0.000000000000000000 ) ) ;
#133 = EDGE_CURVE ( 'NONE', #213, #213, #173, .T. ) ;
#134 = DIRECTION ( 'NONE',  ( 1.000000000000000000, 0.000000000000000000, -3.491481338843133355E-15 ) ) ;
#135 = EDGE_CURVE ( 'NONE', #333, #333, #305, .T. ) ;
#136 = CC_DESIGN_SECURITY_CLASSIFICATION ( #330, ( #77 ) ) ;
#137 = CARTESIAN_POINT ( 'NONE',  ( 2.828099884462938018E-14, 0.000000000000000000, 8.099999999999999645 ) ) ;
#138 = FACE_OUTER_BOUND ( 'NONE', #189, .T. ) ;
#139 = ADVANCED_FACE ( 'NONE', ( #354, #203 ), #379, .F. ) ;
#140 = CARTESIAN_POINT ( 'NONE',  ( 3.695151083608984905E-15, 0.6444854825538212095, 1.058333333333333792 ) ) ;
#141 = CC_DESIGN_APPROVAL ( #180, ( #259 ) ) ;
#142 = VERTEX_POINT ( 'NONE', #359 ) ;
#143 = FACE_OUTER_BOUND ( 'NONE', #331, .T. ) ;
#144 = EDGE_LOOP ( 'NONE', ( #282 ) ) ;
#145 = PRODUCT_RELATED_PRODUCT_CATEGORY ( 'detail', '', ( #309 ) ) ;
#146 = CARTESIAN_POINT ( 'NONE',  ( 0.6444854825538234300, 0.000000000000000000, 0.5953124999999980238 ) ) ;
#147 = ORIENTED_EDGE ( 'NONE', *, *, #383, .F. ) ;
#148 = AXIS2_PLACEMENT_3D ( 'NONE', #308, #35, #369 ) ;
#149 = APPROVAL_PERSON_ORGANIZATION ( #96, #180, #339 ) ;
#150 = CARTESIAN_POINT ( 'NONE',  ( 3.695151083608988060E-15, 0.000000000000000000, 1.058333333333334680 ) ) ;
#151 = EDGE_CURVE ( 'NONE', #211, #211, #210, .T. ) ;
#152 = VERTEX_POINT ( 'NONE', #277 ) ;
#153 = FACE_OUTER_BOUND ( 'NONE', #315, .T. ) ;
#154 = ORIENTED_EDGE ( 'NONE', *, *, #176, .T. ) ;
#155 = PERSON_AND_ORGANIZATION_ROLE ( 'classification_officer' ) ;
#156 = ORIENTED_EDGE ( 'NONE', *, *, #176, .F. ) ;
#157 = APPROVAL_PERSON_ORGANIZATION ( #199, #7, #249 ) ;
#158 = EDGE_LOOP ( 'NONE', ( #193 ) ) ;
#159 = EDGE_CURVE ( 'NONE', #116, #116, #182, .T. ) ;
#160 = ORIENTED_EDGE ( 'NONE', *, *, #120, .T. ) ;
#161 = CIRCLE ( 'NONE', #390, 0.9499999999999999556 ) ;
#162 = CIRCLE ( 'NONE', #381, 0.6444854825538213206 ) ;
#163 = ADVANCED_FACE ( 'NONE', ( #351, #207 ), #225, .T. ) ;
#164 = CALENDAR_DATE ( 2023, 28, 9 ) ;
#165 = MANIFOLD_SOLID_BREP ( 'Corps-Déplacer/Copier1', #313 ) ;
#166 = CARTESIAN_POINT ( 'NONE',  ( 2.918466071074201231E-14, 0.000000000000000000, 8.358819045102515943 ) ) ;
#167 = FACE_BOUND ( 'NONE', #181, .T. ) ;
#168 = LOCAL_TIME ( 8, 25, 35.00000000000000000, #198 ) ;
#169 = CIRCLE ( 'NONE', #51, 1.199999999999993960 ) ;
#170 = CARTESIAN_POINT ( 'NONE',  ( 3.695151083608988060E-15, 0.000000000000000000, 1.058333333333334680 ) ) ;
#171 = FACE_OUTER_BOUND ( 'NONE', #124, .T. ) ;
#172 = VERTEX_POINT ( 'NONE', #299 ) ;
#173 = CIRCLE ( 'NONE', #231, 0.5640741737109286058 ) ;
#174 = AXIS2_PLACEMENT_3D ( 'NONE', #150, #242, #175 ) ;
#175 = DIRECTION ( 'NONE',  ( 1.000000000000000000, 0.000000000000000000, -3.682196057497939572E-15 ) ) ;
#176 = EDGE_CURVE ( 'NONE', #152, #152, #3, .T. ) ;
#177 = ORIENTED_EDGE ( 'NONE', *, *, #344, .T. ) ;
#178 = DIRECTION ( 'NONE',  ( 1.000000000000000000, 0.000000000000000000, 0.000000000000000000 ) ) ;
#179 = CYLINDRICAL_SURFACE ( 'NONE', #264, 0.5299999999999994715 ) ;
#180 = APPROVAL ( #98, 'UNSPECIFIED' ) ;
#181 = EDGE_LOOP ( 'NONE', ( #64 ) ) ;
#182 = CIRCLE ( 'NONE', #13, 0.5299999999999990274 ) ;
#183 = CIRCLE ( 'NONE', #92, 0.9499999999999999556 ) ;
#184 = CARTESIAN_POINT ( 'NONE',  ( 0.5300000000000273381, 0.000000000000000000, 8.099999999999997868 ) ) ;
#185 = CYLINDRICAL_SURFACE ( 'NONE', #148, 0.9499999999999999556 ) ;
#186 = CALENDAR_DATE ( 2023, 28, 9 ) ;
#187 = EDGE_LOOP ( 'NONE', ( #209 ) ) ;
#188 = PERSON_AND_ORGANIZATION ( #267, #322 ) ;
#189 = EDGE_LOOP ( 'NONE', ( #214 ) ) ;
#190 = DIRECTION ( 'NONE',  ( 1.000000000000000000, 0.000000000000000000, -3.491481338843133355E-15 ) ) ;
#191 = DATE_AND_TIME ( #127, #376 ) ;
#192 = DATE_AND_TIME ( #186, #168 ) ;
#193 = ORIENTED_EDGE ( 'NONE', *, *, #111, .F. ) ;
#194 = CONICAL_SURFACE ( 'NONE', #110, 0.5299175385115041381, 1.047197551196600518 ) ;
#195 = ADVANCED_BREP_SHAPE_REPRESENTATION ( '966849', ( #165, #271 ), #47 ) ;
#196 = APPROVAL_STATUS ( 'not_yet_approved' ) ;
#197 = DIRECTION ( 'NONE',  ( 1.000000000000000000, 0.000000000000000000, -3.480859606400830004E-15 ) ) ;
#198 = COORDINATED_UNIVERSAL_TIME_OFFSET ( 1, 0, .AHEAD. ) ;
#199 = PERSON_AND_ORGANIZATION ( #267, #322 ) ;
#200 = AXIS2_PLACEMENT_3D ( 'NONE', #337, #68, #370 ) ;
#201 = CIRCLE ( 'NONE', #174, 0.5300000000000000266 ) ;
#202 = DIRECTION ( 'NONE',  ( 1.000000000000000000, 0.000000000000000000, -3.075346393834017065E-15 ) ) ;
#203 = FACE_OUTER_BOUND ( 'NONE', #144, .T. ) ;
#204 = CARTESIAN_POINT ( 'NONE',  ( 4.860214372490758887E-33, 0.000000000000000000, 1.392020721525935692E-18 ) ) ;
#205 = CONICAL_SURFACE ( 'NONE', #2, 0.6444854825538213206, 1.047197551196608067 ) ;
#206 = DIRECTION ( 'NONE',  ( 3.491481338843133355E-15, -0.000000000000000000, 1.000000000000000000 ) ) ;
#207 = FACE_OUTER_BOUND ( 'NONE', #43, .T. ) ;
#208 = PLANE ( 'NONE',  #300 ) ;
#209 = ORIENTED_EDGE ( 'NONE', *, *, #246, .F. ) ;
#210 = CIRCLE ( 'NONE', #40, 1.499999999999996669 ) ;
#211 = VERTEX_POINT ( 'NONE', #274 ) ;
#212 = CARTESIAN_POINT ( 'NONE',  ( 1.616628599078933558E-15, 0.000000000000000000, 0.4630208333333343806 ) ) ;
#213 = VERTEX_POINT ( 'NONE', #58 ) ;
#214 = ORIENTED_EDGE ( 'NONE', *, *, #120, .F. ) ;
#215 = AXIS2_PLACEMENT_3D ( 'NONE', #44, #76, #190 ) ;
#216 = TOROIDAL_SURFACE ( 'NONE', #19, 1.529999999999999138, 1.000000000000000444 ) ;
#217 = CARTESIAN_POINT ( 'NONE',  ( 1.326762908760390423E-13, 0.000000000000000000, 38.00000000000000000 ) ) ;
#218 = FACE_OUTER_BOUND ( 'NONE', #224, .T. ) ;
#219 = PERSON_AND_ORGANIZATION ( #267, #322 ) ;
#220 = EDGE_LOOP ( 'NONE', ( #343 ) ) ;
#221 = ORIENTED_EDGE ( 'NONE', *, *, #135, .F. ) ;
#222 = APPROVAL ( #196, 'UNSPECIFIED' ) ;
#223 = ADVANCED_FACE ( 'NONE', ( #291 ), #234, .F. ) ;
#224 = EDGE_LOOP ( 'NONE', ( #312 ) ) ;
#225 = CONICAL_SURFACE ( 'NONE', #14, 0.9499999999999998446, 1.047197551196608067 ) ;
#226 = DIRECTION ( 'NONE',  ( 3.491481338843133355E-15, -0.000000000000000000, 1.000000000000000000 ) ) ;
#227 = COORDINATED_UNIVERSAL_TIME_OFFSET ( 1, 0, .AHEAD. ) ;
#228 = DIRECTION ( 'NONE',  ( 1.000000000000000000, 0.000000000000000000, 0.000000000000000000 ) ) ;
#229 = FACE_BOUND ( 'NONE', #258, .T. ) ;
#230 = CARTESIAN_POINT ( 'NONE',  ( 2.848345626948596311E-15, 0.000000000000000000, 0.8157986111111126259 ) ) ;
#231 = AXIS2_PLACEMENT_3D ( 'NONE', #166, #358, #202 ) ;
#232 = DIRECTION ( 'NONE',  ( 3.491481338843133355E-15, -0.000000000000000000, 1.000000000000000000 ) ) ;
#233 = DESIGN_CONTEXT ( 'detailed design', #279, 'design' ) ;
#234 = PLANE ( 'NONE',  #356 ) ;
#235 = FACE_BOUND ( 'NONE', #367, .T. ) ;
#236 = CIRCLE ( 'NONE', #75, 1.500000000000000000 ) ;
#237 = CIRCLE ( 'NONE', #60, 0.6444854825538213206 ) ;
#238 = DIRECTION ( 'NONE',  ( -1.000000000000000000, 0.000000000000000000, 3.537922878636909870E-15 ) ) ;
#239 = ADVANCED_FACE ( 'NONE', ( #20, #52 ), #268, .T. ) ;
#240 = CC_DESIGN_PERSON_AND_ORGANIZATION_ASSIGNMENT ( #71, #371, ( #259 ) ) ;
#241 = VERTEX_POINT ( 'NONE', #360 ) ;
#242 = DIRECTION ( 'NONE',  ( 3.491481338843133355E-15, -0.000000000000000000, 1.000000000000000000 ) ) ;
#243 = FACE_OUTER_BOUND ( 'NONE', #389, .T. ) ;
#244 = DIRECTION ( 'NONE',  ( -1.000000000000000000, 0.000000000000000000, 3.491481338843133355E-15 ) ) ;
#245 = EDGE_LOOP ( 'NONE', ( #270 ) ) ;
#246 = EDGE_CURVE ( 'NONE', #393, #393, #290, .T. ) ;
#247 = FACE_OUTER_BOUND ( 'NONE', #41, .T. ) ;
#248 = ORIENTED_EDGE ( 'NONE', *, *, #297, .F. ) ;
#249 = APPROVAL_ROLE ( '' ) ;
#250 = AXIS2_PLACEMENT_3D ( 'NONE', #316, #6, #69 ) ;
#251 = LOCAL_TIME ( 8, 25, 35.00000000000000000, #67 ) ;
#252 = APPLICATION_PROTOCOL_DEFINITION ( 'international standard', 'config_control_design', 1994, #279 ) ;
#253 = EDGE_LOOP ( 'NONE', ( #125 ) ) ;
#254 = ADVANCED_FACE ( 'NONE', ( #109, #235 ), #194, .T. ) ;
#255 = CALENDAR_DATE ( 2023, 28, 9 ) ;
#256 = ORIENTED_EDGE ( 'NONE', *, *, #73, .F. ) ;
#257 = PERSON_AND_ORGANIZATION_ROLE ( 'design_owner' ) ;
#258 = EDGE_LOOP ( 'NONE', ( #29 ) ) ;
#259 = PRODUCT_DEFINITION ( 'UNKNOWN', '', #77, #233 ) ;
#260 = AXIS2_PLACEMENT_3D ( 'NONE', #49, #112, #22 ) ;
#261 = CARTESIAN_POINT ( 'NONE',  ( 0.6444854825538247622, 0.000000000000000000, 0.9921874999999961142 ) ) ;
#262 = DIRECTION ( 'NONE',  ( 3.491481338843133355E-15, -0.000000000000000000, 1.000000000000000000 ) ) ;
#263 = FACE_OUTER_BOUND ( 'NONE', #382, .T. ) ;
#264 = AXIS2_PLACEMENT_3D ( 'NONE', #217, #115, #178 ) ;
#265 = ADVANCED_FACE ( 'NONE', ( #263, #50 ), #323, .T. ) ;
#266 = DIRECTION ( 'NONE',  ( 1.000000000000000000, 0.000000000000000000, -3.273063162220396735E-15 ) ) ;
#267 = PERSON ( 'UNSPECIFIED', 'UNSPECIFIED', 'UNSPECIFIED', ('UNSPECIFIED'), ('UNSPECIFIED'), ('UNSPECIFIED') ) ;
#268 = CYLINDRICAL_SURFACE ( 'NONE', #296, 1.499999999999998224 ) ;
#269 = DIRECTION ( 'NONE',  ( 3.491481338843133355E-15, -0.000000000000000000, 1.000000000000000000 ) ) ;
#270 = ORIENTED_EDGE ( 'NONE', *, *, #133, .F. ) ;
#271 = AXIS2_PLACEMENT_3D ( 'NONE', #285, #15, #228 ) ;
#272 = DIRECTION ( 'NONE',  ( 1.000000000000000000, 0.000000000000000000, -3.532778664303614529E-15 ) ) ;
#273 = DIRECTION ( 'NONE',  ( -3.491481338843133355E-15, 0.000000000000000000, -1.000000000000000000 ) ) ;
#274 = CARTESIAN_POINT ( 'NONE',  ( 1.500000000000128120, 0.000000000000000000, 37.69999999999998863 ) ) ;
#275 = AXIS2_PLACEMENT_3D ( 'NONE', #355, #206, #325 ) ;
#276 = DIRECTION ( 'NONE',  ( 3.491481338843133355E-15, -0.000000000000000000, 1.000000000000000000 ) ) ;
#277 = CARTESIAN_POINT ( 'NONE',  ( 0.9500000000000026201, 0.000000000000000000, 0.7717013888888826223 ) ) ;
#278 = EDGE_LOOP ( 'NONE', ( #357 ) ) ;
#279 = APPLICATION_CONTEXT ( 'configuration controlled 3d designs of mechanical parts and assemblies' ) ;
#280 = CIRCLE ( 'NONE', #250, 0.6444854825538213206 ) ;
#281 = APPROVAL_PERSON_ORGANIZATION ( #319, #222, #102 ) ;
#282 = ORIENTED_EDGE ( 'NONE', *, *, #246, .T. ) ;
#283 = ADVANCED_FACE ( 'NONE', ( #53, #171 ), #32, .T. ) ;
#284 = COORDINATED_UNIVERSAL_TIME_OFFSET ( 1, 0, .AHEAD. ) ;
#285 = CARTESIAN_POINT ( 'NONE',  ( 0.000000000000000000, 0.000000000000000000, 0.000000000000000000 ) ) ;
#286 = CC_DESIGN_PERSON_AND_ORGANIZATION_ASSIGNMENT ( #131, #257, ( #309 ) ) ;
#287 = EDGE_LOOP ( 'NONE', ( #328 ) ) ;
#288 = AXIS2_PLACEMENT_3D ( 'NONE', #395, #119, #105 ) ;
#289 = VERTEX_POINT ( 'NONE', #8 ) ;
#290 = CIRCLE ( 'NONE', #84, 0.6444854825538212095 ) ;
#291 = FACE_OUTER_BOUND ( 'NONE', #89, .T. ) ;
#292 = DIRECTION ( 'NONE',  ( 3.491481338843133355E-15, -0.000000000000000000, 1.000000000000000000 ) ) ;
#293 = ADVANCED_FACE ( 'NONE', ( #26, #85 ), #30, .T. ) ;
#294 = CC_DESIGN_DATE_AND_TIME_ASSIGNMENT ( #321, #74, ( #330 ) ) ;
#295 = DIRECTION ( 'NONE',  ( 1.000000000000000000, 0.000000000000000000, -4.625929269271495577E-15 ) ) ;
#296 = AXIS2_PLACEMENT_3D ( 'NONE', #78, #292, #107 ) ;
#297 = EDGE_CURVE ( 'NONE', #172, #172, #237, .T. ) ;
#298 = DIRECTION ( 'NONE',  ( 1.000000000000000000, 0.000000000000000000, -3.364551108860585886E-15 ) ) ;
#299 = CARTESIAN_POINT ( 'NONE',  ( 0.6444854825538229859, 0.000000000000000000, 0.4630208333333321047 ) ) ;
#300 = AXIS2_PLACEMENT_3D ( 'NONE', #329, #273, #244 ) ;
#301 = CARTESIAN_POINT ( 'NONE',  ( 2.828099884462938018E-14, 0.000000000000000000, 8.099999999999999645 ) ) ;
#302 = DIRECTION ( 'NONE',  ( 1.000000000000000000, 0.000000000000000000, -3.480859606400830004E-15 ) ) ;
#303 = ADVANCED_FACE ( 'NONE', ( #247, #243 ), #179, .T. ) ;
#304 = VERTEX_POINT ( 'NONE', #384 ) ;
#305 = CIRCLE ( 'NONE', #104, 0.9499999999999998446 ) ;
#306 = SHAPE_DEFINITION_REPRESENTATION ( #36, #195 ) ;
#307 = DIRECTION ( 'NONE',  ( -1.000000000000000000, 0.000000000000000000, 3.480859606400830004E-15 ) ) ;
#308 = CARTESIAN_POINT ( 'NONE',  ( 1.326762908760390423E-13, 0.000000000000000000, 38.00000000000000000 ) ) ;
#309 = PRODUCT ( '966849', '966849', '', ( #129 ) ) ;
#310 = DATE_AND_TIME ( #255, #251 ) ;
#311 = ORIENTED_EDGE ( 'NONE', *, *, #159, .F. ) ;
#312 = ORIENTED_EDGE ( 'NONE', *, *, #394, .T. ) ;
#313 = CLOSED_SHELL ( 'NONE', ( #223, #254, #10, #283, #21, #33, #265, #163, #293, #139, #303, #387, #128, #239, #23, #326 ) ) ;
#314 = CC_DESIGN_APPROVAL ( #7, ( #330 ) ) ;
#315 = EDGE_LOOP ( 'NONE', ( #113 ) ) ;
#316 = CARTESIAN_POINT ( 'NONE',  ( 2.078522484530053910E-15, 0.000000000000000000, 0.5953125000000003553 ) ) ;
#317 = VERTEX_POINT ( 'NONE', #11 ) ;
#318 = EDGE_LOOP ( 'NONE', ( #147 ) ) ;
#319 = PERSON_AND_ORGANIZATION ( #267, #322 ) ;
#320 = CARTESIAN_POINT ( 'NONE',  ( 2.078522484530053910E-15, 0.000000000000000000, 0.5953125000000003553 ) ) ;
#321 = DATE_AND_TIME ( #164, #101 ) ;
#322 = ORGANIZATION ( 'UNSPECIFIED', 'UNSPECIFIED', '' ) ;
#323 = CYLINDRICAL_SURFACE ( 'NONE', #275, 0.9499999999999998446 ) ;
#324 = DIRECTION ( 'NONE',  ( 3.491481338843133355E-15, -0.000000000000000000, 1.000000000000000000 ) ) ;
#325 = DIRECTION ( 'NONE',  ( 1.000000000000000000, 0.000000000000000000, 0.000000000000000000 ) ) ;
#326 = ADVANCED_FACE ( 'NONE', ( #143 ), #208, .F. ) ;
#327 = CARTESIAN_POINT ( 'NONE',  ( 1.316288464743861212E-13, 0.000000000000000000, 37.69999999999999574 ) ) ;
#328 = ORIENTED_EDGE ( 'NONE', *, *, #353, .T. ) ;
#329 = CARTESIAN_POINT ( 'NONE',  ( 1.326762908760390423E-13, 1.199999999999993960, 38.00000000000000000 ) ) ;
#330 = SECURITY_CLASSIFICATION ( '', '', #38 ) ;
#331 = EDGE_LOOP ( 'NONE', ( #177 ) ) ;
#332 = CARTESIAN_POINT ( 'NONE',  ( 8.468054566603915522E-16, 0.000000000000000000, 0.2425347222222221100 ) ) ;
#333 = VERTEX_POINT ( 'NONE', #83 ) ;
#334 = FACE_OUTER_BOUND ( 'NONE', #59, .T. ) ;
#335 = CC_DESIGN_DATE_AND_TIME_ASSIGNMENT ( #310, #37, ( #259 ) ) ;
#336 = FACE_OUTER_BOUND ( 'NONE', #253, .T. ) ;
#337 = CARTESIAN_POINT ( 'NONE',  ( 1.326762908760390423E-13, 0.000000000000000000, 38.00000000000000000 ) ) ;
#338 = EDGE_LOOP ( 'NONE', ( #156 ) ) ;
#339 = APPROVAL_ROLE ( '' ) ;
#340 = CYLINDRICAL_SURFACE ( 'NONE', #200, 0.6444854825538213206 ) ;
#341 = AXIS2_PLACEMENT_3D ( 'NONE', #361, #34, #364 ) ;
#342 = APPROVAL_DATE_TIME ( #192, #180 ) ;
#343 = ORIENTED_EDGE ( 'NONE', *, *, #297, .T. ) ;
#344 = EDGE_CURVE ( 'NONE', #142, #142, #169, .T. ) ;
#345 = CALENDAR_DATE ( 2023, 28, 9 ) ;
#346 = APPROVAL_STATUS ( 'not_yet_approved' ) ;
#347 = CARTESIAN_POINT ( 'NONE',  ( 1.000770085144090250E-15, 0.000000000000000000, 0.2866319444444417885 ) ) ;
#348 = AXIS2_PLACEMENT_3D ( 'NONE', #380, #117, #307 ) ;
#349 = DIRECTION ( 'NONE',  ( 1.000000000000000000, 0.000000000000000000, -3.537922878636909870E-15 ) ) ;
#350 = DIRECTION ( 'NONE',  ( 1.000000000000000000, 0.000000000000000000, -3.532778664303614529E-15 ) ) ;
#351 = FACE_BOUND ( 'NONE', #365, .T. ) ;
#352 = DIRECTION ( 'NONE',  ( 3.491481338843133355E-15, -0.000000000000000000, 1.000000000000000000 ) ) ;
#353 = EDGE_CURVE ( 'NONE', #63, #63, #162, .T. ) ;
#354 = FACE_BOUND ( 'NONE', #318, .T. ) ;
#355 = CARTESIAN_POINT ( 'NONE',  ( 1.326762908760390423E-13, 0.000000000000000000, 38.00000000000000000 ) ) ;
#356 = AXIS2_PLACEMENT_3D ( 'NONE', #204, #324, #16 ) ;
#357 = ORIENTED_EDGE ( 'NONE', *, *, #151, .F. ) ;
#358 = DIRECTION ( 'NONE',  ( 3.491481338843133355E-15, -0.000000000000000000, 1.000000000000000000 ) ) ;
#359 = CARTESIAN_POINT ( 'NONE',  ( 1.200000000000126743, 0.000000000000000000, 37.99999999999999289 ) ) ;
#360 = CARTESIAN_POINT ( 'NONE',  ( 1.500000000000041522, 0.000000000000000000, 11.85174178092929687 ) ) ;
#361 = CARTESIAN_POINT ( 'NONE',  ( 1.326762908760390423E-13, 0.000000000000000000, 38.00000000000000000 ) ) ;
#362 = DIRECTION ( 'NONE',  ( 1.000000000000000000, 0.000000000000000000, -3.491481338843133355E-15 ) ) ;
#363 = ORIENTED_EDGE ( 'NONE', *, *, #135, .T. ) ;
#364 = DIRECTION ( 'NONE',  ( 1.000000000000000000, 0.000000000000000000, 0.000000000000000000 ) ) ;
#365 = EDGE_LOOP ( 'NONE', ( #91 ) ) ;
#366 = PERSON_AND_ORGANIZATION ( #267, #322 ) ;
#367 = EDGE_LOOP ( 'NONE', ( #72 ) ) ;
#368 =( LENGTH_UNIT ( ) NAMED_UNIT ( * ) SI_UNIT ( .MILLI., .METRE. ) );
#369 = DIRECTION ( 'NONE',  ( 1.000000000000000000, 0.000000000000000000, 0.000000000000000000 ) ) ;
#370 = DIRECTION ( 'NONE',  ( 1.000000000000000000, 0.000000000000000000, 0.000000000000000000 ) ) ;
#371 = PERSON_AND_ORGANIZATION_ROLE ( 'creator' ) ;
#372 =( NAMED_UNIT ( * ) PLANE_ANGLE_UNIT ( ) SI_UNIT ( $, .RADIAN. ) );
#373 = CC_DESIGN_PERSON_AND_ORGANIZATION_ASSIGNMENT ( #219, #65, ( #77 ) ) ;
#374 = DIRECTION ( 'NONE',  ( -1.000000000000000000, 0.000000000000000000, 3.491481338843133355E-15 ) ) ;
#375 = APPLICATION_CONTEXT ( 'configuration controlled 3d designs of mechanical parts and assemblies' ) ;
#376 = LOCAL_TIME ( 8, 25, 35.00000000000000000, #284 ) ;
#377 = DIRECTION ( 'NONE',  ( -3.491481338843133355E-15, 0.000000000000000000, -1.000000000000000000 ) ) ;
#378 = DIRECTION ( 'NONE',  ( -3.491481338843133355E-15, 0.000000000000000000, -1.000000000000000000 ) ) ;
#379 = PLANE ( 'NONE',  #130 ) ;
#380 = CARTESIAN_POINT ( 'NONE',  ( 1.000770085144090250E-15, 0.000000000000000000, 0.2866319444444417885 ) ) ;
#381 = AXIS2_PLACEMENT_3D ( 'NONE', #82, #56, #55 ) ;
#382 = EDGE_LOOP ( 'NONE', ( #221 ) ) ;
#383 = EDGE_CURVE ( 'NONE', #317, #317, #201, .T. ) ;
#384 = CARTESIAN_POINT ( 'NONE',  ( 0.9500000000000009548, 0.000000000000000000, 0.2866319444444384579 ) ) ;
#385 = CARTESIAN_POINT ( 'NONE',  ( 1.326762908760390423E-13, 0.000000000000000000, 38.00000000000000000 ) ) ;
#386 = EDGE_LOOP ( 'NONE', ( #154 ) ) ;
#387 = ADVANCED_FACE ( 'NONE', ( #118, #336 ), #216, .F. ) ;
#388 = DIRECTION ( 'NONE',  ( 1.000000000000000000, 0.000000000000000000, -5.782411586589386432E-15 ) ) ;
#389 = EDGE_LOOP ( 'NONE', ( #66 ) ) ;
#390 = AXIS2_PLACEMENT_3D ( 'NONE', #347, #352, #197 ) ;
#391 = LOCAL_TIME ( 8, 25, 35.00000000000000000, #227 ) ;
#392 = VERTEX_POINT ( 'NONE', #88 ) ;
#393 = VERTEX_POINT ( 'NONE', #25 ) ;
#394 = EDGE_CURVE ( 'NONE', #289, #289, #183, .T. ) ;
#395 = CARTESIAN_POINT ( 'NONE',  ( 1.316288464743861212E-13, 0.000000000000000000, 37.69999999999999574 ) ) ;
ENDSEC;
END-ISO-10303-21;
