ISO-10303-21;
HEADER;
FILE_DESCRIPTION (( 'STEP AP203' ),
    '1' );
FILE_NAME ('966848.step',
    '2023-09-28T06:25:34',
    ( '' ),
    ( '' ),
    'SwSTEP 2.0',
    'SolidWorks 2022',
    '' );
FILE_SCHEMA (( 'CONFIG_CONTROL_DESIGN' ));
ENDSEC;

DATA;
#1 = CARTESIAN_POINT ( 'NONE',  ( 3.107286138489360116E-15, 0.000000000000000000, 0.8899621212121178182 ) ) ;
#2 = CARTESIAN_POINT ( 'NONE',  ( 0.7900000000000345635, 0.000000000000000000, 10.19999999999999751 ) ) ;
#3 = FACE_OUTER_BOUND ( 'NONE', #249, .T. ) ;
#4 = APPLICATION_PROTOCOL_DEFINITION ( 'international standard', 'config_control_design', 1994, #203 ) ;
#5 = CIRCLE ( 'NONE', #38, 1.245000000000000107 ) ;
#6 = PLANE ( 'NONE',  #352 ) ;
#7 = AXIS2_PLACEMENT_3D ( 'NONE', #84, #339, #217 ) ;
#8 = DIRECTION ( 'NONE',  ( 3.491481338843133355E-15, -0.000000000000000000, 1.000000000000000000 ) ) ;
#9 = DIRECTION ( 'NONE',  ( -1.000000000000000000, 0.000000000000000000, 3.491481338843133355E-15 ) ) ;
#10 = EDGE_LOOP ( 'NONE', ( #349 ) ) ;
#11 = ORIENTED_EDGE ( 'NONE', *, *, #63, .F. ) ;
#12 = PERSON_AND_ORGANIZATION_ROLE ( 'creator' ) ;
#13 = ORGANIZATION ( 'UNSPECIFIED', 'UNSPECIFIED', '' ) ;
#14 = AXIS2_PLACEMENT_3D ( 'NONE', #308, #8, #141 ) ;
#15 = DESIGN_CONTEXT ( 'detailed design', #203, 'design' ) ;
#16 = DATE_AND_TIME ( #71, #197 ) ;
#17 = CARTESIAN_POINT ( 'NONE',  ( 0.000000000000000000, 0.000000000000000000, 0.000000000000000000 ) ) ;
#18 = EDGE_LOOP ( 'NONE', ( #216 ) ) ;
#19 = APPROVAL_STATUS ( 'not_yet_approved' ) ;
#20 = CC_DESIGN_PERSON_AND_ORGANIZATION_ASSIGNMENT ( #221, #22, ( #177 ) ) ;
#21 = FACE_OUTER_BOUND ( 'NONE', #153, .T. ) ;
#22 = PERSON_AND_ORGANIZATION_ROLE ( 'design_supplier' ) ;
#23 = CC_DESIGN_APPROVAL ( #120, ( #177 ) ) ;
#24 = ORIENTED_EDGE ( 'NONE', *, *, #208, .F. ) ;
#25 = ORIENTED_EDGE ( 'NONE', *, *, #91, .T. ) ;
#26 = ADVANCED_FACE ( 'NONE', ( #109, #230 ), #225, .T. ) ;
#27 = DIRECTION ( 'NONE',  ( 1.000000000000000000, 0.000000000000000000, -4.625929269271490844E-15 ) ) ;
#28 = FACE_OUTER_BOUND ( 'NONE', #122, .T. ) ;
#29 = EDGE_CURVE ( 'NONE', #88, #88, #298, .T. ) ;
#30 = FACE_BOUND ( 'NONE', #198, .T. ) ;
#31 = DIRECTION ( 'NONE',  ( 1.000000000000000000, 0.000000000000000000, -4.210114893335605251E-15 ) ) ;
#32 = DIRECTION ( 'NONE',  ( 3.491481338843133355E-15, -0.000000000000000000, 1.000000000000000000 ) ) ;
#33 = AXIS2_PLACEMENT_3D ( 'NONE', #369, #60, #265 ) ;
#34 = VERTEX_POINT ( 'NONE', #296 ) ;
#35 = CARTESIAN_POINT ( 'NONE',  ( 2.267479074032790351E-15, 0.000000000000000000, 0.6494318181818198310 ) ) ;
#36 = VERTEX_POINT ( 'NONE', #394 ) ;
#37 = DIRECTION ( 'NONE',  ( -3.491481338843133355E-15, 0.000000000000000000, -1.000000000000000000 ) ) ;
#38 = AXIS2_PLACEMENT_3D ( 'NONE', #392, #110, #302 ) ;
#39 = CYLINDRICAL_SURFACE ( 'NONE', #54, 0.7899999999999994804 ) ;
#40 = AXIS2_PLACEMENT_3D ( 'NONE', #368, #181, #236 ) ;
#41 = AXIS2_PLACEMENT_3D ( 'NONE', #147, #143, #297 ) ;
#42 = EDGE_LOOP ( 'NONE', ( #201 ) ) ;
#43 = MECHANICAL_CONTEXT ( 'NONE', #226, 'mechanical' ) ;
#44 = DIRECTION ( 'NONE',  ( 3.491481338843133355E-15, -0.000000000000000000, 1.000000000000000000 ) ) ;
#45 = ORIENTED_EDGE ( 'NONE', *, *, #342, .F. ) ;
#46 = PERSON_AND_ORGANIZATION ( #345, #13 ) ;
#47 = PERSON_AND_ORGANIZATION_ROLE ( 'classification_officer' ) ;
#48 = DIRECTION ( 'NONE',  ( 3.491481338843133355E-15, -0.000000000000000000, 1.000000000000000000 ) ) ;
#49 = EDGE_LOOP ( 'NONE', ( #107 ) ) ;
#50 = ADVANCED_FACE ( 'NONE', ( #260, #388 ), #238, .T. ) ;
#51 = FACE_OUTER_BOUND ( 'NONE', #287, .T. ) ;
#52 = MANIFOLD_SOLID_BREP ( 'Corps-Déplacer/Copier1', #377 ) ;
#53 = CYLINDRICAL_SURFACE ( 'NONE', #154, 1.499999999999998224 ) ;
#54 = AXIS2_PLACEMENT_3D ( 'NONE', #150, #278, #170 ) ;
#55 = DIRECTION ( 'NONE',  ( 3.491481338843133355E-15, -0.000000000000000000, 1.000000000000000000 ) ) ;
#56 = ADVANCED_FACE ( 'NONE', ( #325, #196 ), #323, .T. ) ;
#57 = PLANE ( 'NONE',  #40 ) ;
#58 = CARTESIAN_POINT ( 'NONE',  ( 3.651677152231258605E-14, 0.000000000000000000, 10.45881904510251381 ) ) ;
#59 = VERTEX_POINT ( 'NONE', #184 ) ;
#60 = DIRECTION ( 'NONE',  ( 3.491481338843133355E-15, -0.000000000000000000, 1.000000000000000000 ) ) ;
#61 = VERTEX_POINT ( 'NONE', #178 ) ;
#62 = CYLINDRICAL_SURFACE ( 'NONE', #248, 1.245000000000000107 ) ;
#63 = EDGE_CURVE ( 'NONE', #66, #66, #90, .T. ) ;
#64 = FACE_OUTER_BOUND ( 'NONE', #18, .T. ) ;
#65 = PERSON_AND_ORGANIZATION ( #345, #13 ) ;
#66 = VERTEX_POINT ( 'NONE', #270 ) ;
#67 = DIRECTION ( 'NONE',  ( 1.000000000000000000, 0.000000000000000000, -3.448663883916190318E-15 ) ) ;
#68 = ADVANCED_FACE ( 'NONE', ( #51, #165 ), #53, .T. ) ;
#69 = AXIS2_PLACEMENT_3D ( 'NONE', #114, #277, #301 ) ;
#70 = DIRECTION ( 'NONE',  ( 1.000000000000000000, 0.000000000000000000, -3.448663883916190318E-15 ) ) ;
#71 = CALENDAR_DATE ( 2023, 28, 9 ) ;
#72 = APPROVAL_ROLE ( '' ) ;
#73 = CARTESIAN_POINT ( 'NONE',  ( 0.000000000000000000, 0.000000000000000000, 0.000000000000000000 ) ) ;
#74 = APPROVAL_ROLE ( '' ) ;
#75 = DIRECTION ( 'NONE',  ( 3.491481338843133355E-15, -0.000000000000000000, 1.000000000000000000 ) ) ;
#76 = ADVANCED_FACE ( 'NONE', ( #139, #21 ), #344, .T. ) ;
#77 = APPROVAL_PERSON_ORGANIZATION ( #46, #173, #104 ) ;
#78 = ORIENTED_EDGE ( 'NONE', *, *, #272, .T. ) ;
#79 = AXIS2_PLACEMENT_3D ( 'NONE', #211, #87, #335 ) ;
#80 = CARTESIAN_POINT ( 'NONE',  ( 1.326762908760390423E-13, 0.000000000000000000, 38.00000000000000000 ) ) ;
#81 = CC_DESIGN_PERSON_AND_ORGANIZATION_ASSIGNMENT ( #190, #384, ( #177 ) ) ;
#82 = AXIS2_PLACEMENT_3D ( 'NONE', #80, #55, #169 ) ;
#83 = ORIENTED_EDGE ( 'NONE', *, *, #199, .F. ) ;
#84 = CARTESIAN_POINT ( 'NONE',  ( 1.326762908760390423E-13, 0.000000000000000000, 38.00000000000000000 ) ) ;
#85 = LOCAL_TIME ( 8, 25, 34.00000000000000000, #134 ) ;
#86 = DIRECTION ( 'NONE',  ( -3.491481338843133355E-15, 0.000000000000000000, -1.000000000000000000 ) ) ;
#87 = DIRECTION ( 'NONE',  ( 3.491481338843133355E-15, -0.000000000000000000, 1.000000000000000000 ) ) ;
#88 = VERTEX_POINT ( 'NONE', #149 ) ;
#89 = DIRECTION ( 'NONE',  ( 1.000000000000000000, 0.000000000000000000, -3.448663883916189529E-15 ) ) ;
#90 = CIRCLE ( 'NONE', #117, 1.245000000000000107 ) ;
#91 = EDGE_CURVE ( 'NONE', #264, #264, #385, .T. ) ;
#92 = CARTESIAN_POINT ( 'NONE',  ( 0.7900000000000040323, 0.000000000000000000, 1.154545454545453875 ) ) ;
#93 = DIRECTION ( 'NONE',  ( 1.000000000000000000, 0.000000000000000000, -3.491481338843133355E-15 ) ) ;
#94 = DIRECTION ( 'NONE',  ( 3.491481338843133355E-15, -0.000000000000000000, 1.000000000000000000 ) ) ;
#95 = VERTEX_POINT ( 'NONE', #206 ) ;
#96 = EDGE_CURVE ( 'NONE', #118, #118, #5, .T. ) ;
#97 = EDGE_LOOP ( 'NONE', ( #127 ) ) ;
#98 = AXIS2_PLACEMENT_3D ( 'NONE', #295, #32, #89 ) ;
#99 = EDGE_LOOP ( 'NONE', ( #247 ) ) ;
#100 = DATE_AND_TIME ( #128, #255 ) ;
#101 = COORDINATED_UNIVERSAL_TIME_OFFSET ( 1, 0, .AHEAD. ) ;
#102 = ORIENTED_EDGE ( 'NONE', *, *, #367, .F. ) ;
#103 = CIRCLE ( 'NONE', #79, 0.9117114355132595049 ) ;
#104 = APPROVAL_ROLE ( '' ) ;
#105 = ORIENTED_EDGE ( 'NONE', *, *, #288, .F. ) ;
#106 = AXIS2_PLACEMENT_3D ( 'NONE', #363, #299, #144 ) ;
#107 = ORIENTED_EDGE ( 'NONE', *, *, #182, .T. ) ;
#108 = AXIS2_PLACEMENT_3D ( 'NONE', #58, #172, #31 ) ;
#109 = FACE_OUTER_BOUND ( 'NONE', #280, .T. ) ;
#110 = DIRECTION ( 'NONE',  ( 3.491481338843133355E-15, -0.000000000000000000, 1.000000000000000000 ) ) ;
#111 = CC_DESIGN_APPROVAL ( #173, ( #276 ) ) ;
#112 = VERTEX_POINT ( 'NONE', #232 ) ;
#113 = PLANE ( 'NONE',  #41 ) ;
#114 = CARTESIAN_POINT ( 'NONE',  ( 2.939324725598041114E-15, 0.000000000000000000, 0.8418560606060567775 ) ) ;
#115 = DIRECTION ( 'NONE',  ( -1.000000000000000000, 0.000000000000000000, 3.483380473849009861E-15 ) ) ;
#116 = DIRECTION ( 'NONE',  ( -1.000000000000000000, 0.000000000000000000, 3.483380473849009861E-15 ) ) ;
#117 = AXIS2_PLACEMENT_3D ( 'NONE', #162, #75, #200 ) ;
#118 = VERTEX_POINT ( 'NONE', #331 ) ;
#119 = DIRECTION ( 'NONE',  ( 1.000000000000000000, 0.000000000000000000, -4.210114893335605251E-15 ) ) ;
#120 = APPROVAL ( #19, 'UNSPECIFIED' ) ;
#121 = CARTESIAN_POINT ( 'NONE',  ( 0.7867282238307329312, 0.000000000000000000, -2.746846912246207885E-15 ) ) ;
#122 = EDGE_LOOP ( 'NONE', ( #353 ) ) ;
#123 = ORIENTED_EDGE ( 'NONE', *, *, #321, .F. ) ;
#124 = CONICAL_SURFACE ( 'NONE', #106, 1.499999999999996669, 0.7853981633974497223 ) ;
#125 = AXIS2_PLACEMENT_3D ( 'NONE', #263, #364, #176 ) ;
#126 = ADVANCED_FACE ( 'NONE', ( #330, #3 ), #235, .F. ) ;
#127 = ORIENTED_EDGE ( 'NONE', *, *, #199, .T. ) ;
#128 = CALENDAR_DATE ( 2023, 28, 9 ) ;
#129 = AXIS2_PLACEMENT_3D ( 'NONE', #1, #86, #116 ) ;
#130 = ORIENTED_EDGE ( 'NONE', *, *, #354, .F. ) ;
#131 = CALENDAR_DATE ( 2023, 28, 9 ) ;
#132 = ADVANCED_FACE ( 'NONE', ( #358 ), #113, .F. ) ;
#133 = ORIENTED_EDGE ( 'NONE', *, *, #393, .T. ) ;
#134 = COORDINATED_UNIVERSAL_TIME_OFFSET ( 1, 0, .AHEAD. ) ;
#135 = EDGE_LOOP ( 'NONE', ( #24 ) ) ;
#136 = EDGE_LOOP ( 'NONE', ( #289 ) ) ;
#137 = CC_DESIGN_PERSON_AND_ORGANIZATION_ASSIGNMENT ( #379, #47, ( #276 ) ) ;
#138 = CIRCLE ( 'NONE', #69, 1.245000000000000107 ) ;
#139 = FACE_BOUND ( 'NONE', #42, .T. ) ;
#140 = DIRECTION ( 'NONE',  ( 3.491481338843133355E-15, -0.000000000000000000, 1.000000000000000000 ) ) ;
#141 = DIRECTION ( 'NONE',  ( 1.000000000000000000, 0.000000000000000000, 0.000000000000000000 ) ) ;
#142 = APPROVAL_PERSON_ORGANIZATION ( #259, #120, #74 ) ;
#143 = DIRECTION ( 'NONE',  ( 3.491481338843133355E-15, -0.000000000000000000, 1.000000000000000000 ) ) ;
#144 = DIRECTION ( 'NONE',  ( -1.000000000000000000, 0.000000000000000000, 4.625929269271495577E-15 ) ) ;
#145 = DIRECTION ( 'NONE',  ( 3.491481338843133355E-15, -0.000000000000000000, 1.000000000000000000 ) ) ;
#146 = VERTEX_POINT ( 'NONE', #121 ) ;
#147 = CARTESIAN_POINT ( 'NONE',  ( 1.030740819157547926E-32, 0.000000000000000000, 2.952159038315448293E-18 ) ) ;
#148 = CC_DESIGN_DATE_AND_TIME_ASSIGNMENT ( #254, #285, ( #348 ) ) ;
#149 = CARTESIAN_POINT ( 'NONE',  ( 1.245000000000000995, 0.000000000000000000, 0.3126893939393886046 ) ) ;
#150 = CARTESIAN_POINT ( 'NONE',  ( 1.326762908760390423E-13, 0.000000000000000000, 38.00000000000000000 ) ) ;
#151 = AXIS2_PLACEMENT_3D ( 'NONE', #305, #365, #274 ) ;
#152 = AXIS2_PLACEMENT_3D ( 'NONE', #35, #94, #67 ) ;
#153 = EDGE_LOOP ( 'NONE', ( #373 ) ) ;
#154 = AXIS2_PLACEMENT_3D ( 'NONE', #167, #292, #27 ) ;
#155 = UNCERTAINTY_MEASURE_WITH_UNIT (LENGTH_MEASURE( 1.000000000000000082E-05 ), #204, 'distance_accuracy_value', 'NONE');
#156 = APPROVAL_PERSON_ORGANIZATION ( #65, #279, #72 ) ;
#157 = ORIENTED_EDGE ( 'NONE', *, *, #29, .F. ) ;
#158 = AXIS2_PLACEMENT_3D ( 'NONE', #395, #140, #237 ) ;
#159 = ORIENTED_EDGE ( 'NONE', *, *, #393, .F. ) ;
#160 = SHAPE_DEFINITION_REPRESENTATION ( #174, #273 ) ;
#161 = COORDINATED_UNIVERSAL_TIME_OFFSET ( 1, 0, .AHEAD. ) ;
#162 = CARTESIAN_POINT ( 'NONE',  ( 3.107286138489360116E-15, 0.000000000000000000, 0.8899621212121178182 ) ) ;
#163 = AXIS2_PLACEMENT_3D ( 'NONE', #242, #44, #70 ) ;
#164 = ORIENTED_EDGE ( 'NONE', *, *, #208, .T. ) ;
#165 = FACE_OUTER_BOUND ( 'NONE', #99, .T. ) ;
#166 = AXIS2_PLACEMENT_3D ( 'NONE', #240, #214, #338 ) ;
#167 = CARTESIAN_POINT ( 'NONE',  ( 1.326762908760390423E-13, 0.000000000000000000, 38.00000000000000000 ) ) ;
#168 = LOCAL_TIME ( 8, 25, 34.00000000000000000, #161 ) ;
#169 = DIRECTION ( 'NONE',  ( 1.000000000000000000, 0.000000000000000000, 0.000000000000000000 ) ) ;
#170 = DIRECTION ( 'NONE',  ( 1.000000000000000000, 0.000000000000000000, 0.000000000000000000 ) ) ;
#171 = FACE_OUTER_BOUND ( 'NONE', #383, .T. ) ;
#172 = DIRECTION ( 'NONE',  ( 3.491481338843133355E-15, -0.000000000000000000, 1.000000000000000000 ) ) ;
#173 = APPROVAL ( #257, 'UNSPECIFIED' ) ;
#174 = PRODUCT_DEFINITION_SHAPE ( 'NONE', 'NONE',  #348 ) ;
#175 = CARTESIAN_POINT ( 'NONE',  ( 1.245000000000002993, 0.000000000000000000, 0.8418560606060524476 ) ) ;
#176 = DIRECTION ( 'NONE',  ( 1.000000000000000000, 0.000000000000000000, -3.469446951953614583E-15 ) ) ;
#177 = PRODUCT_DEFINITION_FORMATION_WITH_SPECIFIED_SOURCE ( 'ANY', '', #234, .NOT_KNOWN. ) ;
#178 = CARTESIAN_POINT ( 'NONE',  ( 0.9117114355132618364, 0.000000000000000000, 0.6494318181818167224 ) ) ;
#179 = CARTESIAN_POINT ( 'NONE',  ( 1.326762908760390423E-13, 0.000000000000000000, 38.00000000000000000 ) ) ;
#180 = PERSON_AND_ORGANIZATION_ROLE ( 'design_owner' ) ;
#181 = DIRECTION ( 'NONE',  ( -3.491481338843133355E-15, 0.000000000000000000, -1.000000000000000000 ) ) ;
#182 = EDGE_CURVE ( 'NONE', #146, #146, #317, .T. ) ;
#183 = FACE_BOUND ( 'NONE', #391, .T. ) ;
#184 = CARTESIAN_POINT ( 'NONE',  ( 0.9117114355132632797, 0.000000000000000000, 1.082386363636358428 ) ) ;
#185 = FACE_OUTER_BOUND ( 'NONE', #135, .T. ) ;
#186 = FACE_BOUND ( 'NONE', #284, .T. ) ;
#187 = EDGE_LOOP ( 'NONE', ( #313 ) ) ;
#188 = ADVANCED_FACE ( 'NONE', ( #300, #28 ), #303, .T. ) ;
#189 = ORIENTED_EDGE ( 'NONE', *, *, #288, .T. ) ;
#190 = PERSON_AND_ORGANIZATION ( #345, #13 ) ;
#191 = ADVANCED_FACE ( 'NONE', ( #275, #233 ), #374, .T. ) ;
#192 = COORDINATED_UNIVERSAL_TIME_OFFSET ( 1, 0, .AHEAD. ) ;
#193 = EDGE_LOOP ( 'NONE', ( #130 ) ) ;
#194 = CALENDAR_DATE ( 2023, 28, 9 ) ;
#195 = AXIS2_PLACEMENT_3D ( 'NONE', #319, #356, #262 ) ;
#196 = FACE_OUTER_BOUND ( 'NONE', #256, .T. ) ;
#197 = LOCAL_TIME ( 8, 25, 34.00000000000000000, #101 ) ;
#198 = EDGE_LOOP ( 'NONE', ( #227 ) ) ;
#199 = EDGE_CURVE ( 'NONE', #95, #95, #294, .T. ) ;
#200 = DIRECTION ( 'NONE',  ( 1.000000000000000000, 0.000000000000000000, -3.483380473849009861E-15 ) ) ;
#201 = ORIENTED_EDGE ( 'NONE', *, *, #272, .F. ) ;
#202 = DIRECTION ( 'NONE',  ( -3.491481338843133355E-15, 0.000000000000000000, -1.000000000000000000 ) ) ;
#203 = APPLICATION_CONTEXT ( 'configuration controlled 3d designs of mechanical parts and assemblies' ) ;
#204 =( LENGTH_UNIT ( ) NAMED_UNIT ( * ) SI_UNIT ( .MILLI., .METRE. ) );
#205 = CARTESIAN_POINT ( 'NONE',  ( 3.651677152231258605E-14, 0.000000000000000000, 10.45881904510251381 ) ) ;
#206 = CARTESIAN_POINT ( 'NONE',  ( 0.8240741737109653631, 0.000000000000000000, 10.45881904510251026 ) ) ;
#207 = FACE_OUTER_BOUND ( 'NONE', #290, .T. ) ;
#208 = EDGE_CURVE ( 'NONE', #210, #210, #336, .T. ) ;
#209 = CC_DESIGN_APPROVAL ( #279, ( #348 ) ) ;
#210 = VERTEX_POINT ( 'NONE', #2 ) ;
#211 = CARTESIAN_POINT ( 'NONE',  ( 3.779131790054634939E-15, 0.000000000000000000, 1.082386363636361759 ) ) ;
#212 = FACE_OUTER_BOUND ( 'NONE', #136, .T. ) ;
#213 = FACE_OUTER_BOUND ( 'NONE', #193, .T. ) ;
#214 = DIRECTION ( 'NONE',  ( 3.491481338843133355E-15, -0.000000000000000000, 1.000000000000000000 ) ) ;
#215 = PERSON_AND_ORGANIZATION ( #345, #13 ) ;
#216 = ORIENTED_EDGE ( 'NONE', *, *, #321, .T. ) ;
#217 = DIRECTION ( 'NONE',  ( 1.000000000000000000, 0.000000000000000000, -5.782411586589386432E-15 ) ) ;
#218 = CC_DESIGN_SECURITY_CLASSIFICATION ( #276, ( #177 ) ) ;
#219 = ORIENTED_EDGE ( 'NONE', *, *, #96, .F. ) ;
#220 = AXIS2_PLACEMENT_3D ( 'NONE', #268, #202, #115 ) ;
#221 = PERSON_AND_ORGANIZATION ( #345, #13 ) ;
#222 = DIRECTION ( 'NONE',  ( 1.000000000000000000, 0.000000000000000000, 0.000000000000000000 ) ) ;
#223 = ADVANCED_FACE ( 'NONE', ( #361, #183 ), #327, .T. ) ;
#224 = APPROVAL_DATE_TIME ( #382, #173 ) ;
#225 = CYLINDRICAL_SURFACE ( 'NONE', #195, 1.245000000000000107 ) ;
#226 = APPLICATION_CONTEXT ( 'configuration controlled 3d designs of mechanical parts and assemblies' ) ;
#227 = ORIENTED_EDGE ( 'NONE', *, *, #91, .F. ) ;
#228 = EDGE_LOOP ( 'NONE', ( #219 ) ) ;
#229 = CIRCLE ( 'NONE', #7, 1.199999999999993960 ) ;
#230 = FACE_OUTER_BOUND ( 'NONE', #258, .T. ) ;
#231 = DIRECTION ( 'NONE',  ( 1.000000000000000000, 0.000000000000000000, -3.483380473849009861E-15 ) ) ;
#232 = CARTESIAN_POINT ( 'NONE',  ( 1.500000000000128120, 0.000000000000000000, 37.69999999999998863 ) ) ;
#233 = FACE_BOUND ( 'NONE', #97, .T. ) ;
#234 = PRODUCT ( '966848', '966848', '', ( #43 ) ) ;
#235 = TOROIDAL_SURFACE ( 'NONE', #390, 1.789999999999999147, 1.000000000000000000 ) ;
#236 = DIRECTION ( 'NONE',  ( -1.000000000000000000, 0.000000000000000000, 3.491481338843133355E-15 ) ) ;
#237 = DIRECTION ( 'NONE',  ( 1.000000000000000000, 0.000000000000000000, -4.391705002472934416E-15 ) ) ;
#238 = CONICAL_SURFACE ( 'NONE', #291, 0.7867282238307329312, 1.047197551196601628 ) ;
#239 = FACE_OUTER_BOUND ( 'NONE', #187, .T. ) ;
#240 = CARTESIAN_POINT ( 'NONE',  ( 4.031073909391624486E-15, 0.000000000000000000, 1.154545454545456762 ) ) ;
#241 = CC_DESIGN_PERSON_AND_ORGANIZATION_ASSIGNMENT ( #215, #180, ( #234 ) ) ;
#242 = CARTESIAN_POINT ( 'NONE',  ( 2.267479074032790351E-15, 0.000000000000000000, 0.6494318181818198310 ) ) ;
#243 =( NAMED_UNIT ( * ) PLANE_ANGLE_UNIT ( ) SI_UNIT ( $, .RADIAN. ) );
#244 = CARTESIAN_POINT ( 'NONE',  ( 3.561310965619995391E-14, 0.000000000000000000, 10.19999999999999929 ) ) ;
#245 = VERTEX_POINT ( 'NONE', #334 ) ;
#246 = CC_DESIGN_PERSON_AND_ORGANIZATION_ASSIGNMENT ( #250, #12, ( #348 ) ) ;
#247 = ORIENTED_EDGE ( 'NONE', *, *, #281, .T. ) ;
#248 = AXIS2_PLACEMENT_3D ( 'NONE', #179, #145, #271 ) ;
#249 = EDGE_LOOP ( 'NONE', ( #164 ) ) ;
#250 = PERSON_AND_ORGANIZATION ( #345, #13 ) ;
#251 = APPROVAL_DATE_TIME ( #100, #279 ) ;
#252 = AXIS2_PLACEMENT_3D ( 'NONE', #261, #381, #231 ) ;
#253 = EDGE_LOOP ( 'NONE', ( #83 ) ) ;
#254 = DATE_AND_TIME ( #194, #168 ) ;
#255 = LOCAL_TIME ( 8, 25, 34.00000000000000000, #192 ) ;
#256 = EDGE_LOOP ( 'NONE', ( #78 ) ) ;
#257 = APPROVAL_STATUS ( 'not_yet_approved' ) ;
#258 = EDGE_LOOP ( 'NONE', ( #324 ) ) ;
#259 = PERSON_AND_ORGANIZATION ( #345, #13 ) ;
#260 = FACE_OUTER_BOUND ( 'NONE', #228, .T. ) ;
#261 = CARTESIAN_POINT ( 'NONE',  ( 1.091749183793559706E-15, 0.000000000000000000, 0.3126893939393929345 ) ) ;
#262 = DIRECTION ( 'NONE',  ( 1.000000000000000000, 0.000000000000000000, -5.573408758158416250E-15 ) ) ;
#263 = CARTESIAN_POINT ( 'NONE',  ( 4.532434577740991697E-14, 0.000000000000000000, 12.98140857096136536 ) ) ;
#264 = VERTEX_POINT ( 'NONE', #92 ) ;
#265 = DIRECTION ( 'NONE',  ( 1.000000000000000000, 0.000000000000000000, -3.491481338843133750E-15 ) ) ;
#266 = CIRCLE ( 'NONE', #314, 0.9117114355132595049 ) ;
#267 =( NAMED_UNIT ( * ) SI_UNIT ( $, .STERADIAN. ) SOLID_ANGLE_UNIT ( ) );
#268 = CARTESIAN_POINT ( 'NONE',  ( 1.091749183793559706E-15, 0.000000000000000000, 0.3126893939393929345 ) ) ;
#269 = AXIS2_PLACEMENT_3D ( 'NONE', #205, #328, #119 ) ;
#270 = CARTESIAN_POINT ( 'NONE',  ( 1.245000000000002993, 0.000000000000000000, 0.8899621212121134883 ) ) ;
#271 = DIRECTION ( 'NONE',  ( 1.000000000000000000, 0.000000000000000000, -5.573408758158416250E-15 ) ) ;
#272 = EDGE_CURVE ( 'NONE', #59, #59, #103, .T. ) ;
#273 = ADVANCED_BREP_SHAPE_REPRESENTATION ( '966848', ( #52, #347 ), #387 ) ;
#274 = DIRECTION ( 'NONE',  ( 1.000000000000000000, 0.000000000000000000, -4.625929269271495577E-15 ) ) ;
#275 = FACE_OUTER_BOUND ( 'NONE', #283, .T. ) ;
#276 = SECURITY_CLASSIFICATION ( '', '', #320 ) ;
#277 = DIRECTION ( 'NONE',  ( 3.491481338843133355E-15, -0.000000000000000000, 1.000000000000000000 ) ) ;
#278 = DIRECTION ( 'NONE',  ( 3.491481338843133355E-15, -0.000000000000000000, 1.000000000000000000 ) ) ;
#279 = APPROVAL ( #307, 'UNSPECIFIED' ) ;
#280 = EDGE_LOOP ( 'NONE', ( #157 ) ) ;
#281 = EDGE_CURVE ( 'NONE', #34, #34, #304, .T. ) ;
#282 = DATE_TIME_ROLE ( 'classification_date' ) ;
#283 = EDGE_LOOP ( 'NONE', ( #340 ) ) ;
#284 = EDGE_LOOP ( 'NONE', ( #123 ) ) ;
#285 = DATE_TIME_ROLE ( 'creation_date' ) ;
#286 = CIRCLE ( 'NONE', #163, 0.9117114355132595049 ) ;
#287 = EDGE_LOOP ( 'NONE', ( #102 ) ) ;
#288 = EDGE_CURVE ( 'NONE', #245, #245, #355, .T. ) ;
#289 = ORIENTED_EDGE ( 'NONE', *, *, #367, .T. ) ;
#290 = EDGE_LOOP ( 'NONE', ( #11 ) ) ;
#291 = AXIS2_PLACEMENT_3D ( 'NONE', #73, #48, #386 ) ;
#292 = DIRECTION ( 'NONE',  ( 3.491481338843133355E-15, -0.000000000000000000, 1.000000000000000000 ) ) ;
#293 = ADVANCED_FACE ( 'NONE', ( #207, #332 ), #62, .T. ) ;
#294 = CIRCLE ( 'NONE', #108, 0.8240741737109288367 ) ;
#295 = CARTESIAN_POINT ( 'NONE',  ( 1.763594835358834332E-15, 0.000000000000000000, 0.5051136363636368198 ) ) ;
#296 = CARTESIAN_POINT ( 'NONE',  ( 1.500000000000045075, 0.000000000000000000, 12.98140857096136003 ) ) ;
#297 = DIRECTION ( 'NONE',  ( 1.000000000000000000, 0.000000000000000000, -3.491481338843133355E-15 ) ) ;
#298 = CIRCLE ( 'NONE', #252, 1.245000000000000107 ) ;
#299 = DIRECTION ( 'NONE',  ( -3.491481338843133355E-15, 0.000000000000000000, -1.000000000000000000 ) ) ;
#300 = FACE_BOUND ( 'NONE', #357, .T. ) ;
#301 = DIRECTION ( 'NONE',  ( 1.000000000000000000, 0.000000000000000000, -3.483380473849009861E-15 ) ) ;
#302 = DIRECTION ( 'NONE',  ( 1.000000000000000000, 0.000000000000000000, -3.483380473849009861E-15 ) ) ;
#303 = CONICAL_SURFACE ( 'NONE', #220, 1.245000000000000107, 1.047197551196596743 ) ;
#304 = CIRCLE ( 'NONE', #125, 1.499999999999999778 ) ;
#305 = CARTESIAN_POINT ( 'NONE',  ( 1.316288464743861212E-13, 0.000000000000000000, 37.69999999999999574 ) ) ;
#306 = CARTESIAN_POINT ( 'NONE',  ( 1.326762908760390423E-13, 1.199999999999993960, 38.00000000000000000 ) ) ;
#307 = APPROVAL_STATUS ( 'not_yet_approved' ) ;
#308 = CARTESIAN_POINT ( 'NONE',  ( 1.326762908760390423E-13, 0.000000000000000000, 38.00000000000000000 ) ) ;
#309 = FACE_OUTER_BOUND ( 'NONE', #378, .T. ) ;
#310 = ADVANCED_FACE ( 'NONE', ( #64 ), #6, .F. ) ;
#311 = DIRECTION ( 'NONE',  ( 3.491481338843133355E-15, -0.000000000000000000, 1.000000000000000000 ) ) ;
#312 = CARTESIAN_POINT ( 'NONE',  ( 4.031073909391624486E-15, 0.000000000000000000, 1.154545454545456762 ) ) ;
#313 = ORIENTED_EDGE ( 'NONE', *, *, #342, .T. ) ;
#314 = AXIS2_PLACEMENT_3D ( 'NONE', #312, #311, #372 ) ;
#315 = ADVANCED_FACE ( 'NONE', ( #185, #309 ), #39, .T. ) ;
#316 = DATE_AND_TIME ( #131, #85 ) ;
#317 = CIRCLE ( 'NONE', #33, 0.7867282238307329312 ) ;
#318 = APPROVAL_DATE_TIME ( #16, #120 ) ;
#319 = CARTESIAN_POINT ( 'NONE',  ( 1.326762908760390423E-13, 0.000000000000000000, 38.00000000000000000 ) ) ;
#320 = SECURITY_CLASSIFICATION_LEVEL ( 'unclassified' ) ;
#321 = EDGE_CURVE ( 'NONE', #370, #370, #229, .T. ) ;
#322 = EDGE_LOOP ( 'NONE', ( #159 ) ) ;
#323 = CYLINDRICAL_SURFACE ( 'NONE', #82, 0.9117114355132595049 ) ;
#324 = ORIENTED_EDGE ( 'NONE', *, *, #96, .T. ) ;
#325 = FACE_OUTER_BOUND ( 'NONE', #341, .T. ) ;
#326 = CARTESIAN_POINT ( 'NONE',  ( 1.200000000000126743, 0.000000000000000000, 37.99999999999999289 ) ) ;
#327 = CONICAL_SURFACE ( 'NONE', #152, 0.9117114355132595049, 1.047197551196612508 ) ;
#328 = DIRECTION ( 'NONE',  ( 3.491481338843133355E-15, -0.000000000000000000, 1.000000000000000000 ) ) ;
#329 = CYLINDRICAL_SURFACE ( 'NONE', #14, 0.9117114355132596160 ) ;
#330 = FACE_OUTER_BOUND ( 'NONE', #253, .T. ) ;
#331 = CARTESIAN_POINT ( 'NONE',  ( 1.245000000000000773, 0.000000000000000000, 0.2645833333333276194 ) ) ;
#332 = FACE_OUTER_BOUND ( 'NONE', #371, .T. ) ;
#333 = LOCAL_TIME ( 8, 25, 34.00000000000000000, #350 ) ;
#334 = CARTESIAN_POINT ( 'NONE',  ( 0.9117114355132615033, 0.000000000000000000, 0.5051136363636337112 ) ) ;
#335 = DIRECTION ( 'NONE',  ( 1.000000000000000000, 0.000000000000000000, -3.567583328189162370E-15 ) ) ;
#336 = CIRCLE ( 'NONE', #158, 0.7899999999999990363 ) ;
#337 = CC_DESIGN_DATE_AND_TIME_ASSIGNMENT ( #316, #282, ( #276 ) ) ;
#338 = DIRECTION ( 'NONE',  ( 1.000000000000000000, 0.000000000000000000, -3.568260314509255219E-15 ) ) ;
#339 = DIRECTION ( 'NONE',  ( 3.491481338843133355E-15, -0.000000000000000000, 1.000000000000000000 ) ) ;
#340 = ORIENTED_EDGE ( 'NONE', *, *, #281, .F. ) ;
#341 = EDGE_LOOP ( 'NONE', ( #45 ) ) ;
#342 = EDGE_CURVE ( 'NONE', #36, #36, #266, .T. ) ;
#343 = DIRECTION ( 'NONE',  ( 0.000000000000000000, 0.000000000000000000, 1.000000000000000000 ) ) ;
#344 = CONICAL_SURFACE ( 'NONE', #129, 1.245000000000000107, 1.047197551196596965 ) ;
#345 = PERSON ( 'UNSPECIFIED', 'UNSPECIFIED', 'UNSPECIFIED', ('UNSPECIFIED'), ('UNSPECIFIED'), ('UNSPECIFIED') ) ;
#346 = APPLICATION_PROTOCOL_DEFINITION ( 'international standard', 'config_control_design', 1994, #226 ) ;
#347 = AXIS2_PLACEMENT_3D ( 'NONE', #17, #343, #222 ) ;
#348 = PRODUCT_DEFINITION ( 'UNKNOWN', '', #177, #15 ) ;
#349 = ORIENTED_EDGE ( 'NONE', *, *, #182, .F. ) ;
#350 = COORDINATED_UNIVERSAL_TIME_OFFSET ( 1, 0, .AHEAD. ) ;
#351 = ORIENTED_EDGE ( 'NONE', *, *, #354, .T. ) ;
#352 = AXIS2_PLACEMENT_3D ( 'NONE', #306, #37, #9 ) ;
#353 = ORIENTED_EDGE ( 'NONE', *, *, #29, .T. ) ;
#354 = EDGE_CURVE ( 'NONE', #61, #61, #286, .T. ) ;
#355 = CIRCLE ( 'NONE', #98, 0.9117114355132597270 ) ;
#356 = DIRECTION ( 'NONE',  ( 3.491481338843133355E-15, -0.000000000000000000, 1.000000000000000000 ) ) ;
#357 = EDGE_LOOP ( 'NONE', ( #105 ) ) ;
#358 = FACE_OUTER_BOUND ( 'NONE', #10, .T. ) ;
#359 = CIRCLE ( 'NONE', #151, 1.499999999999996669 ) ;
#360 = VERTEX_POINT ( 'NONE', #175 ) ;
#361 = FACE_OUTER_BOUND ( 'NONE', #322, .T. ) ;
#362 = ADVANCED_FACE ( 'NONE', ( #186, #212 ), #124, .T. ) ;
#363 = CARTESIAN_POINT ( 'NONE',  ( 1.316288464743861212E-13, 0.000000000000000000, 37.69999999999999574 ) ) ;
#364 = DIRECTION ( 'NONE',  ( 3.491481338843133355E-15, -0.000000000000000000, 1.000000000000000000 ) ) ;
#365 = DIRECTION ( 'NONE',  ( 3.491481338843133355E-15, -0.000000000000000000, 1.000000000000000000 ) ) ;
#366 = DIRECTION ( 'NONE',  ( 3.491481338843133355E-15, -0.000000000000000000, 1.000000000000000000 ) ) ;
#367 = EDGE_CURVE ( 'NONE', #112, #112, #359, .T. ) ;
#368 = CARTESIAN_POINT ( 'NONE',  ( 4.031073909391616597E-15, 0.9117114355132595049, 1.154545454545454097 ) ) ;
#369 = CARTESIAN_POINT ( 'NONE',  ( 0.000000000000000000, 0.000000000000000000, 0.000000000000000000 ) ) ;
#370 = VERTEX_POINT ( 'NONE', #326 ) ;
#371 = EDGE_LOOP ( 'NONE', ( #133 ) ) ;
#372 = DIRECTION ( 'NONE',  ( 1.000000000000000000, 0.000000000000000000, -3.567583328189162370E-15 ) ) ;
#373 = ORIENTED_EDGE ( 'NONE', *, *, #63, .T. ) ;
#374 = CONICAL_SURFACE ( 'NONE', #269, 0.8240741737109288367, 0.2617993877991431351 ) ;
#375 = PRODUCT_RELATED_PRODUCT_CATEGORY ( 'detail', '', ( #234 ) ) ;
#376 = CALENDAR_DATE ( 2023, 28, 9 ) ;
#377 = CLOSED_SHELL ( 'NONE', ( #132, #50, #26, #188, #389, #223, #293, #76, #56, #380, #315, #126, #191, #68, #362, #310 ) ) ;
#378 = EDGE_LOOP ( 'NONE', ( #25 ) ) ;
#379 = PERSON_AND_ORGANIZATION ( #345, #13 ) ;
#380 = ADVANCED_FACE ( 'NONE', ( #30, #239 ), #57, .F. ) ;
#381 = DIRECTION ( 'NONE',  ( 3.491481338843133355E-15, -0.000000000000000000, 1.000000000000000000 ) ) ;
#382 = DATE_AND_TIME ( #376, #333 ) ;
#383 = EDGE_LOOP ( 'NONE', ( #189 ) ) ;
#384 = PERSON_AND_ORGANIZATION_ROLE ( 'creator' ) ;
#385 = CIRCLE ( 'NONE', #166, 0.7900000000000000355 ) ;
#386 = DIRECTION ( 'NONE',  ( 1.000000000000000000, 0.000000000000000000, -3.491481338843133750E-15 ) ) ;
#387 =( GEOMETRIC_REPRESENTATION_CONTEXT ( 3 ) GLOBAL_UNCERTAINTY_ASSIGNED_CONTEXT ( ( #155 ) ) GLOBAL_UNIT_ASSIGNED_CONTEXT ( ( #204, #243, #267 ) ) REPRESENTATION_CONTEXT ( 'NONE', 'WORKASPACE' ) );
#388 = FACE_BOUND ( 'NONE', #49, .T. ) ;
#389 = ADVANCED_FACE ( 'NONE', ( #213, #171 ), #329, .T. ) ;
#390 = AXIS2_PLACEMENT_3D ( 'NONE', #244, #366, #93 ) ;
#391 = EDGE_LOOP ( 'NONE', ( #351 ) ) ;
#392 = CARTESIAN_POINT ( 'NONE',  ( 9.237877709022409013E-16, 0.000000000000000000, 0.2645833333333319493 ) ) ;
#393 = EDGE_CURVE ( 'NONE', #360, #360, #138, .T. ) ;
#394 = CARTESIAN_POINT ( 'NONE',  ( 0.9117114355132635017, 0.000000000000000000, 1.154545454545453431 ) ) ;
#395 = CARTESIAN_POINT ( 'NONE',  ( 3.561310965619996022E-14, 0.000000000000000000, 10.20000000000000107 ) ) ;
ENDSEC;
END-ISO-10303-21;
