ISO-10303-21;
HEADER;
FILE_DESCRIPTION (( 'STEP AP203' ),
    '1' );
FILE_NAME ('966847.step',
    '2023-09-28T06:25:34',
    ( '' ),
    ( '' ),
    'SwSTEP 2.0',
    'SolidWorks 2022',
    '' );
FILE_SCHEMA (( 'CONFIG_CONTROL_DESIGN' ));
ENDSEC;

DATA;
#1 = EDGE_LOOP ( 'NONE', ( #3 ) ) ;
#2 = PERSON_AND_ORGANIZATION ( #346, #228 ) ;
#3 = ORIENTED_EDGE ( 'NONE', *, *, #216, .F. ) ;
#4 = FACE_OUTER_BOUND ( 'NONE', #288, .T. ) ;
#5 = EDGE_LOOP ( 'NONE', ( #251 ) ) ;
#6 = DIRECTION ( 'NONE',  ( 3.491481338843133355E-15, -0.000000000000000000, 1.000000000000000000 ) ) ;
#7 = PERSON_AND_ORGANIZATION ( #346, #228 ) ;
#8 = EDGE_CURVE ( 'NONE', #37, #37, #58, .T. ) ;
#9 = DIRECTION ( 'NONE',  ( 1.000000000000000000, 0.000000000000000000, -2.944830300484488504E-15 ) ) ;
#10 = AXIS2_PLACEMENT_3D ( 'NONE', #197, #137, #163 ) ;
#11 = DATE_AND_TIME ( #165, #263 ) ;
#12 = CARTESIAN_POINT ( 'NONE',  ( 0.6883825790645897724, 0.000000000000000000, 1.269999999999998019 ) ) ;
#13 = DIRECTION ( 'NONE',  ( -1.000000000000000000, 0.000000000000000000, 3.491481338843133355E-15 ) ) ;
#14 = EDGE_LOOP ( 'NONE', ( #74 ) ) ;
#15 = CARTESIAN_POINT ( 'NONE',  ( 2.494226981436074790E-15, 0.000000000000000000, 0.7143750000000032019 ) ) ;
#16 = EDGE_LOOP ( 'NONE', ( #123 ) ) ;
#17 = TOROIDAL_SURFACE ( 'NONE', #334, 1.554999999999999050, 0.9999999999999997780 ) ;
#18 = DIRECTION ( 'NONE',  ( 3.491481338843133355E-15, -0.000000000000000000, 1.000000000000000000 ) ) ;
#19 = CLOSED_SHELL ( 'NONE', ( #388, #23, #385, #174, #292, #219, #284, #213, #51, #307, #20, #102, #351, #232, #139, #279 ) ) ;
#20 = ADVANCED_FACE ( 'NONE', ( #42, #193 ), #366, .T. ) ;
#21 = DIRECTION ( 'NONE',  ( 1.000000000000000000, 0.000000000000000000, -3.494111266777929247E-15 ) ) ;
#22 = ORIENTED_EDGE ( 'NONE', *, *, #168, .T. ) ;
#23 = ADVANCED_FACE ( 'NONE', ( #281, #129 ), #114, .T. ) ;
#24 = DIRECTION ( 'NONE',  ( 3.491481338843133355E-15, -0.000000000000000000, 1.000000000000000000 ) ) ;
#25 = CALENDAR_DATE ( 2023, 28, 9 ) ;
#26 = FACE_BOUND ( 'NONE', #14, .T. ) ;
#27 = CIRCLE ( 'NONE', #337, 0.5509010462138056452 ) ;
#28 = CARTESIAN_POINT ( 'NONE',  ( 1.466422162314116262E-13, 1.599999999999998090, 42.00000000000000711 ) ) ;
#29 = PRODUCT_DEFINITION ( 'UNKNOWN', '', #240, #149 ) ;
#30 = CIRCLE ( 'NONE', #255, 0.5890741737109290721 ) ;
#31 = PRODUCT_DEFINITION_SHAPE ( 'NONE', 'NONE',  #29 ) ;
#32 = CARTESIAN_POINT ( 'NONE',  ( 0.000000000000000000, 0.000000000000000000, 0.000000000000000000 ) ) ;
#33 = CC_DESIGN_SECURITY_CLASSIFICATION ( #308, ( #240 ) ) ;
#34 = APPLICATION_CONTEXT ( 'configuration controlled 3d designs of mechanical parts and assemblies' ) ;
#35 = APPLICATION_PROTOCOL_DEFINITION ( 'international standard', 'config_control_design', 1994, #201 ) ;
#36 = ORIENTED_EDGE ( 'NONE', *, *, #245, .F. ) ;
#37 = VERTEX_POINT ( 'NONE', #131 ) ;
#38 = APPROVAL_PERSON_ORGANIZATION ( #2, #247, #338 ) ;
#39 = PERSON_AND_ORGANIZATION ( #346, #228 ) ;
#40 = ORIENTED_EDGE ( 'NONE', *, *, #97, .T. ) ;
#41 = DIRECTION ( 'NONE',  ( 3.491481338843133355E-15, -0.000000000000000000, 1.000000000000000000 ) ) ;
#42 = FACE_OUTER_BOUND ( 'NONE', #147, .T. ) ;
#43 = DIRECTION ( 'NONE',  ( 1.000000000000000000, 0.000000000000000000, 0.000000000000000000 ) ) ;
#44 = DIRECTION ( 'NONE',  ( 1.000000000000000000, 0.000000000000000000, -3.491481338843133355E-15 ) ) ;
#45 = DIRECTION ( 'NONE',  ( 0.000000000000000000, 0.000000000000000000, 1.000000000000000000 ) ) ;
#46 = DIRECTION ( 'NONE',  ( 3.491481338843133355E-15, -0.000000000000000000, 1.000000000000000000 ) ) ;
#47 = ORIENTED_EDGE ( 'NONE', *, *, #185, .F. ) ;
#48 = AXIS2_PLACEMENT_3D ( 'NONE', #88, #61, #152 ) ;
#49 = DIRECTION ( 'NONE',  ( 1.000000000000000000, 0.000000000000000000, -3.469446951953614189E-15 ) ) ;
#50 = FACE_BOUND ( 'NONE', #1, .T. ) ;
#51 = ADVANCED_FACE ( 'NONE', ( #272, #394 ), #116, .T. ) ;
#52 = EDGE_LOOP ( 'NONE', ( #257 ) ) ;
#53 = VERTEX_POINT ( 'NONE', #293 ) ;
#54 = DIRECTION ( 'NONE',  ( 1.000000000000000000, 0.000000000000000000, -3.464998755066289487E-15 ) ) ;
#55 = ORIENTED_EDGE ( 'NONE', *, *, #242, .T. ) ;
#56 = CIRCLE ( 'NONE', #310, 1.054999999999999938 ) ;
#57 = DIRECTION ( 'NONE',  ( 1.000000000000000000, 0.000000000000000000, -4.336808689942023258E-15 ) ) ;
#58 = CIRCLE ( 'NONE', #244, 1.999999999999997113 ) ;
#59 = DIRECTION ( 'NONE',  ( 1.000000000000000000, 0.000000000000000000, -3.469446951953617344E-15 ) ) ;
#60 = DIRECTION ( 'NONE',  ( 3.491481338843133355E-15, -0.000000000000000000, 1.000000000000000000 ) ) ;
#61 = DIRECTION ( 'NONE',  ( 3.491481338843133355E-15, -0.000000000000000000, 1.000000000000000000 ) ) ;
#62 = EDGE_CURVE ( 'NONE', #256, #256, #343, .T. ) ;
#63 = CONICAL_SURFACE ( 'NONE', #360, 1.054999999999999938, 1.047197551196602516 ) ;
#64 = CARTESIAN_POINT ( 'NONE',  ( 0.5550000000000310241, 0.000000000000000000, 9.100000000000001421 ) ) ;
#65 = ADVANCED_BREP_SHAPE_REPRESENTATION ( '966847', ( #162, #199 ), #264 ) ;
#66 = AXIS2_PLACEMENT_3D ( 'NONE', #283, #41, #49 ) ;
#67 = CARTESIAN_POINT ( 'NONE',  ( 1.466422162314116009E-13, 0.000000000000000000, 42.00000000000000000 ) ) ;
#68 = CARTESIAN_POINT ( 'NONE',  ( 2.000000000000051070, 0.000000000000000000, 14.62446591452455991 ) ) ;
#69 = APPROVAL_STATUS ( 'not_yet_approved' ) ;
#70 = EDGE_CURVE ( 'NONE', #350, #350, #107, .T. ) ;
#71 = CARTESIAN_POINT ( 'NONE',  ( 1.055000000000002824, 0.000000000000000000, 0.9260416666666650976 ) ) ;
#72 = CC_DESIGN_PERSON_AND_ORGANIZATION_ASSIGNMENT ( #353, #392, ( #240 ) ) ;
#73 = AXIS2_PLACEMENT_3D ( 'NONE', #362, #314, #164 ) ;
#74 = ORIENTED_EDGE ( 'NONE', *, *, #70, .F. ) ;
#75 = CARTESIAN_POINT ( 'NONE',  ( 3.267614204958515198E-14, 0.000000000000000000, 9.358819045102515943 ) ) ;
#76 = CYLINDRICAL_SURFACE ( 'NONE', #10, 1.054999999999999494 ) ;
#77 = ORIENTED_EDGE ( 'NONE', *, *, #250, .F. ) ;
#78 = AXIS2_PLACEMENT_3D ( 'NONE', #148, #141, #299 ) ;
#79 = CARTESIAN_POINT ( 'NONE',  ( 0.6883825790645873299, 0.000000000000000000, 0.5556249999999947065 ) ) ;
#80 = CARTESIAN_POINT ( 'NONE',  ( 0.000000000000000000, 0.000000000000000000, 0.000000000000000000 ) ) ;
#81 = FACE_BOUND ( 'NONE', #200, .T. ) ;
#82 = EDGE_LOOP ( 'NONE', ( #47 ) ) ;
#83 = CIRCLE ( 'NONE', #207, 0.5549999999999992717 ) ;
#84 = DIRECTION ( 'NONE',  ( 1.000000000000000000, 0.000000000000000000, -3.464998755066289487E-15 ) ) ;
#85 = DATE_TIME_ROLE ( 'classification_date' ) ;
#86 = CARTESIAN_POINT ( 'NONE',  ( 1.055000000000003046, 0.000000000000000000, 0.9789583333333314874 ) ) ;
#87 = DIRECTION ( 'NONE',  ( -1.000000000000000000, 0.000000000000000000, 3.494111266777929247E-15 ) ) ;
#88 = CARTESIAN_POINT ( 'NONE',  ( 3.418014752338315494E-15, 0.000000000000000000, 0.9789583333333351511 ) ) ;
#89 = AXIS2_PLACEMENT_3D ( 'NONE', #104, #144, #269 ) ;
#90 = VERTEX_POINT ( 'NONE', #64 ) ;
#91 = CALENDAR_DATE ( 2023, 28, 9 ) ;
#92 = FACE_BOUND ( 'NONE', #16, .T. ) ;
#93 = CALENDAR_DATE ( 2023, 28, 9 ) ;
#94 = CARTESIAN_POINT ( 'NONE',  ( -1.755107108136741304E-33, 0.000000000000000000, -5.026826546689429343E-19 ) ) ;
#95 = SHAPE_DEFINITION_REPRESENTATION ( #31, #65 ) ;
#96 = CARTESIAN_POINT ( 'NONE',  ( 0.6883825790645894394, 0.000000000000000000, 1.190624999999998268 ) ) ;
#97 = EDGE_CURVE ( 'NONE', #370, #370, #276, .T. ) ;
#98 = CARTESIAN_POINT ( 'NONE',  ( 0.5509010462138056452, 0.000000000000000000, -1.923460722404661198E-15 ) ) ;
#99 = EDGE_LOOP ( 'NONE', ( #226 ) ) ;
#100 = EDGE_LOOP ( 'NONE', ( #55 ) ) ;
#101 = CIRCLE ( 'NONE', #357, 0.6883825790645853315 ) ;
#102 = ADVANCED_FACE ( 'NONE', ( #297, #178 ), #17, .F. ) ;
#103 = DIRECTION ( 'NONE',  ( -1.000000000000000000, 0.000000000000000000, 3.494111266777930825E-15 ) ) ;
#104 = CARTESIAN_POINT ( 'NONE',  ( 4.434181300330779992E-15, 0.000000000000000000, 1.270000000000000240 ) ) ;
#105 = LOCAL_TIME ( 8, 25, 34.00000000000000000, #241 ) ;
#106 = FACE_OUTER_BOUND ( 'NONE', #135, .T. ) ;
#107 = CIRCLE ( 'NONE', #295, 0.6883825790645854426 ) ;
#108 = DIRECTION ( 'NONE',  ( 3.491481338843133355E-15, -0.000000000000000000, 1.000000000000000000 ) ) ;
#109 = DIRECTION ( 'NONE',  ( 1.000000000000000000, 0.000000000000000000, -3.464998755066289487E-15 ) ) ;
#110 = APPROVAL_STATUS ( 'not_yet_approved' ) ;
#111 = CARTESIAN_POINT ( 'NONE',  ( 0.5890741737109617127, 0.000000000000000000, 9.358819045102514167 ) ) ;
#112 = EDGE_CURVE ( 'NONE', #309, #309, #113, .T. ) ;
#113 = CIRCLE ( 'NONE', #170, 1.054999999999999938 ) ;
#114 = CONICAL_SURFACE ( 'NONE', #221, 0.5509010462138056452, 1.047197551196601850 ) ;
#115 = VERTEX_POINT ( 'NONE', #68 ) ;
#116 = CYLINDRICAL_SURFACE ( 'NONE', #393, 0.6883825790645853315 ) ;
#117 = CC_DESIGN_PERSON_AND_ORGANIZATION_ASSIGNMENT ( #275, #126, ( #361 ) ) ;
#118 = VERTEX_POINT ( 'NONE', #86 ) ;
#119 = DATE_AND_TIME ( #93, #335 ) ;
#120 = APPROVAL_STATUS ( 'not_yet_approved' ) ;
#121 = ORIENTED_EDGE ( 'NONE', *, *, #185, .T. ) ;
#122 = CALENDAR_DATE ( 2023, 28, 9 ) ;
#123 = ORIENTED_EDGE ( 'NONE', *, *, #181, .F. ) ;
#124 = CARTESIAN_POINT ( 'NONE',  ( 0.5550000000000044897, 0.000000000000000000, 1.269999999999998241 ) ) ;
#125 = DIRECTION ( 'NONE',  ( 3.491481338843133355E-15, -0.000000000000000000, 1.000000000000000000 ) ) ;
#126 = PERSON_AND_ORGANIZATION_ROLE ( 'design_owner' ) ;
#127 = EDGE_LOOP ( 'NONE', ( #140 ) ) ;
#128 = FACE_OUTER_BOUND ( 'NONE', #375, .T. ) ;
#129 = FACE_BOUND ( 'NONE', #172, .T. ) ;
#130 = PERSON_AND_ORGANIZATION_ROLE ( 'creator' ) ;
#131 = CARTESIAN_POINT ( 'NONE',  ( 2.000000000000142109, 0.000000000000000000, 41.60000000000000142 ) ) ;
#132 = CIRCLE ( 'NONE', #48, 1.054999999999999494 ) ;
#133 = DATE_AND_TIME ( #91, #282 ) ;
#134 = DIRECTION ( 'NONE',  ( 3.491481338843133355E-15, -0.000000000000000000, 1.000000000000000000 ) ) ;
#135 = EDGE_LOOP ( 'NONE', ( #319 ) ) ;
#136 = CC_DESIGN_DATE_AND_TIME_ASSIGNMENT ( #133, #215, ( #29 ) ) ;
#137 = DIRECTION ( 'NONE',  ( 3.491481338843133355E-15, -0.000000000000000000, 1.000000000000000000 ) ) ;
#138 = ORIENTED_EDGE ( 'NONE', *, *, #216, .T. ) ;
#139 = ADVANCED_FACE ( 'NONE', ( #50, #387 ), #218, .T. ) ;
#140 = ORIENTED_EDGE ( 'NONE', *, *, #8, .T. ) ;
#141 = DIRECTION ( 'NONE',  ( -3.491481338843133355E-15, 0.000000000000000000, -1.000000000000000000 ) ) ;
#142 = ORIENTED_EDGE ( 'NONE', *, *, #331, .F. ) ;
#143 = AXIS2_PLACEMENT_3D ( 'NONE', #28, #271, #13 ) ;
#144 = DIRECTION ( 'NONE',  ( 3.491481338843133355E-15, -0.000000000000000000, 1.000000000000000000 ) ) ;
#145 = EDGE_LOOP ( 'NONE', ( #328 ) ) ;
#146 = CARTESIAN_POINT ( 'NONE',  ( 2.494226981436074790E-15, 0.000000000000000000, 0.7143750000000032019 ) ) ;
#147 = EDGE_LOOP ( 'NONE', ( #77 ) ) ;
#148 = CARTESIAN_POINT ( 'NONE',  ( 1.452456236958743728E-13, 0.000000000000000000, 41.60000000000000853 ) ) ;
#149 = DESIGN_CONTEXT ( 'detailed design', #201, 'design' ) ;
#150 = AXIS2_PLACEMENT_3D ( 'NONE', #248, #46, #166 ) ;
#151 = CARTESIAN_POINT ( 'NONE',  ( 1.200924102172913073E-15, 0.000000000000000000, 0.3439583333333315340 ) ) ;
#152 = DIRECTION ( 'NONE',  ( 1.000000000000000000, 0.000000000000000000, -3.494111266777930825E-15 ) ) ;
#153 = EDGE_CURVE ( 'NONE', #169, #169, #101, .T. ) ;
#154 = AXIS2_PLACEMENT_3D ( 'NONE', #280, #321, #252 ) ;
#155 = APPROVAL ( #69, 'UNSPECIFIED' ) ;
#156 = DIRECTION ( 'NONE',  ( 1.000000000000000000, 0.000000000000000000, -3.491481338843133750E-15 ) ) ;
#157 = MECHANICAL_CONTEXT ( 'NONE', #34, 'mechanical' ) ;
#158 = APPROVAL_DATE_TIME ( #11, #247 ) ;
#159 = EDGE_LOOP ( 'NONE', ( #206 ) ) ;
#160 = CIRCLE ( 'NONE', #89, 0.5550000000000000488 ) ;
#161 = CARTESIAN_POINT ( 'NONE',  ( 1.055000000000001270, 0.000000000000000000, 0.3439583333333278703 ) ) ;
#162 = MANIFOLD_SOLID_BREP ( 'Corps-Déplacer/Copier1', #19 ) ;
#163 = DIRECTION ( 'NONE',  ( 1.000000000000000000, 0.000000000000000000, -6.577150619817281553E-15 ) ) ;
#164 = DIRECTION ( 'NONE',  ( 1.000000000000000000, 0.000000000000000000, 0.000000000000000000 ) ) ;
#165 = CALENDAR_DATE ( 2023, 28, 9 ) ;
#166 = DIRECTION ( 'NONE',  ( 1.000000000000000000, 0.000000000000000000, 0.000000000000000000 ) ) ;
#167 = APPLICATION_PROTOCOL_DEFINITION ( 'international standard', 'config_control_design', 1994, #34 ) ;
#168 = EDGE_CURVE ( 'NONE', #371, #371, #27, .T. ) ;
#169 = VERTEX_POINT ( 'NONE', #12 ) ;
#170 = AXIS2_PLACEMENT_3D ( 'NONE', #332, #173, #21 ) ;
#171 = FACE_BOUND ( 'NONE', #180, .T. ) ;
#172 = EDGE_LOOP ( 'NONE', ( #22 ) ) ;
#173 = DIRECTION ( 'NONE',  ( 3.491481338843133355E-15, -0.000000000000000000, 1.000000000000000000 ) ) ;
#174 = ADVANCED_FACE ( 'NONE', ( #26, #106 ), #63, .T. ) ;
#175 = DIRECTION ( 'NONE',  ( -3.491481338843133355E-15, 0.000000000000000000, -1.000000000000000000 ) ) ;
#176 = EDGE_LOOP ( 'NONE', ( #36 ) ) ;
#177 = AXIS2_PLACEMENT_3D ( 'NONE', #230, #18, #57 ) ;
#178 = FACE_OUTER_BOUND ( 'NONE', #52, .T. ) ;
#179 = VERTEX_POINT ( 'NONE', #330 ) ;
#180 = EDGE_LOOP ( 'NONE', ( #291 ) ) ;
#181 = EDGE_CURVE ( 'NONE', #278, #278, #160, .T. ) ;
#182 = CARTESIAN_POINT ( 'NONE',  ( 1.016166547992464893E-15, 0.000000000000000000, 0.2910416666666651442 ) ) ;
#183 = CC_DESIGN_PERSON_AND_ORGANIZATION_ASSIGNMENT ( #39, #260, ( #240 ) ) ;
#184 = DIRECTION ( 'NONE',  ( 3.491481338843133355E-15, -0.000000000000000000, 1.000000000000000000 ) ) ;
#185 = EDGE_CURVE ( 'NONE', #365, #365, #368, .T. ) ;
#186 = AXIS2_PLACEMENT_3D ( 'NONE', #329, #24, #59 ) ;
#187 = COORDINATED_UNIVERSAL_TIME_OFFSET ( 1, 0, .AHEAD. ) ;
#188 = VERTEX_POINT ( 'NONE', #111 ) ;
#189 = COORDINATED_UNIVERSAL_TIME_OFFSET ( 1, 0, .AHEAD. ) ;
#190 = DATE_AND_TIME ( #122, #305 ) ;
#191 = AXIS2_PLACEMENT_3D ( 'NONE', #317, #223, #9 ) ;
#192 = CARTESIAN_POINT ( 'NONE',  ( 0.6883825790645877740, 0.000000000000000000, 0.7143750000000008704 ) ) ;
#193 = FACE_OUTER_BOUND ( 'NONE', #99, .T. ) ;
#194 = APPROVAL_ROLE ( '' ) ;
#195 = EDGE_LOOP ( 'NONE', ( #286 ) ) ;
#196 = FACE_OUTER_BOUND ( 'NONE', #176, .T. ) ;
#197 = CARTESIAN_POINT ( 'NONE',  ( 1.466422162314116009E-13, 0.000000000000000000, 42.00000000000000000 ) ) ;
#198 = FACE_OUTER_BOUND ( 'NONE', #82, .T. ) ;
#199 = AXIS2_PLACEMENT_3D ( 'NONE', #32, #45, #43 ) ;
#200 = EDGE_LOOP ( 'NONE', ( #121 ) ) ;
#201 = APPLICATION_CONTEXT ( 'configuration controlled 3d designs of mechanical parts and assemblies' ) ;
#202 = EDGE_LOOP ( 'NONE', ( #229 ) ) ;
#203 = CARTESIAN_POINT ( 'NONE',  ( 4.434181300330779992E-15, 0.000000000000000000, 1.270000000000000240 ) ) ;
#204 = EDGE_LOOP ( 'NONE', ( #316 ) ) ;
#205 = CYLINDRICAL_SURFACE ( 'NONE', #186, 1.999999999999998224 ) ;
#206 = ORIENTED_EDGE ( 'NONE', *, *, #97, .F. ) ;
#207 = AXIS2_PLACEMENT_3D ( 'NONE', #390, #184, #243 ) ;
#208 = FACE_OUTER_BOUND ( 'NONE', #373, .T. ) ;
#209 = PERSON_AND_ORGANIZATION_ROLE ( 'classification_officer' ) ;
#210 = DIRECTION ( 'NONE',  ( 1.000000000000000000, 0.000000000000000000, -3.494111266777930825E-15 ) ) ;
#211 = CARTESIAN_POINT ( 'NONE',  ( 4.157044969060107820E-15, 0.000000000000000000, 1.190625000000000711 ) ) ;
#212 = CARTESIAN_POINT ( 'NONE',  ( 0.000000000000000000, 0.000000000000000000, 0.000000000000000000 ) ) ;
#213 = ADVANCED_FACE ( 'NONE', ( #294, #239 ), #320, .T. ) ;
#214 = CONICAL_SURFACE ( 'NONE', #391, 0.6883825790645853315, 1.047197551196602294 ) ;
#215 = DATE_TIME_ROLE ( 'creation_date' ) ;
#216 = EDGE_CURVE ( 'NONE', #179, #179, #384, .T. ) ;
#217 = FACE_OUTER_BOUND ( 'NONE', #100, .T. ) ;
#218 = CONICAL_SURFACE ( 'NONE', #78, 1.999999999999997113, 0.7853981633974412846 ) ;
#219 = ADVANCED_FACE ( 'NONE', ( #231, #81 ), #214, .T. ) ;
#220 = DIRECTION ( 'NONE',  ( 3.491481338843133355E-15, -0.000000000000000000, 1.000000000000000000 ) ) ;
#221 = AXIS2_PLACEMENT_3D ( 'NONE', #212, #253, #156 ) ;
#222 = APPROVAL_ROLE ( '' ) ;
#223 = DIRECTION ( 'NONE',  ( 3.491481338843133355E-15, -0.000000000000000000, 1.000000000000000000 ) ) ;
#224 = EDGE_LOOP ( 'NONE', ( #142 ) ) ;
#225 = APPROVAL_PERSON_ORGANIZATION ( #369, #155, #222 ) ;
#226 = ORIENTED_EDGE ( 'NONE', *, *, #181, .T. ) ;
#227 = FACE_OUTER_BOUND ( 'NONE', #379, .T. ) ;
#228 = ORGANIZATION ( 'UNSPECIFIED', 'UNSPECIFIED', '' ) ;
#229 = ORIENTED_EDGE ( 'NONE', *, *, #245, .T. ) ;
#230 = CARTESIAN_POINT ( 'NONE',  ( 1.466422162314116262E-13, 0.000000000000000000, 42.00000000000000711 ) ) ;
#231 = FACE_OUTER_BOUND ( 'NONE', #145, .T. ) ;
#232 = ADVANCED_FACE ( 'NONE', ( #382, #208 ), #205, .T. ) ;
#233 = UNCERTAINTY_MEASURE_WITH_UNIT (LENGTH_MEASURE( 1.000000000000000082E-05 ), #363, 'distance_accuracy_value', 'NONE');
#234 = EDGE_LOOP ( 'NONE', ( #40 ) ) ;
#235 = AXIS2_PLACEMENT_3D ( 'NONE', #364, #383, #210 ) ;
#236 = CC_DESIGN_PERSON_AND_ORGANIZATION_ASSIGNMENT ( #7, #130, ( #29 ) ) ;
#237 = EDGE_LOOP ( 'NONE', ( #312 ) ) ;
#238 = DIRECTION ( 'NONE',  ( 1.000000000000000000, 0.000000000000000000, -3.494111266777929247E-15 ) ) ;
#239 = FACE_OUTER_BOUND ( 'NONE', #202, .T. ) ;
#240 = PRODUCT_DEFINITION_FORMATION_WITH_SPECIFIED_SOURCE ( 'ANY', '', #361, .NOT_KNOWN. ) ;
#241 = COORDINATED_UNIVERSAL_TIME_OFFSET ( 1, 0, .AHEAD. ) ;
#242 = EDGE_CURVE ( 'NONE', #53, #53, #56, .T. ) ;
#243 = DIRECTION ( 'NONE',  ( 1.000000000000000000, 0.000000000000000000, -3.125627884642899880E-15 ) ) ;
#244 = AXIS2_PLACEMENT_3D ( 'NONE', #348, #125, #249 ) ;
#245 = EDGE_CURVE ( 'NONE', #118, #118, #132, .T. ) ;
#246 = DIRECTION ( 'NONE',  ( 3.491481338843133355E-15, -0.000000000000000000, 1.000000000000000000 ) ) ;
#247 = APPROVAL ( #120, 'UNSPECIFIED' ) ;
#248 = CARTESIAN_POINT ( 'NONE',  ( 1.466422162314116009E-13, 0.000000000000000000, 42.00000000000000000 ) ) ;
#249 = DIRECTION ( 'NONE',  ( 1.000000000000000000, 0.000000000000000000, -3.469446951953619316E-15 ) ) ;
#250 = EDGE_CURVE ( 'NONE', #90, #90, #83, .T. ) ;
#251 = ORIENTED_EDGE ( 'NONE', *, *, #8, .F. ) ;
#252 = DIRECTION ( 'NONE',  ( -1.000000000000000000, 0.000000000000000000, 3.491481338843133355E-15 ) ) ;
#253 = DIRECTION ( 'NONE',  ( 3.491481338843133355E-15, -0.000000000000000000, 1.000000000000000000 ) ) ;
#254 = COORDINATED_UNIVERSAL_TIME_OFFSET ( 1, 0, .AHEAD. ) ;
#255 = AXIS2_PLACEMENT_3D ( 'NONE', #75, #220, #285 ) ;
#256 = VERTEX_POINT ( 'NONE', #71 ) ;
#257 = ORIENTED_EDGE ( 'NONE', *, *, #250, .T. ) ;
#258 = FACE_OUTER_BOUND ( 'NONE', #224, .T. ) ;
#259 = ORIENTED_EDGE ( 'NONE', *, *, #376, .F. ) ;
#260 = PERSON_AND_ORGANIZATION_ROLE ( 'creator' ) ;
#261 = APPROVAL ( #110, 'UNSPECIFIED' ) ;
#262 = CARTESIAN_POINT ( 'NONE',  ( 3.418014752338315494E-15, 0.000000000000000000, 0.9789583333333351511 ) ) ;
#263 = LOCAL_TIME ( 8, 25, 34.00000000000000000, #342 ) ;
#264 =( GEOMETRIC_REPRESENTATION_CONTEXT ( 3 ) GLOBAL_UNCERTAINTY_ASSIGNED_CONTEXT ( ( #233 ) ) GLOBAL_UNIT_ASSIGNED_CONTEXT ( ( #363, #302, #270 ) ) REPRESENTATION_CONTEXT ( 'NONE', 'WORKASPACE' ) );
#265 = EDGE_LOOP ( 'NONE', ( #138 ) ) ;
#266 = DIRECTION ( 'NONE',  ( 3.491481338843133355E-15, -0.000000000000000000, 1.000000000000000000 ) ) ;
#267 = DIRECTION ( 'NONE',  ( 3.491481338843133355E-15, -0.000000000000000000, 1.000000000000000000 ) ) ;
#268 = AXIS2_PLACEMENT_3D ( 'NONE', #262, #175, #103 ) ;
#269 = DIRECTION ( 'NONE',  ( 1.000000000000000000, 0.000000000000000000, -3.516331370223257336E-15 ) ) ;
#270 =( NAMED_UNIT ( * ) SI_UNIT ( $, .STERADIAN. ) SOLID_ANGLE_UNIT ( ) );
#271 = DIRECTION ( 'NONE',  ( -3.491481338843133355E-15, 0.000000000000000000, -1.000000000000000000 ) ) ;
#272 = FACE_OUTER_BOUND ( 'NONE', #355, .T. ) ;
#273 = SECURITY_CLASSIFICATION_LEVEL ( 'unclassified' ) ;
#274 = APPROVAL_PERSON_ORGANIZATION ( #389, #261, #194 ) ;
#275 = PERSON_AND_ORGANIZATION ( #346, #228 ) ;
#276 = CIRCLE ( 'NONE', #341, 0.6883825790645853315 ) ;
#277 = ORIENTED_EDGE ( 'NONE', *, *, #112, .F. ) ;
#278 = VERTEX_POINT ( 'NONE', #124 ) ;
#279 = ADVANCED_FACE ( 'NONE', ( #333 ), #303, .F. ) ;
#280 = CARTESIAN_POINT ( 'NONE',  ( 4.434181300330779992E-15, 0.6883825790645853315, 1.270000000000000018 ) ) ;
#281 = FACE_OUTER_BOUND ( 'NONE', #237, .T. ) ;
#282 = LOCAL_TIME ( 8, 25, 34.00000000000000000, #254 ) ;
#283 = CARTESIAN_POINT ( 'NONE',  ( 5.106104983111000394E-14, 0.000000000000000000, 14.62446591452456701 ) ) ;
#284 = ADVANCED_FACE ( 'NONE', ( #196, #128 ), #76, .T. ) ;
#285 = DIRECTION ( 'NONE',  ( 1.000000000000000000, 0.000000000000000000, -2.944830300484488504E-15 ) ) ;
#286 = ORIENTED_EDGE ( 'NONE', *, *, #168, .F. ) ;
#287 = PLANE ( 'NONE',  #306 ) ;
#288 = EDGE_LOOP ( 'NONE', ( #322 ) ) ;
#289 = CC_DESIGN_DATE_AND_TIME_ASSIGNMENT ( #386, #85, ( #308 ) ) ;
#290 = DIRECTION ( 'NONE',  ( 1.000000000000000000, 0.000000000000000000, -3.464998755066289487E-15 ) ) ;
#291 = ORIENTED_EDGE ( 'NONE', *, *, #376, .T. ) ;
#292 = ADVANCED_FACE ( 'NONE', ( #198, #4 ), #345, .T. ) ;
#293 = CARTESIAN_POINT ( 'NONE',  ( 1.055000000000001048, 0.000000000000000000, 0.2910416666666614804 ) ) ;
#294 = FACE_BOUND ( 'NONE', #159, .T. ) ;
#295 = AXIS2_PLACEMENT_3D ( 'NONE', #359, #358, #326 ) ;
#296 = ORIENTED_EDGE ( 'NONE', *, *, #153, .F. ) ;
#297 = FACE_OUTER_BOUND ( 'NONE', #323, .T. ) ;
#298 = DIRECTION ( 'NONE',  ( 3.491481338843133355E-15, -0.000000000000000000, 1.000000000000000000 ) ) ;
#299 = DIRECTION ( 'NONE',  ( -1.000000000000000000, 0.000000000000000000, 3.469446951953619316E-15 ) ) ;
#300 = CONICAL_SURFACE ( 'NONE', #191, 0.5890741737109290721, 0.2617993877991429130 ) ;
#301 = CC_DESIGN_APPROVAL ( #247, ( #29 ) ) ;
#302 =( NAMED_UNIT ( * ) PLANE_ANGLE_UNIT ( ) SI_UNIT ( $, .RADIAN. ) );
#303 = PLANE ( 'NONE',  #143 ) ;
#304 = PRODUCT_RELATED_PRODUCT_CATEGORY ( 'detail', '', ( #361 ) ) ;
#305 = LOCAL_TIME ( 8, 25, 34.00000000000000000, #189 ) ;
#306 = AXIS2_PLACEMENT_3D ( 'NONE', #94, #134, #44 ) ;
#307 = ADVANCED_FACE ( 'NONE', ( #92, #344 ), #339, .F. ) ;
#308 = SECURITY_CLASSIFICATION ( '', '', #273 ) ;
#309 = VERTEX_POINT ( 'NONE', #161 ) ;
#310 = AXIS2_PLACEMENT_3D ( 'NONE', #182, #298, #238 ) ;
#311 = APPROVAL_DATE_TIME ( #190, #155 ) ;
#312 = ORIENTED_EDGE ( 'NONE', *, *, #242, .F. ) ;
#313 = CYLINDRICAL_SURFACE ( 'NONE', #349, 1.054999999999999938 ) ;
#314 = DIRECTION ( 'NONE',  ( 3.491481338843133355E-15, -0.000000000000000000, 1.000000000000000000 ) ) ;
#315 = APPROVAL_DATE_TIME ( #119, #261 ) ;
#316 = ORIENTED_EDGE ( 'NONE', *, *, #153, .T. ) ;
#317 = CARTESIAN_POINT ( 'NONE',  ( 3.267614204958515198E-14, 0.000000000000000000, 9.358819045102515943 ) ) ;
#318 = CARTESIAN_POINT ( 'NONE',  ( 1.466422162314116009E-13, 0.000000000000000000, 42.00000000000000000 ) ) ;
#319 = ORIENTED_EDGE ( 'NONE', *, *, #112, .T. ) ;
#320 = CONICAL_SURFACE ( 'NONE', #268, 1.054999999999999494, 1.047197551196602294 ) ;
#321 = DIRECTION ( 'NONE',  ( -3.491481338843133355E-15, 0.000000000000000000, -1.000000000000000000 ) ) ;
#322 = ORIENTED_EDGE ( 'NONE', *, *, #70, .T. ) ;
#323 = EDGE_LOOP ( 'NONE', ( #259 ) ) ;
#324 = CC_DESIGN_APPROVAL ( #155, ( #240 ) ) ;
#325 = DIRECTION ( 'NONE',  ( 3.491481338843133355E-15, -0.000000000000000000, 1.000000000000000000 ) ) ;
#326 = DIRECTION ( 'NONE',  ( 1.000000000000000000, 0.000000000000000000, -3.464998755066289093E-15 ) ) ;
#327 = CIRCLE ( 'NONE', #66, 2.000000000000000000 ) ;
#328 = ORIENTED_EDGE ( 'NONE', *, *, #62, .F. ) ;
#329 = CARTESIAN_POINT ( 'NONE',  ( 1.466422162314116009E-13, 0.000000000000000000, 42.00000000000000000 ) ) ;
#330 = CARTESIAN_POINT ( 'NONE',  ( 1.600000000000144640, 0.000000000000000000, 42.00000000000000000 ) ) ;
#331 = EDGE_CURVE ( 'NONE', #115, #115, #327, .T. ) ;
#332 = CARTESIAN_POINT ( 'NONE',  ( 1.200924102172913073E-15, 0.000000000000000000, 0.3439583333333315340 ) ) ;
#333 = FACE_OUTER_BOUND ( 'NONE', #265, .T. ) ;
#334 = AXIS2_PLACEMENT_3D ( 'NONE', #377, #354, #352 ) ;
#335 = LOCAL_TIME ( 8, 25, 34.00000000000000000, #187 ) ;
#336 = DIRECTION ( 'NONE',  ( 1.000000000000000000, 0.000000000000000000, 0.000000000000000000 ) ) ;
#337 = AXIS2_PLACEMENT_3D ( 'NONE', #80, #266, #380 ) ;
#338 = APPROVAL_ROLE ( '' ) ;
#339 = PLANE ( 'NONE',  #154 ) ;
#340 = CC_DESIGN_PERSON_AND_ORGANIZATION_ASSIGNMENT ( #395, #209, ( #308 ) ) ;
#341 = AXIS2_PLACEMENT_3D ( 'NONE', #211, #108, #54 ) ;
#342 = COORDINATED_UNIVERSAL_TIME_OFFSET ( 1, 0, .AHEAD. ) ;
#343 = CIRCLE ( 'NONE', #235, 1.054999999999999494 ) ;
#344 = FACE_OUTER_BOUND ( 'NONE', #204, .T. ) ;
#345 = CYLINDRICAL_SURFACE ( 'NONE', #150, 0.6883825790645853315 ) ;
#346 = PERSON ( 'UNSPECIFIED', 'UNSPECIFIED', 'UNSPECIFIED', ('UNSPECIFIED'), ('UNSPECIFIED'), ('UNSPECIFIED') ) ;
#347 = ORIENTED_EDGE ( 'NONE', *, *, #62, .T. ) ;
#348 = CARTESIAN_POINT ( 'NONE',  ( 1.452456236958743728E-13, 0.000000000000000000, 41.60000000000000853 ) ) ;
#349 = AXIS2_PLACEMENT_3D ( 'NONE', #318, #6, #374 ) ;
#350 = VERTEX_POINT ( 'NONE', #79 ) ;
#351 = ADVANCED_FACE ( 'NONE', ( #258, #171 ), #300, .T. ) ;
#352 = DIRECTION ( 'NONE',  ( 1.000000000000000000, 0.000000000000000000, -3.491481338843132961E-15 ) ) ;
#353 = PERSON_AND_ORGANIZATION ( #346, #228 ) ;
#354 = DIRECTION ( 'NONE',  ( 3.491481338843133355E-15, -0.000000000000000000, 1.000000000000000000 ) ) ;
#355 = EDGE_LOOP ( 'NONE', ( #296 ) ) ;
#356 = DIRECTION ( 'NONE',  ( -3.491481338843133355E-15, 0.000000000000000000, -1.000000000000000000 ) ) ;
#357 = AXIS2_PLACEMENT_3D ( 'NONE', #203, #60, #290 ) ;
#358 = DIRECTION ( 'NONE',  ( 3.491481338843133355E-15, -0.000000000000000000, 1.000000000000000000 ) ) ;
#359 = CARTESIAN_POINT ( 'NONE',  ( 1.939954318894705597E-15, 0.000000000000000000, 0.5556249999999971489 ) ) ;
#360 = AXIS2_PLACEMENT_3D ( 'NONE', #151, #356, #87 ) ;
#361 = PRODUCT ( '966847', '966847', '', ( #157 ) ) ;
#362 = CARTESIAN_POINT ( 'NONE',  ( 1.466422162314116009E-13, 0.000000000000000000, 42.00000000000000000 ) ) ;
#363 =( LENGTH_UNIT ( ) NAMED_UNIT ( * ) SI_UNIT ( .MILLI., .METRE. ) );
#364 = CARTESIAN_POINT ( 'NONE',  ( 3.233257198157867116E-15, 0.000000000000000000, 0.9260416666666687613 ) ) ;
#365 = VERTEX_POINT ( 'NONE', #192 ) ;
#366 = CYLINDRICAL_SURFACE ( 'NONE', #73, 0.5549999999999997158 ) ;
#367 = FACE_OUTER_BOUND ( 'NONE', #195, .T. ) ;
#368 = CIRCLE ( 'NONE', #378, 0.6883825790645853315 ) ;
#369 = PERSON_AND_ORGANIZATION ( #346, #228 ) ;
#370 = VERTEX_POINT ( 'NONE', #96 ) ;
#371 = VERTEX_POINT ( 'NONE', #98 ) ;
#372 = CC_DESIGN_APPROVAL ( #261, ( #308 ) ) ;
#373 = EDGE_LOOP ( 'NONE', ( #381 ) ) ;
#374 = DIRECTION ( 'NONE',  ( 1.000000000000000000, 0.000000000000000000, -6.577150619817278397E-15 ) ) ;
#375 = EDGE_LOOP ( 'NONE', ( #347 ) ) ;
#376 = EDGE_CURVE ( 'NONE', #188, #188, #30, .T. ) ;
#377 = CARTESIAN_POINT ( 'NONE',  ( 3.177248018347251984E-14, 0.000000000000000000, 9.099999999999999645 ) ) ;
#378 = AXIS2_PLACEMENT_3D ( 'NONE', #15, #325, #109 ) ;
#379 = EDGE_LOOP ( 'NONE', ( #277 ) ) ;
#380 = DIRECTION ( 'NONE',  ( 1.000000000000000000, 0.000000000000000000, -3.491481338843133750E-15 ) ) ;
#381 = ORIENTED_EDGE ( 'NONE', *, *, #331, .T. ) ;
#382 = FACE_OUTER_BOUND ( 'NONE', #5, .T. ) ;
#383 = DIRECTION ( 'NONE',  ( 3.491481338843133355E-15, -0.000000000000000000, 1.000000000000000000 ) ) ;
#384 = CIRCLE ( 'NONE', #177, 1.599999999999998090 ) ;
#385 = ADVANCED_FACE ( 'NONE', ( #227, #217 ), #313, .T. ) ;
#386 = DATE_AND_TIME ( #25, #105 ) ;
#387 = FACE_OUTER_BOUND ( 'NONE', #127, .T. ) ;
#388 = ADVANCED_FACE ( 'NONE', ( #367 ), #287, .F. ) ;
#389 = PERSON_AND_ORGANIZATION ( #346, #228 ) ;
#390 = CARTESIAN_POINT ( 'NONE',  ( 3.177248018347253247E-14, 0.000000000000000000, 9.100000000000003197 ) ) ;
#391 = AXIS2_PLACEMENT_3D ( 'NONE', #146, #267, #84 ) ;
#392 = PERSON_AND_ORGANIZATION_ROLE ( 'design_supplier' ) ;
#393 = AXIS2_PLACEMENT_3D ( 'NONE', #67, #246, #336 ) ;
#394 = FACE_OUTER_BOUND ( 'NONE', #234, .T. ) ;
#395 = PERSON_AND_ORGANIZATION ( #346, #228 ) ;
ENDSEC;
END-ISO-10303-21;
