ISO-10303-21;
HEADER;
FILE_DESCRIPTION (( 'STEP AP203' ),
    '1' );
FILE_NAME ('966845.step',
    '2023-09-28T06:25:33',
    ( '' ),
    ( '' ),
    'SwSTEP 2.0',
    'SolidWorks 2022',
    '' );
FILE_SCHEMA (( 'CONFIG_CONTROL_DESIGN' ));
ENDSEC;

DATA;
#1 = DIRECTION ( 'NONE',  ( 1.000000000000000000, 0.000000000000000000, -5.517360748389223386E-15 ) ) ;
#2 = ADVANCED_FACE ( 'NONE', ( #289, #17 ), #99, .T. ) ;
#3 = CARTESIAN_POINT ( 'NONE',  ( 4.926868111478640755E-15, 1.257647310071761337, 1.411111111111110095 ) ) ;
#4 = CYLINDRICAL_SURFACE ( 'NONE', #264, 1.257647310071761559 ) ;
#5 = FACE_OUTER_BOUND ( 'NONE', #96, .T. ) ;
#6 = ORIENTED_EDGE ( 'NONE', *, *, #231, .F. ) ;
#7 = CC_DESIGN_PERSON_AND_ORGANIZATION_ASSIGNMENT ( #196, #34, ( #383 ) ) ;
#8 = CIRCLE ( 'NONE', #241, 1.665000000000000036 ) ;
#9 = SHAPE_DEFINITION_REPRESENTATION ( #248, #361 ) ;
#10 = DIRECTION ( 'NONE',  ( 1.000000000000000000, 0.000000000000000000, -5.517360748389224964E-15 ) ) ;
#11 = APPROVAL_PERSON_ORGANIZATION ( #381, #122, #15 ) ;
#12 = ORIENTED_EDGE ( 'NONE', *, *, #239, .F. ) ;
#13 = COORDINATED_UNIVERSAL_TIME_OFFSET ( 1, 0, .AHEAD. ) ;
#14 = APPROVAL_DATE_TIME ( #339, #322 ) ;
#15 = APPROVAL_ROLE ( '' ) ;
#16 = AXIS2_PLACEMENT_3D ( 'NONE', #23, #176, #81 ) ;
#17 = FACE_BOUND ( 'NONE', #285, .T. ) ;
#18 = ADVANCED_FACE ( 'NONE', ( #141, #302 ), #240, .T. ) ;
#19 = CARTESIAN_POINT ( 'NONE',  ( 1.257647310071764446, 0.000000000000000000, 0.7937499999999982903 ) ) ;
#20 = AXIS2_PLACEMENT_3D ( 'NONE', #61, #100, #130 ) ;
#21 = VERTEX_POINT ( 'NONE', #200 ) ;
#22 = FACE_OUTER_BOUND ( 'NONE', #334, .T. ) ;
#23 = CARTESIAN_POINT ( 'NONE',  ( 1.452456236958743728E-13, 0.000000000000000000, 41.60000000000000853 ) ) ;
#24 = MECHANICAL_CONTEXT ( 'NONE', #376, 'mechanical' ) ;
#25 = DIRECTION ( 'NONE',  ( 1.000000000000000000, 0.000000000000000000, -6.279541994486183250E-15 ) ) ;
#26 = AXIS2_PLACEMENT_3D ( 'NONE', #116, #180, #172 ) ;
#27 = DIRECTION ( 'NONE',  ( 1.000000000000000000, 0.000000000000000000, -3.448350467743265405E-15 ) ) ;
#28 = AXIS2_PLACEMENT_3D ( 'NONE', #82, #108, #115 ) ;
#29 = APPROVAL_PERSON_ORGANIZATION ( #393, #322, #347 ) ;
#30 = FACE_BOUND ( 'NONE', #169, .T. ) ;
#31 = EDGE_LOOP ( 'NONE', ( #256 ) ) ;
#32 = DIRECTION ( 'NONE',  ( 3.491481338843133355E-15, -0.000000000000000000, 1.000000000000000000 ) ) ;
#33 = ORIENTED_EDGE ( 'NONE', *, *, #206, .F. ) ;
#34 = PERSON_AND_ORGANIZATION_ROLE ( 'creator' ) ;
#35 = DIRECTION ( 'NONE',  ( 3.491481338843133355E-15, -0.000000000000000000, 1.000000000000000000 ) ) ;
#36 = ORIENTED_EDGE ( 'NONE', *, *, #73, .F. ) ;
#37 = AXIS2_PLACEMENT_3D ( 'NONE', #114, #147, #301 ) ;
#38 = CALENDAR_DATE ( 2023, 28, 9 ) ;
#39 = DIRECTION ( 'NONE',  ( 3.491481338843133355E-15, -0.000000000000000000, 1.000000000000000000 ) ) ;
#40 = ORIENTED_EDGE ( 'NONE', *, *, #385, .F. ) ;
#41 = CC_DESIGN_DATE_AND_TIME_ASSIGNMENT ( #342, #283, ( #77 ) ) ;
#42 = APPROVAL_STATUS ( 'not_yet_approved' ) ;
#43 = PRODUCT_RELATED_PRODUCT_CATEGORY ( 'detail', '', ( #179 ) ) ;
#44 =( GEOMETRIC_REPRESENTATION_CONTEXT ( 3 ) GLOBAL_UNCERTAINTY_ASSIGNED_CONTEXT ( ( #142 ) ) GLOBAL_UNIT_ASSIGNED_CONTEXT ( ( #321, #387, #166 ) ) REPRESENTATION_CONTEXT ( 'NONE', 'WORKASPACE' ) );
#45 = CARTESIAN_POINT ( 'NONE',  ( 1.600000000000144640, 0.000000000000000000, 42.00000000000000000 ) ) ;
#46 = EDGE_LOOP ( 'NONE', ( #221 ) ) ;
#47 = DIRECTION ( 'NONE',  ( 1.000000000000000000, 0.000000000000000000, -3.491481338843133355E-15 ) ) ;
#48 = FACE_OUTER_BOUND ( 'NONE', #93, .T. ) ;
#49 = CIRCLE ( 'NONE', #37, 1.664999999999999813 ) ;
#50 = ADVANCED_FACE ( 'NONE', ( #389, #352 ), #146, .T. ) ;
#51 = CARTESIAN_POINT ( 'NONE',  ( 0.000000000000000000, 0.000000000000000000, 0.000000000000000000 ) ) ;
#52 = PERSON_AND_ORGANIZATION_ROLE ( 'design_owner' ) ;
#53 = ADVANCED_FACE ( 'NONE', ( #83, #357 ), #348, .T. ) ;
#54 = CIRCLE ( 'NONE', #64, 1.104999999999999982 ) ;
#55 = CARTESIAN_POINT ( 'NONE',  ( 0.000000000000000000, 0.000000000000000000, 0.000000000000000000 ) ) ;
#56 = CC_DESIGN_PERSON_AND_ORGANIZATION_ASSIGNMENT ( #198, #192, ( #383 ) ) ;
#57 = CARTESIAN_POINT ( 'NONE',  ( 1.466422162314116262E-13, 1.599999999999998090, 42.00000000000000711 ) ) ;
#58 = DESIGN_CONTEXT ( 'detailed design', #358, 'design' ) ;
#59 = AXIS2_PLACEMENT_3D ( 'NONE', #350, #260, #201 ) ;
#60 = EDGE_CURVE ( 'NONE', #138, #138, #49, .T. ) ;
#61 = CARTESIAN_POINT ( 'NONE',  ( 2.771363312706746567E-15, 0.000000000000000000, 0.7937500000000028422 ) ) ;
#62 = EDGE_LOOP ( 'NONE', ( #76 ) ) ;
#63 = CIRCLE ( 'NONE', #255, 1.104999999999998650 ) ;
#64 = AXIS2_PLACEMENT_3D ( 'NONE', #152, #182, #215 ) ;
#65 = CARTESIAN_POINT ( 'NONE',  ( 4.678584994049799958E-14, 0.000000000000000000, 13.40000000000000213 ) ) ;
#66 = ORIENTED_EDGE ( 'NONE', *, *, #101, .F. ) ;
#67 = SECURITY_CLASSIFICATION_LEVEL ( 'unclassified' ) ;
#68 = DIRECTION ( 'NONE',  ( -3.491481338843133355E-15, 0.000000000000000000, -1.000000000000000000 ) ) ;
#69 = EDGE_LOOP ( 'NONE', ( #190 ) ) ;
#70 = CALENDAR_DATE ( 2023, 28, 9 ) ;
#71 = DIRECTION ( 'NONE',  ( 3.491481338843133355E-15, -0.000000000000000000, 1.000000000000000000 ) ) ;
#72 = EDGE_LOOP ( 'NONE', ( #319 ) ) ;
#73 = EDGE_CURVE ( 'NONE', #267, #267, #261, .T. ) ;
#74 = AXIS2_PLACEMENT_3D ( 'NONE', #355, #167, #290 ) ;
#75 = CALENDAR_DATE ( 2023, 28, 9 ) ;
#76 = ORIENTED_EDGE ( 'NONE', *, *, #186, .F. ) ;
#77 = PRODUCT_DEFINITION ( 'UNKNOWN', '', #383, #58 ) ;
#78 = CARTESIAN_POINT ( 'NONE',  ( 1.139074173710975746, 0.000000000000000000, 13.65881904510251132 ) ) ;
#79 = CIRCLE ( 'NONE', #281, 1.257647310071761337 ) ;
#80 = VERTEX_POINT ( 'NONE', #202 ) ;
#81 = DIRECTION ( 'NONE',  ( -1.000000000000000000, 0.000000000000000000, 3.469446951953619316E-15 ) ) ;
#82 = CARTESIAN_POINT ( 'NONE',  ( 2.155504798771903259E-15, 0.000000000000000000, 0.6173611111111101390 ) ) ;
#83 = FACE_OUTER_BOUND ( 'NONE', #135, .T. ) ;
#84 = AXIS2_PLACEMENT_3D ( 'NONE', #148, #253, #314 ) ;
#85 = DIRECTION ( 'NONE',  ( 3.491481338843133355E-15, -0.000000000000000000, 1.000000000000000000 ) ) ;
#86 = CARTESIAN_POINT ( 'NONE',  ( 1.452456236958743728E-13, 0.000000000000000000, 41.60000000000000853 ) ) ;
#87 = PERSON_AND_ORGANIZATION ( #165, #243 ) ;
#88 = CYLINDRICAL_SURFACE ( 'NONE', #177, 1.104999999999999316 ) ;
#89 = DIRECTION ( 'NONE',  ( 3.491481338843133355E-15, -0.000000000000000000, 1.000000000000000000 ) ) ;
#90 = AXIS2_PLACEMENT_3D ( 'NONE', #3, #68, #367 ) ;
#91 = CARTESIAN_POINT ( 'NONE',  ( 1.466422162314116009E-13, 0.000000000000000000, 42.00000000000000000 ) ) ;
#92 = DIRECTION ( 'NONE',  ( -3.491481338843133355E-15, 0.000000000000000000, -1.000000000000000000 ) ) ;
#93 = EDGE_LOOP ( 'NONE', ( #279 ) ) ;
#94 = EDGE_CURVE ( 'NONE', #113, #113, #117, .T. ) ;
#95 = PLANE ( 'NONE',  #90 ) ;
#96 = EDGE_LOOP ( 'NONE', ( #12 ) ) ;
#97 = AXIS2_PLACEMENT_3D ( 'NONE', #55, #174, #175 ) ;
#98 = DIRECTION ( 'NONE',  ( 3.491481338843133355E-15, -0.000000000000000000, 1.000000000000000000 ) ) ;
#99 = CONICAL_SURFACE ( 'NONE', #59, 1.139074173710928228, 0.2617993877991424134 ) ;
#100 = DIRECTION ( 'NONE',  ( 3.491481338843133355E-15, -0.000000000000000000, 1.000000000000000000 ) ) ;
#101 = EDGE_CURVE ( 'NONE', #343, #343, #171, .T. ) ;
#102 = EDGE_LOOP ( 'NONE', ( #40 ) ) ;
#103 = COORDINATED_UNIVERSAL_TIME_OFFSET ( 1, 0, .AHEAD. ) ;
#104 = FACE_BOUND ( 'NONE', #155, .T. ) ;
#105 = ORIENTED_EDGE ( 'NONE', *, *, #239, .T. ) ;
#106 = LOCAL_TIME ( 8, 25, 33.00000000000000000, #137 ) ;
#107 = ADVANCED_FACE ( 'NONE', ( #238, #48 ), #391, .T. ) ;
#108 = DIRECTION ( 'NONE',  ( 3.491481338843133355E-15, -0.000000000000000000, 1.000000000000000000 ) ) ;
#109 = CIRCLE ( 'NONE', #330, 1.665000000000000036 ) ;
#110 = LOCAL_TIME ( 8, 25, 33.00000000000000000, #103 ) ;
#111 = VERTEX_POINT ( 'NONE', #78 ) ;
#112 = EDGE_CURVE ( 'NONE', #111, #111, #195, .T. ) ;
#113 = VERTEX_POINT ( 'NONE', #328 ) ;
#114 = CARTESIAN_POINT ( 'NONE',  ( 3.797794169264786929E-15, 0.000000000000000000, 1.087731481481481133 ) ) ;
#115 = DIRECTION ( 'NONE',  ( 1.000000000000000000, 0.000000000000000000, -3.534559229436846527E-15 ) ) ;
#116 = CARTESIAN_POINT ( 'NONE',  ( 4.768951180661061278E-14, 0.000000000000000000, 13.65881904510251488 ) ) ;
#117 = CIRCLE ( 'NONE', #356, 1.999999999999997113 ) ;
#118 = APPROVAL_PERSON_ORGANIZATION ( #378, #364, #188 ) ;
#119 = APPROVAL_STATUS ( 'not_yet_approved' ) ;
#120 = ADVANCED_FACE ( 'NONE', ( #297, #294 ), #121, .T. ) ;
#121 = CYLINDRICAL_SURFACE ( 'NONE', #299, 1.665000000000000036 ) ;
#122 = APPROVAL ( #42, 'UNSPECIFIED' ) ;
#123 = FACE_OUTER_BOUND ( 'NONE', #217, .T. ) ;
#124 = AXIS2_PLACEMENT_3D ( 'NONE', #51, #268, #212 ) ;
#125 = FACE_OUTER_BOUND ( 'NONE', #133, .T. ) ;
#126 = EDGE_LOOP ( 'NONE', ( #311 ) ) ;
#127 = CYLINDRICAL_SURFACE ( 'NONE', #149, 1.257647310071761337 ) ;
#128 = CARTESIAN_POINT ( 'NONE',  ( 5.890770742550267494E-14, 0.000000000000000000, 16.87183797036163924 ) ) ;
#129 = EDGE_LOOP ( 'NONE', ( #259 ) ) ;
#130 = DIRECTION ( 'NONE',  ( 1.000000000000000000, 0.000000000000000000, -3.534559229436846527E-15 ) ) ;
#131 = EDGE_LOOP ( 'NONE', ( #66 ) ) ;
#132 = APPROVAL_DATE_TIME ( #162, #364 ) ;
#133 = EDGE_LOOP ( 'NONE', ( #194 ) ) ;
#134 = CALENDAR_DATE ( 2023, 28, 9 ) ;
#135 = EDGE_LOOP ( 'NONE', ( #307 ) ) ;
#136 = ADVANCED_FACE ( 'NONE', ( #242, #360 ), #88, .T. ) ;
#137 = COORDINATED_UNIVERSAL_TIME_OFFSET ( 1, 0, .AHEAD. ) ;
#138 = VERTEX_POINT ( 'NONE', #143 ) ;
#139 = ADVANCED_FACE ( 'NONE', ( #329 ), #395, .F. ) ;
#140 = CARTESIAN_POINT ( 'NONE',  ( 1.257647310071766444, 0.000000000000000000, 1.411111111111108540 ) ) ;
#141 = FACE_BOUND ( 'NONE', #102, .T. ) ;
#142 = UNCERTAINTY_MEASURE_WITH_UNIT (LENGTH_MEASURE( 1.000000000000000082E-05 ), #321, 'distance_accuracy_value', 'NONE');
#143 = CARTESIAN_POINT ( 'NONE',  ( 1.665000000000003810, 0.000000000000000000, 1.087731481481475360 ) ) ;
#144 = EDGE_CURVE ( 'NONE', #237, #237, #109, .T. ) ;
#145 = DIRECTION ( 'NONE',  ( -1.000000000000000000, 0.000000000000000000, 3.483772746424893919E-15 ) ) ;
#146 = CONICAL_SURFACE ( 'NONE', #16, 1.999999999999997113, 0.7853981633974412846 ) ;
#147 = DIRECTION ( 'NONE',  ( 3.491481338843133355E-15, -0.000000000000000000, 1.000000000000000000 ) ) ;
#148 = CARTESIAN_POINT ( 'NONE',  ( 2.663778473481334821E-33, 0.000000000000000000, 7.629364773760900581E-19 ) ) ;
#149 = AXIS2_PLACEMENT_3D ( 'NONE', #340, #337, #10 ) ;
#150 = EDGE_LOOP ( 'NONE', ( #36 ) ) ;
#151 = LOCAL_TIME ( 8, 25, 33.00000000000000000, #13 ) ;
#152 = CARTESIAN_POINT ( 'NONE',  ( 4.926868111478650221E-15, 0.000000000000000000, 1.411111111111112981 ) ) ;
#153 = ORIENTED_EDGE ( 'NONE', *, *, #101, .T. ) ;
#154 = FACE_OUTER_BOUND ( 'NONE', #318, .T. ) ;
#155 = EDGE_LOOP ( 'NONE', ( #227 ) ) ;
#156 = DATE_AND_TIME ( #161, #106 ) ;
#157 = PLANE ( 'NONE',  #213 ) ;
#158 = AXIS2_PLACEMENT_3D ( 'NONE', #219, #71, #185 ) ;
#159 = VERTEX_POINT ( 'NONE', #203 ) ;
#160 = EDGE_LOOP ( 'NONE', ( #258 ) ) ;
#161 = CALENDAR_DATE ( 2023, 28, 9 ) ;
#162 = DATE_AND_TIME ( #70, #110 ) ;
#163 = EDGE_CURVE ( 'NONE', #170, #170, #232, .T. ) ;
#164 = CC_DESIGN_APPROVAL ( #364, ( #383 ) ) ;
#165 = PERSON ( 'UNSPECIFIED', 'UNSPECIFIED', 'UNSPECIFIED', ('UNSPECIFIED'), ('UNSPECIFIED'), ('UNSPECIFIED') ) ;
#166 =( NAMED_UNIT ( * ) SI_UNIT ( $, .STERADIAN. ) SOLID_ANGLE_UNIT ( ) );
#167 = DIRECTION ( 'NONE',  ( -3.491481338843133355E-15, 0.000000000000000000, -1.000000000000000000 ) ) ;
#168 = ADVANCED_FACE ( 'NONE', ( #125, #30 ), #392, .T. ) ;
#169 = EDGE_LOOP ( 'NONE', ( #105 ) ) ;
#170 = VERTEX_POINT ( 'NONE', #291 ) ;
#171 = CIRCLE ( 'NONE', #124, 1.104890051348673907 ) ;
#172 = DIRECTION ( 'NONE',  ( 1.000000000000000000, 0.000000000000000000, -3.045848138800909259E-15 ) ) ;
#173 = CARTESIAN_POINT ( 'NONE',  ( 1.105000000000005089, 0.000000000000000000, 1.411111111111108984 ) ) ;
#174 = DIRECTION ( 'NONE',  ( 3.491481338843133355E-15, -0.000000000000000000, 1.000000000000000000 ) ) ;
#175 = DIRECTION ( 'NONE',  ( 1.000000000000000000, 0.000000000000000000, -3.491481338843133750E-15 ) ) ;
#176 = DIRECTION ( 'NONE',  ( -3.491481338843133355E-15, 0.000000000000000000, -1.000000000000000000 ) ) ;
#177 = AXIS2_PLACEMENT_3D ( 'NONE', #211, #271, #25 ) ;
#178 = AXIS2_PLACEMENT_3D ( 'NONE', #262, #244, #359 ) ;
#179 = PRODUCT ( '966845', '966845', '', ( #24 ) ) ;
#180 = DIRECTION ( 'NONE',  ( 3.491481338843133355E-15, -0.000000000000000000, 1.000000000000000000 ) ) ;
#181 = DIRECTION ( 'NONE',  ( 3.491481338843133355E-15, -0.000000000000000000, 1.000000000000000000 ) ) ;
#182 = DIRECTION ( 'NONE',  ( 3.491481338843133355E-15, -0.000000000000000000, 1.000000000000000000 ) ) ;
#183 = ORIENTED_EDGE ( 'NONE', *, *, #112, .T. ) ;
#184 = SECURITY_CLASSIFICATION ( '', '', #67 ) ;
#185 = DIRECTION ( 'NONE',  ( 1.000000000000000000, 0.000000000000000000, -3.448350467743264616E-15 ) ) ;
#186 = EDGE_CURVE ( 'NONE', #21, #21, #8, .T. ) ;
#187 = ORIENTED_EDGE ( 'NONE', *, *, #186, .T. ) ;
#188 = APPROVAL_ROLE ( '' ) ;
#189 = DIRECTION ( 'NONE',  ( 3.491481338843133355E-15, -0.000000000000000000, 1.000000000000000000 ) ) ;
#190 = ORIENTED_EDGE ( 'NONE', *, *, #60, .F. ) ;
#191 = MANIFOLD_SOLID_BREP ( 'Corps-Déplacer/Copier1', #298 ) ;
#192 = PERSON_AND_ORGANIZATION_ROLE ( 'design_supplier' ) ;
#193 = FACE_OUTER_BOUND ( 'NONE', #46, .T. ) ;
#194 = ORIENTED_EDGE ( 'NONE', *, *, #163, .F. ) ;
#195 = CIRCLE ( 'NONE', #26, 1.139074173710928228 ) ;
#196 = PERSON_AND_ORGANIZATION ( #165, #243 ) ;
#197 = EDGE_LOOP ( 'NONE', ( #373 ) ) ;
#198 = PERSON_AND_ORGANIZATION ( #165, #243 ) ;
#199 = EDGE_LOOP ( 'NONE', ( #338 ) ) ;
#200 = CARTESIAN_POINT ( 'NONE',  ( 1.665000000000001368, 0.000000000000000000, 0.3821759259259189245 ) ) ;
#201 = DIRECTION ( 'NONE',  ( 1.000000000000000000, 0.000000000000000000, -3.045848138800909259E-15 ) ) ;
#202 = CARTESIAN_POINT ( 'NONE',  ( 1.105000000000045501, 0.000000000000000000, 13.39999999999999858 ) ) ;
#203 = CARTESIAN_POINT ( 'NONE',  ( 2.000000000000059064, 0.000000000000000000, 16.87183797036163213 ) ) ;
#204 = DIRECTION ( 'NONE',  ( 1.000000000000000000, 0.000000000000000000, -4.167503846190527651E-15 ) ) ;
#205 = VERTEX_POINT ( 'NONE', #140 ) ;
#206 = EDGE_CURVE ( 'NONE', #388, #388, #54, .T. ) ;
#207 = AXIS2_PLACEMENT_3D ( 'NONE', #128, #35, #273 ) ;
#208 = DIRECTION ( 'NONE',  ( 1.000000000000000000, 0.000000000000000000, -4.167503846190527651E-15 ) ) ;
#209 = CC_DESIGN_APPROVAL ( #122, ( #184 ) ) ;
#210 = DIRECTION ( 'NONE',  ( 3.491481338843133355E-15, -0.000000000000000000, 1.000000000000000000 ) ) ;
#211 = CARTESIAN_POINT ( 'NONE',  ( 1.466422162314116009E-13, 0.000000000000000000, 42.00000000000000000 ) ) ;
#212 = DIRECTION ( 'NONE',  ( 1.000000000000000000, 0.000000000000000000, -3.491481338843133750E-15 ) ) ;
#213 = AXIS2_PLACEMENT_3D ( 'NONE', #57, #92, #363 ) ;
#214 = EDGE_CURVE ( 'NONE', #80, #80, #63, .T. ) ;
#215 = DIRECTION ( 'NONE',  ( 1.000000000000000000, 0.000000000000000000, -3.532242371898476155E-15 ) ) ;
#216 = DIRECTION ( 'NONE',  ( 1.000000000000000000, 0.000000000000000000, -3.534559229436846527E-15 ) ) ;
#217 = EDGE_LOOP ( 'NONE', ( #252 ) ) ;
#218 = ADVANCED_FACE ( 'NONE', ( #154, #278 ), #127, .T. ) ;
#219 = CARTESIAN_POINT ( 'NONE',  ( 4.618938854511228370E-15, 0.000000000000000000, 1.322916666666666741 ) ) ;
#220 = CIRCLE ( 'NONE', #158, 1.257647310071761559 ) ;
#221 = ORIENTED_EDGE ( 'NONE', *, *, #293, .T. ) ;
#222 = DIRECTION ( 'NONE',  ( 3.491481338843133355E-15, -0.000000000000000000, 1.000000000000000000 ) ) ;
#223 = CC_DESIGN_DATE_AND_TIME_ASSIGNMENT ( #317, #287, ( #184 ) ) ;
#224 = ORIENTED_EDGE ( 'NONE', *, *, #385, .T. ) ;
#225 = PERSON_AND_ORGANIZATION ( #165, #243 ) ;
#226 = CARTESIAN_POINT ( 'NONE',  ( 2.771363312706746567E-15, 0.000000000000000000, 0.7937500000000028422 ) ) ;
#227 = ORIENTED_EDGE ( 'NONE', *, *, #288, .F. ) ;
#228 = COORDINATED_UNIVERSAL_TIME_OFFSET ( 1, 0, .AHEAD. ) ;
#229 = CARTESIAN_POINT ( 'NONE',  ( 4.678584994049799327E-14, 0.000000000000000000, 13.40000000000000036 ) ) ;
#230 = ORIENTED_EDGE ( 'NONE', *, *, #144, .T. ) ;
#231 = EDGE_CURVE ( 'NONE', #205, #205, #79, .T. ) ;
#232 = CIRCLE ( 'NONE', #274, 1.664999999999999813 ) ;
#233 = PERSON_AND_ORGANIZATION ( #165, #243 ) ;
#234 = CC_DESIGN_PERSON_AND_ORGANIZATION_ASSIGNMENT ( #225, #336, ( #77 ) ) ;
#235 = FACE_OUTER_BOUND ( 'NONE', #199, .T. ) ;
#236 = AXIS2_PLACEMENT_3D ( 'NONE', #296, #327, #145 ) ;
#237 = VERTEX_POINT ( 'NONE', #353 ) ;
#238 = FACE_OUTER_BOUND ( 'NONE', #69, .T. ) ;
#239 = EDGE_CURVE ( 'NONE', #295, #295, #305, .T. ) ;
#240 = CONICAL_SURFACE ( 'NONE', #236, 1.665000000000000036, 1.047197551196599852 ) ;
#241 = AXIS2_PLACEMENT_3D ( 'NONE', #375, #39, #272 ) ;
#242 = FACE_OUTER_BOUND ( 'NONE', #345, .T. ) ;
#243 = ORGANIZATION ( 'UNSPECIFIED', 'UNSPECIFIED', '' ) ;
#244 = DIRECTION ( 'NONE',  ( 0.000000000000000000, 0.000000000000000000, 1.000000000000000000 ) ) ;
#245 = DIRECTION ( 'NONE',  ( 3.491481338843133355E-15, -0.000000000000000000, 1.000000000000000000 ) ) ;
#246 = CARTESIAN_POINT ( 'NONE',  ( 1.466422162314116262E-13, 0.000000000000000000, 42.00000000000000711 ) ) ;
#247 = ADVANCED_FACE ( 'NONE', ( #5, #365 ), #4, .T. ) ;
#248 = PRODUCT_DEFINITION_SHAPE ( 'NONE', 'NONE',  #77 ) ;
#249 = CYLINDRICAL_SURFACE ( 'NONE', #315, 1.999999999999998224 ) ;
#250 = CONICAL_SURFACE ( 'NONE', #74, 1.664999999999999813, 1.047197551196599630 ) ;
#251 = FACE_BOUND ( 'NONE', #275, .T. ) ;
#252 = ORIENTED_EDGE ( 'NONE', *, *, #73, .T. ) ;
#253 = DIRECTION ( 'NONE',  ( 3.491481338843133355E-15, -0.000000000000000000, 1.000000000000000000 ) ) ;
#254 = FACE_OUTER_BOUND ( 'NONE', #316, .T. ) ;
#255 = AXIS2_PLACEMENT_3D ( 'NONE', #65, #98, #276 ) ;
#256 = ORIENTED_EDGE ( 'NONE', *, *, #94, .T. ) ;
#257 = DIRECTION ( 'NONE',  ( 1.000000000000000000, 0.000000000000000000, -3.516331370223258125E-15 ) ) ;
#258 = ORIENTED_EDGE ( 'NONE', *, *, #231, .T. ) ;
#259 = ORIENTED_EDGE ( 'NONE', *, *, #214, .T. ) ;
#260 = DIRECTION ( 'NONE',  ( 3.491481338843133355E-15, -0.000000000000000000, 1.000000000000000000 ) ) ;
#261 = CIRCLE ( 'NONE', #370, 1.599999999999998090 ) ;
#262 = CARTESIAN_POINT ( 'NONE',  ( 0.000000000000000000, 0.000000000000000000, 0.000000000000000000 ) ) ;
#263 = CARTESIAN_POINT ( 'NONE',  ( 1.257647310071763780, 0.000000000000000000, 0.6173611111111056982 ) ) ;
#264 = AXIS2_PLACEMENT_3D ( 'NONE', #335, #181, #1 ) ;
#265 = FACE_OUTER_BOUND ( 'NONE', #129, .T. ) ;
#266 = DIRECTION ( 'NONE',  ( 1.000000000000000000, 0.000000000000000000, -4.336808689942023258E-15 ) ) ;
#267 = VERTEX_POINT ( 'NONE', #45 ) ;
#268 = DIRECTION ( 'NONE',  ( 3.491481338843133355E-15, -0.000000000000000000, 1.000000000000000000 ) ) ;
#269 = APPLICATION_PROTOCOL_DEFINITION ( 'international standard', 'config_control_design', 1994, #358 ) ;
#270 = DIRECTION ( 'NONE',  ( 1.000000000000000000, 0.000000000000000000, -3.469446951953619316E-15 ) ) ;
#271 = DIRECTION ( 'NONE',  ( 3.491481338843133355E-15, -0.000000000000000000, 1.000000000000000000 ) ) ;
#272 = DIRECTION ( 'NONE',  ( 1.000000000000000000, 0.000000000000000000, -3.483772746424893919E-15 ) ) ;
#273 = DIRECTION ( 'NONE',  ( 1.000000000000000000, 0.000000000000000000, -3.469446951953614189E-15 ) ) ;
#274 = AXIS2_PLACEMENT_3D ( 'NONE', #333, #304, #257 ) ;
#275 = EDGE_LOOP ( 'NONE', ( #33 ) ) ;
#276 = DIRECTION ( 'NONE',  ( 1.000000000000000000, 0.000000000000000000, -3.139770997243093597E-15 ) ) ;
#277 = EDGE_LOOP ( 'NONE', ( #224 ) ) ;
#278 = FACE_OUTER_BOUND ( 'NONE', #197, .T. ) ;
#279 = ORIENTED_EDGE ( 'NONE', *, *, #163, .T. ) ;
#280 = FACE_OUTER_BOUND ( 'NONE', #160, .T. ) ;
#281 = AXIS2_PLACEMENT_3D ( 'NONE', #310, #189, #27 ) ;
#282 = ADVANCED_FACE ( 'NONE', ( #251, #280 ), #95, .F. ) ;
#283 = DATE_TIME_ROLE ( 'creation_date' ) ;
#284 = VERTEX_POINT ( 'NONE', #263 ) ;
#285 = EDGE_LOOP ( 'NONE', ( #183 ) ) ;
#286 = APPROVAL_DATE_TIME ( #156, #122 ) ;
#287 = DATE_TIME_ROLE ( 'classification_date' ) ;
#288 = EDGE_CURVE ( 'NONE', #324, #324, #220, .T. ) ;
#289 = FACE_OUTER_BOUND ( 'NONE', #72, .T. ) ;
#290 = DIRECTION ( 'NONE',  ( -1.000000000000000000, 0.000000000000000000, 3.516331370223258125E-15 ) ) ;
#291 = CARTESIAN_POINT ( 'NONE',  ( 1.665000000000003588, 0.000000000000000000, 1.028935185185175571 ) ) ;
#292 = TOROIDAL_SURFACE ( 'NONE', #325, 2.104999999999998206, 1.000000000000000000 ) ;
#293 = EDGE_CURVE ( 'NONE', #159, #159, #386, .T. ) ;
#294 = FACE_OUTER_BOUND ( 'NONE', #366, .T. ) ;
#295 = VERTEX_POINT ( 'NONE', #19 ) ;
#296 = CARTESIAN_POINT ( 'NONE',  ( 1.334360113525461819E-15, 0.000000000000000000, 0.3821759259259246977 ) ) ;
#297 = FACE_OUTER_BOUND ( 'NONE', #62, .T. ) ;
#298 = CLOSED_SHELL ( 'NONE', ( #139, #53, #120, #18, #247, #168, #107, #384, #218, #282, #136, #369, #2, #351, #50, #312 ) ) ;
#299 = AXIS2_PLACEMENT_3D ( 'NONE', #354, #245, #208 ) ;
#300 = CC_DESIGN_APPROVAL ( #322, ( #77 ) ) ;
#301 = DIRECTION ( 'NONE',  ( 1.000000000000000000, 0.000000000000000000, -3.516331370223258125E-15 ) ) ;
#302 = FACE_OUTER_BOUND ( 'NONE', #377, .T. ) ;
#303 = DIRECTION ( 'NONE',  ( 1.000000000000000000, 0.000000000000000000, -3.469446951953617344E-15 ) ) ;
#304 = DIRECTION ( 'NONE',  ( 3.491481338843133355E-15, -0.000000000000000000, 1.000000000000000000 ) ) ;
#305 = CIRCLE ( 'NONE', #20, 1.257647310071761559 ) ;
#306 = LOCAL_TIME ( 8, 25, 33.00000000000000000, #313 ) ;
#307 = ORIENTED_EDGE ( 'NONE', *, *, #144, .F. ) ;
#308 = DIRECTION ( 'NONE',  ( 1.000000000000000000, 0.000000000000000000, -3.483772746424893919E-15 ) ) ;
#309 = ORIENTED_EDGE ( 'NONE', *, *, #214, .F. ) ;
#310 = CARTESIAN_POINT ( 'NONE',  ( 4.926868111478650221E-15, 0.000000000000000000, 1.411111111111112981 ) ) ;
#311 = ORIENTED_EDGE ( 'NONE', *, *, #206, .T. ) ;
#312 = ADVANCED_FACE ( 'NONE', ( #123 ), #157, .F. ) ;
#313 = COORDINATED_UNIVERSAL_TIME_OFFSET ( 1, 0, .AHEAD. ) ;
#314 = DIRECTION ( 'NONE',  ( 1.000000000000000000, 0.000000000000000000, -3.491481338843133355E-15 ) ) ;
#315 = AXIS2_PLACEMENT_3D ( 'NONE', #91, #332, #303 ) ;
#316 = EDGE_LOOP ( 'NONE', ( #368 ) ) ;
#317 = DATE_AND_TIME ( #75, #331 ) ;
#318 = EDGE_LOOP ( 'NONE', ( #6 ) ) ;
#319 = ORIENTED_EDGE ( 'NONE', *, *, #293, .F. ) ;
#320 = CARTESIAN_POINT ( 'NONE',  ( 1.257647310071766222, 0.000000000000000000, 1.322916666666662300 ) ) ;
#321 =( LENGTH_UNIT ( ) NAMED_UNIT ( * ) SI_UNIT ( .MILLI., .METRE. ) );
#322 = APPROVAL ( #119, 'UNSPECIFIED' ) ;
#323 = DIRECTION ( 'NONE',  ( 3.491481338843133355E-15, -0.000000000000000000, 1.000000000000000000 ) ) ;
#324 = VERTEX_POINT ( 'NONE', #320 ) ;
#325 = AXIS2_PLACEMENT_3D ( 'NONE', #229, #85, #47 ) ;
#326 = CC_DESIGN_PERSON_AND_ORGANIZATION_ASSIGNMENT ( #233, #374, ( #184 ) ) ;
#327 = DIRECTION ( 'NONE',  ( -3.491481338843133355E-15, 0.000000000000000000, -1.000000000000000000 ) ) ;
#328 = CARTESIAN_POINT ( 'NONE',  ( 2.000000000000142109, 0.000000000000000000, 41.60000000000000142 ) ) ;
#329 = FACE_OUTER_BOUND ( 'NONE', #131, .T. ) ;
#330 = AXIS2_PLACEMENT_3D ( 'NONE', #371, #222, #308 ) ;
#331 = LOCAL_TIME ( 8, 25, 33.00000000000000000, #228 ) ;
#332 = DIRECTION ( 'NONE',  ( 3.491481338843133355E-15, -0.000000000000000000, 1.000000000000000000 ) ) ;
#333 = CARTESIAN_POINT ( 'NONE',  ( 3.592507997953164736E-15, 0.000000000000000000, 1.028935185185181345 ) ) ;
#334 = EDGE_LOOP ( 'NONE', ( #380 ) ) ;
#335 = CARTESIAN_POINT ( 'NONE',  ( 1.466422162314116009E-13, 0.000000000000000000, 42.00000000000000000 ) ) ;
#336 = PERSON_AND_ORGANIZATION_ROLE ( 'creator' ) ;
#337 = DIRECTION ( 'NONE',  ( 3.491481338843133355E-15, -0.000000000000000000, 1.000000000000000000 ) ) ;
#338 = ORIENTED_EDGE ( 'NONE', *, *, #60, .T. ) ;
#339 = DATE_AND_TIME ( #38, #306 ) ;
#340 = CARTESIAN_POINT ( 'NONE',  ( 1.466422162314116009E-13, 0.000000000000000000, 42.00000000000000000 ) ) ;
#341 = EDGE_LOOP ( 'NONE', ( #153 ) ) ;
#342 = DATE_AND_TIME ( #134, #151 ) ;
#343 = VERTEX_POINT ( 'NONE', #349 ) ;
#344 = AXIS2_PLACEMENT_3D ( 'NONE', #394, #210, #204 ) ;
#345 = EDGE_LOOP ( 'NONE', ( #309 ) ) ;
#346 = APPROVAL_STATUS ( 'not_yet_approved' ) ;
#347 = APPROVAL_ROLE ( '' ) ;
#348 = CONICAL_SURFACE ( 'NONE', #97, 1.104890051348673907, 1.047197551196596077 ) ;
#349 = CARTESIAN_POINT ( 'NONE',  ( 1.104890051348673907, 0.000000000000000000, -3.857702995757326786E-15 ) ) ;
#350 = CARTESIAN_POINT ( 'NONE',  ( 4.768951180661061278E-14, 0.000000000000000000, 13.65881904510251488 ) ) ;
#351 = ADVANCED_FACE ( 'NONE', ( #254, #193 ), #249, .T. ) ;
#352 = FACE_OUTER_BOUND ( 'NONE', #31, .T. ) ;
#353 = CARTESIAN_POINT ( 'NONE',  ( 1.665000000000001146, 0.000000000000000000, 0.3233796296296260198 ) ) ;
#354 = CARTESIAN_POINT ( 'NONE',  ( 1.466422162314116009E-13, 0.000000000000000000, 42.00000000000000000 ) ) ;
#355 = CARTESIAN_POINT ( 'NONE',  ( 3.797794169264786929E-15, 0.000000000000000000, 1.087731481481481133 ) ) ;
#356 = AXIS2_PLACEMENT_3D ( 'NONE', #86, #323, #270 ) ;
#357 = FACE_BOUND ( 'NONE', #341, .T. ) ;
#358 = APPLICATION_CONTEXT ( 'configuration controlled 3d designs of mechanical parts and assemblies' ) ;
#359 = DIRECTION ( 'NONE',  ( 1.000000000000000000, 0.000000000000000000, 0.000000000000000000 ) ) ;
#360 = FACE_OUTER_BOUND ( 'NONE', #126, .T. ) ;
#361 = ADVANCED_BREP_SHAPE_REPRESENTATION ( '966845', ( #191, #178 ), #44 ) ;
#362 = AXIS2_PLACEMENT_3D ( 'NONE', #226, #32, #216 ) ;
#363 = DIRECTION ( 'NONE',  ( -1.000000000000000000, 0.000000000000000000, 3.491481338843133355E-15 ) ) ;
#364 = APPROVAL ( #346, 'UNSPECIFIED' ) ;
#365 = FACE_OUTER_BOUND ( 'NONE', #277, .T. ) ;
#366 = EDGE_LOOP ( 'NONE', ( #230 ) ) ;
#367 = DIRECTION ( 'NONE',  ( -1.000000000000000000, 0.000000000000000000, 3.491481338843133355E-15 ) ) ;
#368 = ORIENTED_EDGE ( 'NONE', *, *, #94, .F. ) ;
#369 = ADVANCED_FACE ( 'NONE', ( #22, #265 ), #292, .F. ) ;
#370 = AXIS2_PLACEMENT_3D ( 'NONE', #246, #89, #266 ) ;
#371 = CARTESIAN_POINT ( 'NONE',  ( 1.129073942213863292E-15, 0.000000000000000000, 0.3233796296296317929 ) ) ;
#372 = CC_DESIGN_SECURITY_CLASSIFICATION ( #184, ( #383 ) ) ;
#373 = ORIENTED_EDGE ( 'NONE', *, *, #288, .T. ) ;
#374 = PERSON_AND_ORGANIZATION_ROLE ( 'classification_officer' ) ;
#375 = CARTESIAN_POINT ( 'NONE',  ( 1.334360113525461819E-15, 0.000000000000000000, 0.3821759259259246977 ) ) ;
#376 = APPLICATION_CONTEXT ( 'configuration controlled 3d designs of mechanical parts and assemblies' ) ;
#377 = EDGE_LOOP ( 'NONE', ( #187 ) ) ;
#378 = PERSON_AND_ORGANIZATION ( #165, #243 ) ;
#379 = APPLICATION_PROTOCOL_DEFINITION ( 'international standard', 'config_control_design', 1994, #376 ) ;
#380 = ORIENTED_EDGE ( 'NONE', *, *, #112, .F. ) ;
#381 = PERSON_AND_ORGANIZATION ( #165, #243 ) ;
#382 = CIRCLE ( 'NONE', #28, 1.257647310071761559 ) ;
#383 = PRODUCT_DEFINITION_FORMATION_WITH_SPECIFIED_SOURCE ( 'ANY', '', #179, .NOT_KNOWN. ) ;
#384 = ADVANCED_FACE ( 'NONE', ( #104, #235 ), #250, .T. ) ;
#385 = EDGE_CURVE ( 'NONE', #284, #284, #382, .T. ) ;
#386 = CIRCLE ( 'NONE', #207, 2.000000000000000000 ) ;
#387 =( NAMED_UNIT ( * ) PLANE_ANGLE_UNIT ( ) SI_UNIT ( $, .RADIAN. ) );
#388 = VERTEX_POINT ( 'NONE', #173 ) ;
#389 = FACE_BOUND ( 'NONE', #150, .T. ) ;
#390 = CC_DESIGN_PERSON_AND_ORGANIZATION_ASSIGNMENT ( #87, #52, ( #179 ) ) ;
#391 = CYLINDRICAL_SURFACE ( 'NONE', #344, 1.664999999999999813 ) ;
#392 = CONICAL_SURFACE ( 'NONE', #362, 1.257647310071761559, 1.047197551196612286 ) ;
#393 = PERSON_AND_ORGANIZATION ( #165, #243 ) ;
#394 = CARTESIAN_POINT ( 'NONE',  ( 1.466422162314116009E-13, 0.000000000000000000, 42.00000000000000000 ) ) ;
#395 = PLANE ( 'NONE',  #84 ) ;
ENDSEC;
END-ISO-10303-21;
