ISO-10303-21;
HEADER;
FILE_DESCRIPTION (( 'STEP AP203' ),
    '1' );
FILE_NAME ('966844.step',
    '2023-09-28T06:25:32',
    ( '' ),
    ( '' ),
    'SwSTEP 2.0',
    'SolidWorks 2022',
    '' );
FILE_SCHEMA (( 'CONFIG_CONTROL_DESIGN' ));
ENDSEC;

DATA;
#1 = AXIS2_PLACEMENT_3D ( 'NONE', #206, #114, #243 ) ;
#2 = APPLICATION_CONTEXT ( 'configuration controlled 3d designs of mechanical parts and assemblies' ) ;
#3 = COORDINATED_UNIVERSAL_TIME_OFFSET ( 1, 0, .AHEAD. ) ;
#4 = DATE_AND_TIME ( #155, #319 ) ;
#5 = CC_DESIGN_PERSON_AND_ORGANIZATION_ASSIGNMENT ( #346, #150, ( #292 ) ) ;
#6 = FACE_BOUND ( 'NONE', #262, .T. ) ;
#7 = SHAPE_DEFINITION_REPRESENTATION ( #270, #82 ) ;
#8 = DIRECTION ( 'NONE',  ( 3.491481338843133355E-15, -0.000000000000000000, 1.000000000000000000 ) ) ;
#9 = FACE_OUTER_BOUND ( 'NONE', #335, .T. ) ;
#10 = DIRECTION ( 'NONE',  ( 1.000000000000000000, 0.000000000000000000, -3.469446951953617344E-15 ) ) ;
#11 = CIRCLE ( 'NONE', #123, 1.294999999999999929 ) ;
#12 = FACE_OUTER_BOUND ( 'NONE', #290, .T. ) ;
#13 = ADVANCED_FACE ( 'NONE', ( #309, #224 ), #185, .T. ) ;
#14 = ADVANCED_FACE ( 'NONE', ( #373, #320 ), #196, .T. ) ;
#15 = FACE_OUTER_BOUND ( 'NONE', #115, .T. ) ;
#16 = CARTESIAN_POINT ( 'NONE',  ( 4.041571497697321767E-15, 0.000000000000000000, 1.157552083333332593 ) ) ;
#17 = EDGE_LOOP ( 'NONE', ( #79 ) ) ;
#18 = CARTESIAN_POINT ( 'NONE',  ( 3.117783726795081063E-15, 0.000000000000000000, 0.8929687500000005329 ) ) ;
#19 = CYLINDRICAL_SURFACE ( 'NONE', #152, 1.999999999999998224 ) ;
#20 = DIRECTION ( 'NONE',  ( 1.000000000000000000, 0.000000000000000000, 0.000000000000000000 ) ) ;
#21 = ORIENTED_EDGE ( 'NONE', *, *, #276, .T. ) ;
#22 = LOCAL_TIME ( 8, 25, 32.00000000000000000, #222 ) ;
#23 = ORIENTED_EDGE ( 'NONE', *, *, #291, .F. ) ;
#24 = CARTESIAN_POINT ( 'NONE',  ( 1.295000000000004148, 0.000000000000000000, 1.223697916666664387 ) ) ;
#25 = AXIS2_PLACEMENT_3D ( 'NONE', #353, #198, #162 ) ;
#26 = CARTESIAN_POINT ( 'NONE',  ( 0.6648763077672570354, 0.000000000000000000, -2.321403221208301430E-15 ) ) ;
#27 = ADVANCED_FACE ( 'NONE', ( #9, #368 ), #347, .T. ) ;
#28 = ADVANCED_FACE ( 'NONE', ( #192, #154 ), #209, .T. ) ;
#29 = AXIS2_PLACEMENT_3D ( 'NONE', #255, #193, #151 ) ;
#30 = PERSON_AND_ORGANIZATION ( #364, #267 ) ;
#31 = DATE_AND_TIME ( #339, #377 ) ;
#32 = CC_DESIGN_APPROVAL ( #63, ( #292 ) ) ;
#33 = DIRECTION ( 'NONE',  ( 3.491481338843133355E-15, -0.000000000000000000, 1.000000000000000000 ) ) ;
#34 = PERSON_AND_ORGANIZATION ( #364, #267 ) ;
#35 = DIRECTION ( 'NONE',  ( 3.491481338843133355E-15, -0.000000000000000000, 1.000000000000000000 ) ) ;
#36 = COORDINATED_UNIVERSAL_TIME_OFFSET ( 1, 0, .AHEAD. ) ;
#37 = APPROVAL_DATE_TIME ( #314, #101 ) ;
#38 = EDGE_CURVE ( 'NONE', #142, #142, #11, .T. ) ;
#39 = CC_DESIGN_APPROVAL ( #101, ( #182 ) ) ;
#40 = CYLINDRICAL_SURFACE ( 'NONE', #61, 1.294999999999999707 ) ;
#41 = CARTESIAN_POINT ( 'NONE',  ( 5.730896634403834062E-14, 0.000000000000000000, 16.41394032569198203 ) ) ;
#42 = AXIS2_PLACEMENT_3D ( 'NONE', #387, #43, #103 ) ;
#43 = DIRECTION ( 'NONE',  ( 3.491481338843133355E-15, -0.000000000000000000, 1.000000000000000000 ) ) ;
#44 = ORIENTED_EDGE ( 'NONE', *, *, #343, .T. ) ;
#45 = AXIS2_PLACEMENT_3D ( 'NONE', #18, #234, #109 ) ;
#46 = DIRECTION ( 'NONE',  ( 1.000000000000000000, 0.000000000000000000, -3.368985972000121996E-15 ) ) ;
#47 = ORIENTED_EDGE ( 'NONE', *, *, #74, .F. ) ;
#48 = DIRECTION ( 'NONE',  ( 1.000000000000000000, 0.000000000000000000, -5.358219230816393596E-15 ) ) ;
#49 = FACE_OUTER_BOUND ( 'NONE', #188, .T. ) ;
#50 = ORIENTED_EDGE ( 'NONE', *, *, #199, .T. ) ;
#51 = DIRECTION ( 'NONE',  ( 1.000000000000000000, 0.000000000000000000, -3.516331370223258519E-15 ) ) ;
#52 = DIRECTION ( 'NONE',  ( 1.000000000000000000, 0.000000000000000000, -3.498562355538588242E-15 ) ) ;
#53 = EDGE_LOOP ( 'NONE', ( #113 ) ) ;
#54 = MANIFOLD_SOLID_BREP ( 'Corps-Déplacer/Copier1', #72 ) ;
#55 = AXIS2_PLACEMENT_3D ( 'NONE', #268, #357, #46 ) ;
#56 = EDGE_LOOP ( 'NONE', ( #204 ) ) ;
#57 = UNCERTAINTY_MEASURE_WITH_UNIT (LENGTH_MEASURE( 1.000000000000000082E-05 ), #273, 'distance_accuracy_value', 'NONE');
#58 = VERTEX_POINT ( 'NONE', #178 ) ;
#59 = ADVANCED_FACE ( 'NONE', ( #6, #124 ), #287, .T. ) ;
#60 = DIRECTION ( 'NONE',  ( -1.000000000000000000, 0.000000000000000000, 3.474470282482504822E-15 ) ) ;
#61 = AXIS2_PLACEMENT_3D ( 'NONE', #328, #205, #48 ) ;
#62 = PERSON_AND_ORGANIZATION_ROLE ( 'creator' ) ;
#63 = APPROVAL ( #156, 'UNSPECIFIED' ) ;
#64 = AXIS2_PLACEMENT_3D ( 'NONE', #261, #149, #174 ) ;
#65 = CARTESIAN_POINT ( 'NONE',  ( 4.272518440422894663E-15, 0.000000000000000000, 1.223697916666668828 ) ) ;
#66 = PERSON_AND_ORGANIZATION_ROLE ( 'design_supplier' ) ;
#67 = ADVANCED_FACE ( 'NONE', ( #236, #334 ), #168, .T. ) ;
#68 = PERSON_AND_ORGANIZATION_ROLE ( 'creator' ) ;
#69 = CIRCLE ( 'NONE', #45, 0.8367282238307311992 ) ;
#70 = CARTESIAN_POINT ( 'NONE',  ( 3.945373912892741323E-14, 0.000000000000000000, 11.30000000000000071 ) ) ;
#71 = EDGE_LOOP ( 'NONE', ( #337 ) ) ;
#72 = CLOSED_SHELL ( 'NONE', ( #177, #28, #67, #395, #167, #14, #345, #13, #313, #274, #27, #230, #332, #331, #59, #219 ) ) ;
#73 = DIRECTION ( 'NONE',  ( -3.491481338843133355E-15, 0.000000000000000000, -1.000000000000000000 ) ) ;
#74 = EDGE_CURVE ( 'NONE', #216, #216, #118, .T. ) ;
#75 = EDGE_LOOP ( 'NONE', ( #376 ) ) ;
#76 = DIRECTION ( 'NONE',  ( 3.491481338843133355E-15, -0.000000000000000000, 1.000000000000000000 ) ) ;
#77 = FACE_OUTER_BOUND ( 'NONE', #132, .T. ) ;
#78 = EDGE_LOOP ( 'NONE', ( #141 ) ) ;
#79 = ORIENTED_EDGE ( 'NONE', *, *, #365, .T. ) ;
#80 = PLANE ( 'NONE',  #201 ) ;
#81 = AXIS2_PLACEMENT_3D ( 'NONE', #257, #171, #107 ) ;
#82 = ADVANCED_BREP_SHAPE_REPRESENTATION ( '966844', ( #54, #386 ), #153 ) ;
#83 = CARTESIAN_POINT ( 'NONE',  ( 0.6990741737109690268, 0.000000000000000000, 11.55881904510251523 ) ) ;
#84 = CIRCLE ( 'NONE', #392, 0.6990741737109287257 ) ;
#85 = LOCAL_TIME ( 8, 25, 32.00000000000000000, #3 ) ;
#86 = CARTESIAN_POINT ( 'NONE',  ( 0.6650000000000055866, 0.000000000000000000, 1.587499999999996358 ) ) ;
#87 = EDGE_CURVE ( 'NONE', #183, #183, #307, .T. ) ;
#88 = VERTEX_POINT ( 'NONE', #180 ) ;
#89 = EDGE_CURVE ( 'NONE', #208, #208, #271, .T. ) ;
#90 = FACE_OUTER_BOUND ( 'NONE', #175, .T. ) ;
#91 = CIRCLE ( 'NONE', #212, 2.000000000000000000 ) ;
#92 = CALENDAR_DATE ( 2023, 28, 9 ) ;
#93 = APPROVAL_PERSON_ORGANIZATION ( #30, #348, #366 ) ;
#94 = COORDINATED_UNIVERSAL_TIME_OFFSET ( 1, 0, .AHEAD. ) ;
#95 = DIRECTION ( 'NONE',  ( 1.000000000000000000, 0.000000000000000000, -3.474470282482504822E-15 ) ) ;
#96 = CIRCLE ( 'NONE', #55, 0.8367282238307311992 ) ;
#97 = PERSON_AND_ORGANIZATION ( #364, #267 ) ;
#98 = AXIS2_PLACEMENT_3D ( 'NONE', #116, #119, #60 ) ;
#99 = CIRCLE ( 'NONE', #181, 0.6650000000000000355 ) ;
#100 = APPROVAL_STATUS ( 'not_yet_approved' ) ;
#101 = APPROVAL ( #277, 'UNSPECIFIED' ) ;
#102 = DIRECTION ( 'NONE',  ( 3.491481338843133355E-15, -0.000000000000000000, 1.000000000000000000 ) ) ;
#103 = DIRECTION ( 'NONE',  ( 1.000000000000000000, 0.000000000000000000, -5.358219230816392807E-15 ) ) ;
#104 = EDGE_LOOP ( 'NONE', ( #352 ) ) ;
#105 = FACE_OUTER_BOUND ( 'NONE', #53, .T. ) ;
#106 = CC_DESIGN_DATE_AND_TIME_ASSIGNMENT ( #31, #342, ( #292 ) ) ;
#107 = DIRECTION ( 'NONE',  ( 1.000000000000000000, 0.000000000000000000, -4.336808689942023258E-15 ) ) ;
#108 = ORIENTED_EDGE ( 'NONE', *, *, #187, .T. ) ;
#109 = DIRECTION ( 'NONE',  ( 1.000000000000000000, 0.000000000000000000, -3.498562355538588242E-15 ) ) ;
#110 = ORIENTED_EDGE ( 'NONE', *, *, #380, .T. ) ;
#111 = FACE_OUTER_BOUND ( 'NONE', #211, .T. ) ;
#112 = CYLINDRICAL_SURFACE ( 'NONE', #289, 0.8367282238307311992 ) ;
#113 = ORIENTED_EDGE ( 'NONE', *, *, #87, .F. ) ;
#114 = DIRECTION ( 'NONE',  ( 3.491481338843133355E-15, -0.000000000000000000, 1.000000000000000000 ) ) ;
#115 = EDGE_LOOP ( 'NONE', ( #169 ) ) ;
#116 = CARTESIAN_POINT ( 'NONE',  ( 1.501155127716147307E-15, 0.000000000000000000, 0.4299479166666661523 ) ) ;
#117 = CIRCLE ( 'NONE', #121, 1.294999999999999707 ) ;
#118 = CIRCLE ( 'NONE', #81, 1.599999999999998090 ) ;
#119 = DIRECTION ( 'NONE',  ( -3.491481338843133355E-15, 0.000000000000000000, -1.000000000000000000 ) ) ;
#120 = AXIS2_PLACEMENT_3D ( 'NONE', #326, #73, #139 ) ;
#121 = AXIS2_PLACEMENT_3D ( 'NONE', #293, #102, #51 ) ;
#122 = APPROVAL_ROLE ( '' ) ;
#123 = AXIS2_PLACEMENT_3D ( 'NONE', #312, #35, #95 ) ;
#124 = FACE_OUTER_BOUND ( 'NONE', #56, .T. ) ;
#125 = CARTESIAN_POINT ( 'NONE',  ( 1.466422162314116009E-13, 0.000000000000000000, 42.00000000000000000 ) ) ;
#126 = DIRECTION ( 'NONE',  ( -1.000000000000000000, 0.000000000000000000, 3.516331370223258519E-15 ) ) ;
#127 = DIRECTION ( 'NONE',  ( 3.491481338843133355E-15, -0.000000000000000000, 1.000000000000000000 ) ) ;
#128 = DIRECTION ( 'NONE',  ( -1.000000000000000000, 0.000000000000000000, 3.491481338843133355E-15 ) ) ;
#129 = CC_DESIGN_DATE_AND_TIME_ASSIGNMENT ( #254, #250, ( #323 ) ) ;
#130 = CONICAL_SURFACE ( 'NONE', #98, 1.294999999999999929, 1.047197551196603182 ) ;
#131 = CARTESIAN_POINT ( 'NONE',  ( 2.424942898618388011E-15, 0.000000000000000000, 0.6945312499999980460 ) ) ;
#132 = EDGE_LOOP ( 'NONE', ( #298 ) ) ;
#133 = DIRECTION ( 'NONE',  ( 1.000000000000000000, 0.000000000000000000, -2.608606730792194432E-15 ) ) ;
#134 = ORIENTED_EDGE ( 'NONE', *, *, #283, .F. ) ;
#135 = PRODUCT ( '966844', '966844', '', ( #190 ) ) ;
#136 = EDGE_CURVE ( 'NONE', #361, #361, #340, .T. ) ;
#137 = CARTESIAN_POINT ( 'NONE',  ( 4.035740099504003905E-14, 0.000000000000000000, 11.55881904510251701 ) ) ;
#138 = ORIENTED_EDGE ( 'NONE', *, *, #291, .T. ) ;
#139 = DIRECTION ( 'NONE',  ( -1.000000000000000000, 0.000000000000000000, 3.491481338843133355E-15 ) ) ;
#140 = CC_DESIGN_PERSON_AND_ORGANIZATION_ASSIGNMENT ( #282, #68, ( #182 ) ) ;
#141 = ORIENTED_EDGE ( 'NONE', *, *, #136, .F. ) ;
#142 = VERTEX_POINT ( 'NONE', #144 ) ;
#143 = EDGE_LOOP ( 'NONE', ( #108 ) ) ;
#144 = CARTESIAN_POINT ( 'NONE',  ( 1.295000000000001483, 0.000000000000000000, 0.4299479166666616559 ) ) ;
#145 = AXIS2_PLACEMENT_3D ( 'NONE', #65, #315, #126 ) ;
#146 = CC_DESIGN_PERSON_AND_ORGANIZATION_ASSIGNMENT ( #306, #252, ( #135 ) ) ;
#147 = CARTESIAN_POINT ( 'NONE',  ( 2.000000000000057288, 0.000000000000000000, 16.41394032569197492 ) ) ;
#148 = VERTEX_POINT ( 'NONE', #86 ) ;
#149 = DIRECTION ( 'NONE',  ( 3.491481338843133355E-15, -0.000000000000000000, 1.000000000000000000 ) ) ;
#150 = PERSON_AND_ORGANIZATION_ROLE ( 'classification_officer' ) ;
#151 = DIRECTION ( 'NONE',  ( 1.000000000000000000, 0.000000000000000000, -3.491481338843132961E-15 ) ) ;
#152 = AXIS2_PLACEMENT_3D ( 'NONE', #239, #266, #10 ) ;
#153 =( GEOMETRIC_REPRESENTATION_CONTEXT ( 3 ) GLOBAL_UNCERTAINTY_ASSIGNED_CONTEXT ( ( #57 ) ) GLOBAL_UNIT_ASSIGNED_CONTEXT ( ( #273, #336, #173 ) ) REPRESENTATION_CONTEXT ( 'NONE', 'WORKASPACE' ) );
#154 = FACE_BOUND ( 'NONE', #207, .T. ) ;
#155 = CALENDAR_DATE ( 2023, 28, 9 ) ;
#156 = APPROVAL_STATUS ( 'not_yet_approved' ) ;
#157 = CC_DESIGN_SECURITY_CLASSIFICATION ( #292, ( #182 ) ) ;
#158 = EDGE_LOOP ( 'NONE', ( #356 ) ) ;
#159 = FACE_OUTER_BOUND ( 'NONE', #75, .T. ) ;
#160 = AXIS2_PLACEMENT_3D ( 'NONE', #131, #240, #52 ) ;
#161 = DIRECTION ( 'NONE',  ( 3.491481338843133355E-15, -0.000000000000000000, 1.000000000000000000 ) ) ;
#162 = DIRECTION ( 'NONE',  ( 1.000000000000000000, 0.000000000000000000, -3.368985972000121996E-15 ) ) ;
#163 = ORIENTED_EDGE ( 'NONE', *, *, #251, .F. ) ;
#164 = AXIS2_PLACEMENT_3D ( 'NONE', #125, #263, #354 ) ;
#165 = PLANE ( 'NONE',  #247 ) ;
#166 = ORIENTED_EDGE ( 'NONE', *, *, #74, .T. ) ;
#167 = ADVANCED_FACE ( 'NONE', ( #77, #384 ), #112, .T. ) ;
#168 = CYLINDRICAL_SURFACE ( 'NONE', #42, 1.294999999999999929 ) ;
#169 = ORIENTED_EDGE ( 'NONE', *, *, #343, .F. ) ;
#170 = CARTESIAN_POINT ( 'NONE',  ( 1.270208184990599260E-15, 0.000000000000000000, 0.3638020833333366344 ) ) ;
#171 = DIRECTION ( 'NONE',  ( 3.491481338843133355E-15, -0.000000000000000000, 1.000000000000000000 ) ) ;
#172 = EDGE_LOOP ( 'NONE', ( #50 ) ) ;
#173 =( NAMED_UNIT ( * ) SI_UNIT ( $, .STERADIAN. ) SOLID_ANGLE_UNIT ( ) );
#174 = DIRECTION ( 'NONE',  ( 1.000000000000000000, 0.000000000000000000, -3.491481338843132961E-15 ) ) ;
#175 = EDGE_LOOP ( 'NONE', ( #200 ) ) ;
#176 = CARTESIAN_POINT ( 'NONE',  ( 0.6650000000000385603, 0.000000000000000000, 11.29999999999999893 ) ) ;
#177 = ADVANCED_FACE ( 'NONE', ( #381 ), #165, .F. ) ;
#178 = CARTESIAN_POINT ( 'NONE',  ( 1.295000000000003926, 0.000000000000000000, 1.157552083333327930 ) ) ;
#179 = APPLICATION_CONTEXT ( 'configuration controlled 3d designs of mechanical parts and assemblies' ) ;
#180 = CARTESIAN_POINT ( 'NONE',  ( 0.8367282238307367503, 0.000000000000000000, 1.587499999999995914 ) ) ;
#181 = AXIS2_PLACEMENT_3D ( 'NONE', #333, #197, #325 ) ;
#182 = PRODUCT_DEFINITION_FORMATION_WITH_SPECIFIED_SOURCE ( 'ANY', '', #135, .NOT_KNOWN. ) ;
#183 = VERTEX_POINT ( 'NONE', #299 ) ;
#184 = DIRECTION ( 'NONE',  ( 1.000000000000000000, 0.000000000000000000, 0.000000000000000000 ) ) ;
#185 = CONICAL_SURFACE ( 'NONE', #145, 1.294999999999999707, 1.047197551196602960 ) ;
#186 = AXIS2_PLACEMENT_3D ( 'NONE', #16, #375, #349 ) ;
#187 = EDGE_CURVE ( 'NONE', #394, #394, #69, .T. ) ;
#188 = EDGE_LOOP ( 'NONE', ( #166 ) ) ;
#189 = APPROVAL_DATE_TIME ( #248, #348 ) ;
#190 = MECHANICAL_CONTEXT ( 'NONE', #2, 'mechanical' ) ;
#191 = ORIENTED_EDGE ( 'NONE', *, *, #365, .F. ) ;
#192 = FACE_OUTER_BOUND ( 'NONE', #330, .T. ) ;
#193 = DIRECTION ( 'NONE',  ( 3.491481338843133355E-15, -0.000000000000000000, 1.000000000000000000 ) ) ;
#194 = FACE_BOUND ( 'NONE', #172, .T. ) ;
#195 = DIRECTION ( 'NONE',  ( 3.491481338843133355E-15, -0.000000000000000000, 1.000000000000000000 ) ) ;
#196 = CONICAL_SURFACE ( 'NONE', #223, 0.8367282238307311992, 1.047197551196602960 ) ;
#197 = DIRECTION ( 'NONE',  ( 3.491481338843133355E-15, -0.000000000000000000, 1.000000000000000000 ) ) ;
#198 = DIRECTION ( 'NONE',  ( 3.491481338843133355E-15, -0.000000000000000000, 1.000000000000000000 ) ) ;
#199 = EDGE_CURVE ( 'NONE', #363, #363, #84, .T. ) ;
#200 = ORIENTED_EDGE ( 'NONE', *, *, #38, .T. ) ;
#201 = AXIS2_PLACEMENT_3D ( 'NONE', #210, #322, #128 ) ;
#202 = DIRECTION ( 'NONE',  ( 1.000000000000000000, 0.000000000000000000, -2.481458393418100174E-15 ) ) ;
#203 = CARTESIAN_POINT ( 'NONE',  ( -2.659474246242202609E-32, 0.000000000000000000, -7.617036976985224248E-18 ) ) ;
#204 = ORIENTED_EDGE ( 'NONE', *, *, #87, .T. ) ;
#205 = DIRECTION ( 'NONE',  ( 3.491481338843133355E-15, -0.000000000000000000, 1.000000000000000000 ) ) ;
#206 = CARTESIAN_POINT ( 'NONE',  ( 3.945373912892741323E-14, 0.000000000000000000, 11.30000000000000071 ) ) ;
#207 = EDGE_LOOP ( 'NONE', ( #138 ) ) ;
#208 = VERTEX_POINT ( 'NONE', #360 ) ;
#209 = CONICAL_SURFACE ( 'NONE', #29, 0.6648763077672570354, 1.047197551196595855 ) ;
#210 = CARTESIAN_POINT ( 'NONE',  ( 5.542726625413474202E-15, 0.8367282238307311992, 1.587499999999999911 ) ) ;
#211 = EDGE_LOOP ( 'NONE', ( #44 ) ) ;
#212 = AXIS2_PLACEMENT_3D ( 'NONE', #41, #161, #260 ) ;
#213 = AXIS2_PLACEMENT_3D ( 'NONE', #70, #195, #133 ) ;
#214 = VERTEX_POINT ( 'NONE', #24 ) ;
#215 = CC_DESIGN_PERSON_AND_ORGANIZATION_ASSIGNMENT ( #34, #62, ( #323 ) ) ;
#216 = VERTEX_POINT ( 'NONE', #245 ) ;
#217 = VERTEX_POINT ( 'NONE', #176 ) ;
#218 = FACE_OUTER_BOUND ( 'NONE', #388, .T. ) ;
#219 = ADVANCED_FACE ( 'NONE', ( #49 ), #264, .F. ) ;
#220 = CARTESIAN_POINT ( 'NONE',  ( 1.295000000000001261, 0.000000000000000000, 0.3638020833333321380 ) ) ;
#221 = DIRECTION ( 'NONE',  ( 0.000000000000000000, 0.000000000000000000, 1.000000000000000000 ) ) ;
#222 = COORDINATED_UNIVERSAL_TIME_OFFSET ( 1, 0, .AHEAD. ) ;
#223 = AXIS2_PLACEMENT_3D ( 'NONE', #318, #8, #284 ) ;
#224 = FACE_OUTER_BOUND ( 'NONE', #350, .T. ) ;
#225 = APPLICATION_PROTOCOL_DEFINITION ( 'international standard', 'config_control_design', 1994, #179 ) ;
#226 = DIRECTION ( 'NONE',  ( -1.000000000000000000, 0.000000000000000000, 3.469446951953619316E-15 ) ) ;
#227 = APPROVAL_ROLE ( '' ) ;
#228 = DIRECTION ( 'NONE',  ( 1.000000000000000000, 0.000000000000000000, 0.000000000000000000 ) ) ;
#229 = AXIS2_PLACEMENT_3D ( 'NONE', #170, #127, #256 ) ;
#230 = ADVANCED_FACE ( 'NONE', ( #159, #286 ), #272, .F. ) ;
#231 = DIRECTION ( 'NONE',  ( 3.491481338843133355E-15, -0.000000000000000000, 1.000000000000000000 ) ) ;
#232 = EDGE_LOOP ( 'NONE', ( #23 ) ) ;
#233 = FACE_OUTER_BOUND ( 'NONE', #358, .T. ) ;
#234 = DIRECTION ( 'NONE',  ( 3.491481338843133355E-15, -0.000000000000000000, 1.000000000000000000 ) ) ;
#235 = EDGE_LOOP ( 'NONE', ( #163 ) ) ;
#236 = FACE_OUTER_BOUND ( 'NONE', #237, .T. ) ;
#237 = EDGE_LOOP ( 'NONE', ( #383 ) ) ;
#238 = CONICAL_SURFACE ( 'NONE', #303, 0.6990741737109287257, 0.2617993877991428575 ) ;
#239 = CARTESIAN_POINT ( 'NONE',  ( 1.466422162314116009E-13, 0.000000000000000000, 42.00000000000000000 ) ) ;
#240 = DIRECTION ( 'NONE',  ( 3.491481338843133355E-15, -0.000000000000000000, 1.000000000000000000 ) ) ;
#241 = EDGE_LOOP ( 'NONE', ( #249 ) ) ;
#242 = DESIGN_CONTEXT ( 'detailed design', #179, 'design' ) ;
#243 = DIRECTION ( 'NONE',  ( 1.000000000000000000, 0.000000000000000000, -3.491481338843133750E-15 ) ) ;
#244 = EDGE_LOOP ( 'NONE', ( #296 ) ) ;
#245 = CARTESIAN_POINT ( 'NONE',  ( 1.600000000000144640, 0.000000000000000000, 42.00000000000000000 ) ) ;
#246 = CARTESIAN_POINT ( 'NONE',  ( 0.8367282238307336417, 0.000000000000000000, 0.6945312499999951594 ) ) ;
#247 = AXIS2_PLACEMENT_3D ( 'NONE', #203, #231, #355 ) ;
#248 = DATE_AND_TIME ( #92, #362 ) ;
#249 = ORIENTED_EDGE ( 'NONE', *, *, #136, .T. ) ;
#250 = DATE_TIME_ROLE ( 'creation_date' ) ;
#251 = EDGE_CURVE ( 'NONE', #88, #88, #96, .T. ) ;
#252 = PERSON_AND_ORGANIZATION_ROLE ( 'design_owner' ) ;
#253 = CARTESIAN_POINT ( 'NONE',  ( 1.452456236958743728E-13, 0.000000000000000000, 41.60000000000000853 ) ) ;
#254 = DATE_AND_TIME ( #308, #85 ) ;
#255 = CARTESIAN_POINT ( 'NONE',  ( 0.000000000000000000, 0.000000000000000000, 0.000000000000000000 ) ) ;
#256 = DIRECTION ( 'NONE',  ( 1.000000000000000000, 0.000000000000000000, -3.474470282482504822E-15 ) ) ;
#257 = CARTESIAN_POINT ( 'NONE',  ( 1.466422162314116262E-13, 0.000000000000000000, 42.00000000000000711 ) ) ;
#258 = DIRECTION ( 'NONE',  ( 3.491481338843133355E-15, -0.000000000000000000, 1.000000000000000000 ) ) ;
#259 = ORIENTED_EDGE ( 'NONE', *, *, #89, .T. ) ;
#260 = DIRECTION ( 'NONE',  ( 1.000000000000000000, 0.000000000000000000, -3.469446951953614189E-15 ) ) ;
#261 = CARTESIAN_POINT ( 'NONE',  ( 0.000000000000000000, 0.000000000000000000, 0.000000000000000000 ) ) ;
#262 = EDGE_LOOP ( 'NONE', ( #47 ) ) ;
#263 = DIRECTION ( 'NONE',  ( 3.491481338843133355E-15, -0.000000000000000000, 1.000000000000000000 ) ) ;
#264 = PLANE ( 'NONE',  #120 ) ;
#265 = EDGE_LOOP ( 'NONE', ( #191 ) ) ;
#266 = DIRECTION ( 'NONE',  ( 3.491481338843133355E-15, -0.000000000000000000, 1.000000000000000000 ) ) ;
#267 = ORGANIZATION ( 'UNSPECIFIED', 'UNSPECIFIED', '' ) ;
#268 = CARTESIAN_POINT ( 'NONE',  ( 5.542726625413469468E-15, 0.000000000000000000, 1.587499999999998579 ) ) ;
#269 = ORIENTED_EDGE ( 'NONE', *, *, #382, .F. ) ;
#270 = PRODUCT_DEFINITION_SHAPE ( 'NONE', 'NONE',  #323 ) ;
#271 = CIRCLE ( 'NONE', #25, 0.8367282238307311992 ) ;
#272 = TOROIDAL_SURFACE ( 'NONE', #1, 1.664999999999998925, 1.000000000000000000 ) ;
#273 =( LENGTH_UNIT ( ) NAMED_UNIT ( * ) SI_UNIT ( .MILLI., .METRE. ) );
#274 = ADVANCED_FACE ( 'NONE', ( #288, #12 ), #80, .F. ) ;
#275 = CC_DESIGN_APPROVAL ( #348, ( #323 ) ) ;
#276 = EDGE_CURVE ( 'NONE', #58, #58, #278, .T. ) ;
#277 = APPROVAL_STATUS ( 'not_yet_approved' ) ;
#278 = CIRCLE ( 'NONE', #186, 1.294999999999999707 ) ;
#279 = PERSON_AND_ORGANIZATION ( #364, #267 ) ;
#280 = APPROVAL_DATE_TIME ( #4, #63 ) ;
#281 = AXIS2_PLACEMENT_3D ( 'NONE', #253, #371, #226 ) ;
#282 = PERSON_AND_ORGANIZATION ( #364, #267 ) ;
#283 = EDGE_CURVE ( 'NONE', #217, #217, #369, .T. ) ;
#284 = DIRECTION ( 'NONE',  ( 1.000000000000000000, 0.000000000000000000, -3.498562355538588242E-15 ) ) ;
#285 = FACE_OUTER_BOUND ( 'NONE', #71, .T. ) ;
#286 = FACE_OUTER_BOUND ( 'NONE', #385, .T. ) ;
#287 = CONICAL_SURFACE ( 'NONE', #281, 1.999999999999997113, 0.7853981633974412846 ) ;
#288 = FACE_BOUND ( 'NONE', #265, .T. ) ;
#289 = AXIS2_PLACEMENT_3D ( 'NONE', #351, #297, #20 ) ;
#290 = EDGE_LOOP ( 'NONE', ( #379 ) ) ;
#291 = EDGE_CURVE ( 'NONE', #301, #301, #327, .T. ) ;
#292 = SECURITY_CLASSIFICATION ( '', '', #372 ) ;
#293 = CARTESIAN_POINT ( 'NONE',  ( 4.272518440422894663E-15, 0.000000000000000000, 1.223697916666668828 ) ) ;
#294 = DIRECTION ( 'NONE',  ( 3.491481338843133355E-15, -0.000000000000000000, 1.000000000000000000 ) ) ;
#295 = CARTESIAN_POINT ( 'NONE',  ( 1.452456236958743728E-13, 0.000000000000000000, 41.60000000000000853 ) ) ;
#296 = ORIENTED_EDGE ( 'NONE', *, *, #276, .F. ) ;
#297 = DIRECTION ( 'NONE',  ( 3.491481338843133355E-15, -0.000000000000000000, 1.000000000000000000 ) ) ;
#298 = ORIENTED_EDGE ( 'NONE', *, *, #187, .F. ) ;
#299 = CARTESIAN_POINT ( 'NONE',  ( 2.000000000000142109, 0.000000000000000000, 41.60000000000000142 ) ) ;
#300 = PRODUCT_RELATED_PRODUCT_CATEGORY ( 'detail', '', ( #135 ) ) ;
#301 = VERTEX_POINT ( 'NONE', #26 ) ;
#302 = AXIS2_PLACEMENT_3D ( 'NONE', #341, #33, #228 ) ;
#303 = AXIS2_PLACEMENT_3D ( 'NONE', #321, #76, #202 ) ;
#304 = VERTEX_POINT ( 'NONE', #147 ) ;
#305 = CARTESIAN_POINT ( 'NONE',  ( 0.8367282238307343079, 0.000000000000000000, 0.8929687499999976463 ) ) ;
#306 = PERSON_AND_ORGANIZATION ( #364, #267 ) ;
#307 = CIRCLE ( 'NONE', #359, 1.999999999999997113 ) ;
#308 = CALENDAR_DATE ( 2023, 28, 9 ) ;
#309 = FACE_BOUND ( 'NONE', #104, .T. ) ;
#310 = APPROVAL_PERSON_ORGANIZATION ( #370, #101, #122 ) ;
#311 = CALENDAR_DATE ( 2023, 28, 9 ) ;
#312 = CARTESIAN_POINT ( 'NONE',  ( 1.501155127716147307E-15, 0.000000000000000000, 0.4299479166666661523 ) ) ;
#313 = ADVANCED_FACE ( 'NONE', ( #393, #218 ), #317, .T. ) ;
#314 = DATE_AND_TIME ( #311, #22 ) ;
#315 = DIRECTION ( 'NONE',  ( -3.491481338843133355E-15, 0.000000000000000000, -1.000000000000000000 ) ) ;
#316 = COORDINATED_UNIVERSAL_TIME_OFFSET ( 1, 0, .AHEAD. ) ;
#317 = CYLINDRICAL_SURFACE ( 'NONE', #164, 0.8367282238307311992 ) ;
#318 = CARTESIAN_POINT ( 'NONE',  ( 3.117783726795081063E-15, 0.000000000000000000, 0.8929687500000005329 ) ) ;
#319 = LOCAL_TIME ( 8, 25, 32.00000000000000000, #316 ) ;
#320 = FACE_BOUND ( 'NONE', #143, .T. ) ;
#321 = CARTESIAN_POINT ( 'NONE',  ( 4.035740099504003905E-14, 0.000000000000000000, 11.55881904510251701 ) ) ;
#322 = DIRECTION ( 'NONE',  ( -3.491481338843133355E-15, 0.000000000000000000, -1.000000000000000000 ) ) ;
#323 = PRODUCT_DEFINITION ( 'UNKNOWN', '', #182, #242 ) ;
#324 = ORIENTED_EDGE ( 'NONE', *, *, #283, .T. ) ;
#325 = DIRECTION ( 'NONE',  ( 1.000000000000000000, 0.000000000000000000, -3.586834254839262463E-15 ) ) ;
#326 = CARTESIAN_POINT ( 'NONE',  ( 1.466422162314116262E-13, 1.599999999999998090, 42.00000000000000711 ) ) ;
#327 = CIRCLE ( 'NONE', #64, 0.6648763077672570354 ) ;
#328 = CARTESIAN_POINT ( 'NONE',  ( 1.466422162314116009E-13, 0.000000000000000000, 42.00000000000000000 ) ) ;
#329 = DIRECTION ( 'NONE',  ( 1.000000000000000000, 0.000000000000000000, -2.481458393418100174E-15 ) ) ;
#330 = EDGE_LOOP ( 'NONE', ( #269 ) ) ;
#331 = ADVANCED_FACE ( 'NONE', ( #105, #111 ), #19, .T. ) ;
#332 = ADVANCED_FACE ( 'NONE', ( #15, #194 ), #238, .T. ) ;
#333 = CARTESIAN_POINT ( 'NONE',  ( 5.542726625413469468E-15, 0.000000000000000000, 1.587499999999998579 ) ) ;
#334 = FACE_OUTER_BOUND ( 'NONE', #158, .T. ) ;
#335 = EDGE_LOOP ( 'NONE', ( #134 ) ) ;
#336 =( NAMED_UNIT ( * ) PLANE_ANGLE_UNIT ( ) SI_UNIT ( $, .RADIAN. ) );
#337 = ORIENTED_EDGE ( 'NONE', *, *, #380, .F. ) ;
#338 = APPROVAL_PERSON_ORGANIZATION ( #279, #63, #227 ) ;
#339 = CALENDAR_DATE ( 2023, 28, 9 ) ;
#340 = CIRCLE ( 'NONE', #160, 0.8367282238307311992 ) ;
#341 = CARTESIAN_POINT ( 'NONE',  ( 1.466422162314116009E-13, 0.000000000000000000, 42.00000000000000000 ) ) ;
#342 = DATE_TIME_ROLE ( 'classification_date' ) ;
#343 = EDGE_CURVE ( 'NONE', #304, #304, #91, .T. ) ;
#344 = CIRCLE ( 'NONE', #229, 1.294999999999999929 ) ;
#345 = ADVANCED_FACE ( 'NONE', ( #285, #233 ), #40, .T. ) ;
#346 = PERSON_AND_ORGANIZATION ( #364, #267 ) ;
#347 = CYLINDRICAL_SURFACE ( 'NONE', #302, 0.6649999999999995914 ) ;
#348 = APPROVAL ( #100, 'UNSPECIFIED' ) ;
#349 = DIRECTION ( 'NONE',  ( 1.000000000000000000, 0.000000000000000000, -3.516331370223258519E-15 ) ) ;
#350 = EDGE_LOOP ( 'NONE', ( #110 ) ) ;
#351 = CARTESIAN_POINT ( 'NONE',  ( 1.466422162314116009E-13, 0.000000000000000000, 42.00000000000000000 ) ) ;
#352 = ORIENTED_EDGE ( 'NONE', *, *, #89, .F. ) ;
#353 = CARTESIAN_POINT ( 'NONE',  ( 5.196306211325134973E-15, 0.000000000000000000, 1.488281250000000888 ) ) ;
#354 = DIRECTION ( 'NONE',  ( 1.000000000000000000, 0.000000000000000000, 0.000000000000000000 ) ) ;
#355 = DIRECTION ( 'NONE',  ( 1.000000000000000000, 0.000000000000000000, -3.491481338843133355E-15 ) ) ;
#356 = ORIENTED_EDGE ( 'NONE', *, *, #382, .T. ) ;
#357 = DIRECTION ( 'NONE',  ( 3.491481338843133355E-15, -0.000000000000000000, 1.000000000000000000 ) ) ;
#358 = EDGE_LOOP ( 'NONE', ( #21 ) ) ;
#359 = AXIS2_PLACEMENT_3D ( 'NONE', #295, #258, #378 ) ;
#360 = CARTESIAN_POINT ( 'NONE',  ( 0.8367282238307364173, 0.000000000000000000, 1.488281249999998002 ) ) ;
#361 = VERTEX_POINT ( 'NONE', #246 ) ;
#362 = LOCAL_TIME ( 8, 25, 32.00000000000000000, #94 ) ;
#363 = VERTEX_POINT ( 'NONE', #83 ) ;
#364 = PERSON ( 'UNSPECIFIED', 'UNSPECIFIED', 'UNSPECIFIED', ('UNSPECIFIED'), ('UNSPECIFIED'), ('UNSPECIFIED') ) ;
#365 = EDGE_CURVE ( 'NONE', #148, #148, #99, .T. ) ;
#366 = APPROVAL_ROLE ( '' ) ;
#367 = CARTESIAN_POINT ( 'NONE',  ( 0.000000000000000000, 0.000000000000000000, 0.000000000000000000 ) ) ;
#368 = FACE_OUTER_BOUND ( 'NONE', #17, .T. ) ;
#369 = CIRCLE ( 'NONE', #213, 0.6649999999999991473 ) ;
#370 = PERSON_AND_ORGANIZATION ( #364, #267 ) ;
#371 = DIRECTION ( 'NONE',  ( -3.491481338843133355E-15, 0.000000000000000000, -1.000000000000000000 ) ) ;
#372 = SECURITY_CLASSIFICATION_LEVEL ( 'unclassified' ) ;
#373 = FACE_OUTER_BOUND ( 'NONE', #244, .T. ) ;
#374 = FACE_BOUND ( 'NONE', #78, .T. ) ;
#375 = DIRECTION ( 'NONE',  ( 3.491481338843133355E-15, -0.000000000000000000, 1.000000000000000000 ) ) ;
#376 = ORIENTED_EDGE ( 'NONE', *, *, #199, .F. ) ;
#377 = LOCAL_TIME ( 8, 25, 32.00000000000000000, #36 ) ;
#378 = DIRECTION ( 'NONE',  ( 1.000000000000000000, 0.000000000000000000, -3.469446951953619316E-15 ) ) ;
#379 = ORIENTED_EDGE ( 'NONE', *, *, #251, .T. ) ;
#380 = EDGE_CURVE ( 'NONE', #214, #214, #117, .T. ) ;
#381 = FACE_OUTER_BOUND ( 'NONE', #232, .T. ) ;
#382 = EDGE_CURVE ( 'NONE', #391, #391, #344, .T. ) ;
#383 = ORIENTED_EDGE ( 'NONE', *, *, #38, .F. ) ;
#384 = FACE_OUTER_BOUND ( 'NONE', #241, .T. ) ;
#385 = EDGE_LOOP ( 'NONE', ( #324 ) ) ;
#386 = AXIS2_PLACEMENT_3D ( 'NONE', #367, #221, #184 ) ;
#387 = CARTESIAN_POINT ( 'NONE',  ( 1.466422162314116009E-13, 0.000000000000000000, 42.00000000000000000 ) ) ;
#388 = EDGE_LOOP ( 'NONE', ( #259 ) ) ;
#389 = APPLICATION_PROTOCOL_DEFINITION ( 'international standard', 'config_control_design', 1994, #2 ) ;
#390 = CC_DESIGN_PERSON_AND_ORGANIZATION_ASSIGNMENT ( #97, #66, ( #182 ) ) ;
#391 = VERTEX_POINT ( 'NONE', #220 ) ;
#392 = AXIS2_PLACEMENT_3D ( 'NONE', #137, #294, #329 ) ;
#393 = FACE_OUTER_BOUND ( 'NONE', #235, .T. ) ;
#394 = VERTEX_POINT ( 'NONE', #305 ) ;
#395 = ADVANCED_FACE ( 'NONE', ( #374, #90 ), #130, .T. ) ;
ENDSEC;
END-ISO-10303-21;
