ISO-10303-21;
HEADER;
FILE_DESCRIPTION (( 'STEP AP203' ),
    '1' );
FILE_NAME ('966799.step',
    '2021-11-29T14:49:37',
    ( '' ),
    ( '' ),
    'SwSTEP 2.0',
    'SolidWorks 2019',
    '' );
FILE_SCHEMA (( 'CONFIG_CONTROL_DESIGN' ));
ENDSEC;

DATA;
#1 = FACE_OUTER_BOUND ( 'NONE', #27, .T. ) ;
#2 = DIRECTION ( 'NONE',  ( -3.609990523687419558E-31, -1.000000000000000000, -1.016121998580605277E-16 ) ) ;
#3 = CIRCLE ( 'NONE', #52, 1.500000000000003331 ) ;
#4 = PLANE ( 'NONE',  #296 ) ;
#5 = CARTESIAN_POINT ( 'NONE',  ( 1.316288464743861212E-13, 1.499999999999998668, 37.69999999999999574 ) ) ;
#6 = ORIENTED_EDGE ( 'NONE', *, *, #206, .T. ) ;
#7 = DIRECTION ( 'NONE',  ( -3.491481338843133355E-15, 1.224646799147352961E-16, -1.000000000000000000 ) ) ;
#8 = APPROVAL_DATE_TIME ( #203, #195 ) ;
#9 = CARTESIAN_POINT ( 'NONE',  ( 8.728703347107833388E-16, 0.5334999999999993081, 0.2500000000000000000 ) ) ;
#10 = AXIS2_PLACEMENT_3D ( 'NONE', #274, #174, #84 ) ;
#11 = CARTESIAN_POINT ( 'NONE',  ( 0.0000000000000000000, 0.0000000000000000000, 0.0000000000000000000 ) ) ;
#12 = EDGE_LOOP ( 'NONE', ( #291 ) ) ;
#13 = DIRECTION ( 'NONE',  ( 3.491481338843133355E-15, -1.224646799147352961E-16, 1.000000000000000000 ) ) ;
#14 = PRODUCT_DEFINITION_FORMATION_WITH_SPECIFIED_SOURCE ( 'ANY', '', #141, .NOT_KNOWN. ) ;
#15 = PERSON_AND_ORGANIZATION ( #56, #104 ) ;
#16 = DIRECTION ( 'NONE',  ( 0.0000000000000000000, 0.0000000000000000000, 1.000000000000000000 ) ) ;
#17 = CYLINDRICAL_SURFACE ( 'NONE', #42, 1.500000000000000444 ) ;
#18 = APPLICATION_CONTEXT ( 'configuration controlled 3d designs of mechanical parts and assemblies' ) ;
#19 = DATE_TIME_ROLE ( 'creation_date' ) ;
#20 = CC_DESIGN_APPROVAL ( #23, ( #299 ) ) ;
#21 = DIRECTION ( 'NONE',  ( -3.491481338843133355E-15, 1.224646799147352961E-16, -1.000000000000000000 ) ) ;
#22 = TOROIDAL_SURFACE ( 'NONE', #147, 2.465000000000000746, 2.000000000000000444 ) ;
#23 = APPROVAL ( #53, 'UNSPECIFIED' ) ;
#24 = PLANE ( 'NONE',  #125 ) ;
#25 = APPROVAL_ROLE ( '' ) ;
#26 = LOCAL_TIME ( 15, 49, 37.00000000000000000, #301 ) ;
#27 = EDGE_LOOP ( 'NONE', ( #187 ) ) ;
#28 = DIRECTION ( 'NONE',  ( 4.275831445896957731E-31, 1.000000000000000000, 1.224646799147352961E-16 ) ) ;
#29 = FACE_OUTER_BOUND ( 'NONE', #71, .T. ) ;
#30 = EDGE_LOOP ( 'NONE', ( #163 ) ) ;
#31 = LOCAL_TIME ( 15, 49, 37.00000000000000000, #157 ) ;
#32 = DIRECTION ( 'NONE',  ( -3.491481338843133355E-15, 1.224646799147352961E-16, -1.000000000000000000 ) ) ;
#33 = CARTESIAN_POINT ( 'NONE',  ( 1.787165517468568613E-14, 0.4649999999999989697, 5.118645480318470220 ) ) ;
#34 = ORIENTED_EDGE ( 'NONE', *, *, #88, .F. ) ;
#35 = FACE_OUTER_BOUND ( 'NONE', #99, .T. ) ;
#36 = VERTEX_POINT ( 'NONE', #131 ) ;
#37 = ADVANCED_FACE ( 'NONE', ( #288, #49 ), #17, .T. ) ;
#38 = VERTEX_POINT ( 'NONE', #204 ) ;
#39 = ADVANCED_FACE ( 'NONE', ( #95, #260 ), #75, .T. ) ;
#40 = DATE_AND_TIME ( #190, #227 ) ;
#41 = ORIENTED_EDGE ( 'NONE', *, *, #233, .F. ) ;
#42 = AXIS2_PLACEMENT_3D ( 'NONE', #194, #279, #78 ) ;
#43 = ORIENTED_EDGE ( 'NONE', *, *, #168, .T. ) ;
#44 = CARTESIAN_POINT ( 'NONE',  ( 3.961887347097082447E-14, -1.389643016053601920E-15, 11.34729635533384595 ) ) ;
#45 = EDGE_LOOP ( 'NONE', ( #294 ) ) ;
#46 = PERSON_AND_ORGANIZATION_ROLE ( 'creator' ) ;
#47 = FACE_OUTER_BOUND ( 'NONE', #198, .T. ) ;
#48 = APPROVAL_DATE_TIME ( #100, #23 ) ;
#49 = FACE_OUTER_BOUND ( 'NONE', #177, .T. ) ;
#50 = ADVANCED_FACE ( 'NONE', ( #117, #276 ), #297, .T. ) ;
#51 = AXIS2_PLACEMENT_3D ( 'NONE', #11, #16, #112 ) ;
#52 = AXIS2_PLACEMENT_3D ( 'NONE', #228, #130, #106 ) ;
#53 = APPROVAL_STATUS ( 'not_yet_approved' ) ;
#54 = CONICAL_SURFACE ( 'NONE', #82, 0.5334999999999993081, 0.5235987755982923764 ) ;
#55 = DIRECTION ( 'NONE',  ( -3.491481338843133355E-15, 1.224646799147352961E-16, -1.000000000000000000 ) ) ;
#56 = PERSON ( 'UNSPECIFIED', 'UNSPECIFIED', 'UNSPECIFIED', ('UNSPECIFIED'), ('UNSPECIFIED'), ('UNSPECIFIED') ) ;
#57 = ADVANCED_FACE ( 'NONE', ( #126, #1 ), #54, .T. ) ;
#58 = CARTESIAN_POINT ( 'NONE',  ( 3.840629472727446691E-14, -1.301042606982605321E-15, 11.00000000000000000 ) ) ;
#59 = DIRECTION ( 'NONE',  ( 3.491481338843133355E-15, -1.224646799147352961E-16, 1.000000000000000000 ) ) ;
#60 = DIRECTION ( 'NONE',  ( -4.275831445896957731E-31, -1.000000000000000000, -1.224646799147352961E-16 ) ) ;
#61 = CARTESIAN_POINT ( 'NONE',  ( 1.745740669421566678E-14, 0.5334999999999993081, 5.000000000000000000 ) ) ;
#62 = ADVANCED_FACE ( 'NONE', ( #251 ), #24, .T. ) ;
#63 = CIRCLE ( 'NONE', #268, 0.5334999999999993081 ) ;
#64 = CARTESIAN_POINT ( 'NONE',  ( 3.840629472727446691E-14, 0.4649999999999988587, 11.00000000000000000 ) ) ;
#65 = EDGE_LOOP ( 'NONE', ( #234 ) ) ;
#66 = PERSON_AND_ORGANIZATION_ROLE ( 'design_supplier' ) ;
#67 = PERSON_AND_ORGANIZATION_ROLE ( 'design_owner' ) ;
#68 = ADVANCED_FACE ( 'NONE', ( #137, #148 ), #273, .T. ) ;
#69 = AXIS2_PLACEMENT_3D ( 'NONE', #118, #222, #97 ) ;
#70 = AXIS2_PLACEMENT_3D ( 'NONE', #232, #218, #189 ) ;
#71 = EDGE_LOOP ( 'NONE', ( #43 ) ) ;
#72 = DIRECTION ( 'NONE',  ( -3.491481338843133355E-15, 1.224646799147352961E-16, -1.000000000000000000 ) ) ;
#73 = CARTESIAN_POINT ( 'NONE',  ( 1.745740669421566678E-14, -6.123233995736765296E-16, 5.000000000000000000 ) ) ;
#74 = DATE_AND_TIME ( #94, #26 ) ;
#75 = CONICAL_SURFACE ( 'NONE', #90, 0.4649999999999995803, 0.5235987755982929315 ) ;
#76 = ORIENTED_EDGE ( 'NONE', *, *, #88, .T. ) ;
#77 = COORDINATED_UNIVERSAL_TIME_OFFSET ( 1, 0, .AHEAD. ) ;
#78 = DIRECTION ( 'NONE',  ( 4.275831445896957731E-31, 1.000000000000000000, 1.224646799147353207E-16 ) ) ;
#79 = CC_DESIGN_SECURITY_CLASSIFICATION ( #207, ( #14 ) ) ;
#80 = CARTESIAN_POINT ( 'NONE',  ( 1.326762908760390423E-13, -4.653657836759941152E-15, 38.00000000000000000 ) ) ;
#81 = AXIS2_PLACEMENT_3D ( 'NONE', #155, #7, #197 ) ;
#82 = AXIS2_PLACEMENT_3D ( 'NONE', #128, #102, #2 ) ;
#83 = ORIENTED_EDGE ( 'NONE', *, *, #111, .F. ) ;
#84 = DIRECTION ( 'NONE',  ( 4.275831445896957731E-31, 1.000000000000000000, 1.224646799147353207E-16 ) ) ;
#85 = EDGE_CURVE ( 'NONE', #154, #154, #171, .T. ) ;
#86 = PLANE ( 'NONE',  #170 ) ;
#87 = CARTESIAN_POINT ( 'NONE',  ( 1.326762908760390423E-13, 1.199999999999998845, 38.00000000000000000 ) ) ;
#88 = EDGE_CURVE ( 'NONE', #267, #267, #202, .T. ) ;
#89 = CARTESIAN_POINT ( 'NONE',  ( 8.728703347107831416E-16, -3.061616997868381785E-17, 0.2499999999999999445 ) ) ;
#90 = AXIS2_PLACEMENT_3D ( 'NONE', #239, #21, #245 ) ;
#91 = APPROVAL_DATE_TIME ( #250, #191 ) ;
#92 = MECHANICAL_CONTEXT ( 'NONE', #224, 'mechanical' ) ;
#93 = EDGE_CURVE ( 'NONE', #36, #36, #221, .T. ) ;
#94 = CALENDAR_DATE ( 2021, 29, 11 ) ;
#95 = FACE_OUTER_BOUND ( 'NONE', #258, .T. ) ;
#96 = EDGE_LOOP ( 'NONE', ( #138 ) ) ;
#97 = DIRECTION ( 'NONE',  ( 0.0000000000000000000, -1.000000000000000000, 0.0000000000000000000 ) ) ;
#98 = PERSON_AND_ORGANIZATION ( #56, #104 ) ;
#99 = EDGE_LOOP ( 'NONE', ( #83 ) ) ;
#100 = DATE_AND_TIME ( #280, #134 ) ;
#101 = DIRECTION ( 'NONE',  ( -3.491481338843133355E-15, 1.224646799147352961E-16, -1.000000000000000000 ) ) ;
#102 = DIRECTION ( 'NONE',  ( 3.491481338843133355E-15, -1.224646799147352961E-16, 1.000000000000000000 ) ) ;
#103 = DIRECTION ( 'NONE',  ( 0.0000000000000000000, 1.000000000000000000, 0.0000000000000000000 ) ) ;
#104 = ORGANIZATION ( 'UNSPECIFIED', 'UNSPECIFIED', '' ) ;
#105 = EDGE_CURVE ( 'NONE', #38, #38, #116, .T. ) ;
#106 = DIRECTION ( 'NONE',  ( 0.0000000000000000000, 1.000000000000000000, 0.0000000000000000000 ) ) ;
#107 = CARTESIAN_POINT ( 'NONE',  ( -9.463679131915802403E-32, 0.3891624327025950958, -2.710505431213760469E-17 ) ) ;
#108 = DIRECTION ( 'NONE',  ( 3.491481338843133355E-15, -1.224646799147352961E-16, 1.000000000000000000 ) ) ;
#109 = CARTESIAN_POINT ( 'NONE',  ( 1.745740669421566678E-14, 0.5334999999999993081, 5.000000000000000000 ) ) ;
#110 = APPROVAL_STATUS ( 'not_yet_approved' ) ;
#111 = EDGE_CURVE ( 'NONE', #253, #253, #63, .T. ) ;
#112 = DIRECTION ( 'NONE',  ( 1.000000000000000000, 0.0000000000000000000, 0.0000000000000000000 ) ) ;
#113 = EDGE_LOOP ( 'NONE', ( #6 ) ) ;
#114 = PLANE ( 'NONE',  #259 ) ;
#115 = CIRCLE ( 'NONE', #184, 0.4650000000000001910 ) ;
#116 = CIRCLE ( 'NONE', #156, 1.499999999999997558 ) ;
#117 = FACE_OUTER_BOUND ( 'NONE', #256, .T. ) ;
#118 = CARTESIAN_POINT ( 'NONE',  ( 5.951144055233099368E-14, -2.087380344103695792E-15, 17.04475401035638882 ) ) ;
#119 = CC_DESIGN_PERSON_AND_ORGANIZATION_ASSIGNMENT ( #210, #67, ( #141 ) ) ;
#120 = ORIENTED_EDGE ( 'NONE', *, *, #206, .F. ) ;
#121 = PERSON_AND_ORGANIZATION ( #56, #104 ) ;
#122 = EDGE_LOOP ( 'NONE', ( #254 ) ) ;
#123 = ADVANCED_BREP_SHAPE_REPRESENTATION ( '966799', ( #150, #255, #51 ), #209 ) ;
#124 = DIRECTION ( 'NONE',  ( -4.275831445896957731E-31, -1.000000000000000000, -1.224646799147352961E-16 ) ) ;
#125 = AXIS2_PLACEMENT_3D ( 'NONE', #200, #59, #124 ) ;
#126 = FACE_BOUND ( 'NONE', #96, .T. ) ;
#127 = ADVANCED_FACE ( 'NONE', ( #47 ), #114, .F. ) ;
#128 = CARTESIAN_POINT ( 'NONE',  ( 8.728703347107831416E-16, -3.061616997868381785E-17, 0.2499999999999999445 ) ) ;
#129 =( NAMED_UNIT ( * ) PLANE_ANGLE_UNIT ( ) SI_UNIT ( $, .RADIAN. ) );
#130 = DIRECTION ( 'NONE',  ( -3.491481338843133355E-15, 1.224646799147352961E-16, -1.000000000000000000 ) ) ;
#131 = CARTESIAN_POINT ( 'NONE',  ( 3.961887347097082447E-14, 0.4953844939755802645, 11.34729635533384595 ) ) ;
#132 = FACE_OUTER_BOUND ( 'NONE', #238, .T. ) ;
#133 = VERTEX_POINT ( 'NONE', #5 ) ;
#134 = LOCAL_TIME ( 15, 49, 37.00000000000000000, #77 ) ;
#135 = APPLICATION_PROTOCOL_DEFINITION ( 'international standard', 'config_control_design', 1994, #224 ) ;
#136 = PRODUCT_RELATED_PRODUCT_CATEGORY ( 'detail', '', ( #141 ) ) ;
#137 = FACE_OUTER_BOUND ( 'NONE', #205, .T. ) ;
#138 = ORIENTED_EDGE ( 'NONE', *, *, #261, .F. ) ;
#139 = AXIS2_PLACEMENT_3D ( 'NONE', #73, #160, #257 ) ;
#140 = APPLICATION_PROTOCOL_DEFINITION ( 'international standard', 'config_control_design', 1994, #18 ) ;
#141 = PRODUCT ( '966799', '966799', '', ( #92 ) ) ;
#142 = DIRECTION ( 'NONE',  ( 0.0000000000000000000, 1.000000000000000000, 0.0000000000000000000 ) ) ;
#143 = ORIENTED_EDGE ( 'NONE', *, *, #85, .T. ) ;
#144 = DIRECTION ( 'NONE',  ( 0.0000000000000000000, 1.000000000000000000, 0.0000000000000000000 ) ) ;
#145 = CARTESIAN_POINT ( 'NONE',  ( 1.745740669421566678E-14, 4.000609220250494823E-33, 5.000000000000000000 ) ) ;
#146 = SECURITY_CLASSIFICATION_LEVEL ( 'unclassified' ) ;
#147 = AXIS2_PLACEMENT_3D ( 'NONE', #58, #32, #303 ) ;
#148 = FACE_BOUND ( 'NONE', #113, .T. ) ;
#149 = COORDINATED_UNIVERSAL_TIME_OFFSET ( 1, 0, .AHEAD. ) ;
#150 = MANIFOLD_SOLID_BREP ( 'Corps-Déplacer/Copier1[1]', #243 ) ;
#151 = ADVANCED_FACE ( 'NONE', ( #188, #235 ), #263, .T. ) ;
#152 = APPROVAL_PERSON_ORGANIZATION ( #237, #195, #271 ) ;
#153 =( LENGTH_UNIT ( ) NAMED_UNIT ( * ) SI_UNIT ( .MILLI., .METRE. ) );
#154 = VERTEX_POINT ( 'NONE', #33 ) ;
#155 = CARTESIAN_POINT ( 'NONE',  ( -2.610360880503094864E-31, 9.155913455309482844E-33, -7.476370706790062962E-17 ) ) ;
#156 = AXIS2_PLACEMENT_3D ( 'NONE', #215, #165, #142 ) ;
#157 = COORDINATED_UNIVERSAL_TIME_OFFSET ( 1, 0, .AHEAD. ) ;
#158 = CIRCLE ( 'NONE', #242, 1.200000000000003286 ) ;
#159 = CLOSED_SHELL ( 'NONE', ( #252, #57, #219, #62 ) ) ;
#160 = DIRECTION ( 'NONE',  ( -3.491481338843133355E-15, 1.224646799147352961E-16, -1.000000000000000000 ) ) ;
#161 = CC_DESIGN_PERSON_AND_ORGANIZATION_ASSIGNMENT ( #162, #66, ( #14 ) ) ;
#162 = PERSON_AND_ORGANIZATION ( #56, #104 ) ;
#163 = ORIENTED_EDGE ( 'NONE', *, *, #261, .T. ) ;
#164 = APPROVAL_PERSON_ORGANIZATION ( #121, #23, #173 ) ;
#165 = DIRECTION ( 'NONE',  ( -3.491481338843133355E-15, 1.224646799147352961E-16, -1.000000000000000000 ) ) ;
#166 = CALENDAR_DATE ( 2021, 29, 11 ) ;
#167 = DIRECTION ( 'NONE',  ( -3.491481338843133355E-15, 1.224646799147352961E-16, -1.000000000000000000 ) ) ;
#168 = EDGE_CURVE ( 'NONE', #229, #229, #285, .T. ) ;
#169 = DIRECTION ( 'NONE',  ( 3.609990523687419558E-31, 1.000000000000000000, 1.016121998580605277E-16 ) ) ;
#170 = AXIS2_PLACEMENT_3D ( 'NONE', #178, #108, #60 ) ;
#171 = CIRCLE ( 'NONE', #70, 0.4649999999999995803 ) ;
#172 = EDGE_LOOP ( 'NONE', ( #241 ) ) ;
#173 = APPROVAL_ROLE ( '' ) ;
#174 = DIRECTION ( 'NONE',  ( -3.491481338843133355E-15, 1.224646799147352961E-16, -1.000000000000000000 ) ) ;
#175 = CARTESIAN_POINT ( 'NONE',  ( 3.840629472727446691E-14, -1.347111479062088207E-15, 11.00000000000000000 ) ) ;
#176 = FACE_OUTER_BOUND ( 'NONE', #30, .T. ) ;
#177 = EDGE_LOOP ( 'NONE', ( #211 ) ) ;
#178 = CARTESIAN_POINT ( 'NONE',  ( -1.305180440251547432E-31, 4.577956727654741422E-33, -3.738185353395031481E-17 ) ) ;
#179 = DIRECTION ( 'NONE',  ( 0.0000000000000000000, 1.000000000000000000, 0.0000000000000000000 ) ) ;
#180 = VERTEX_POINT ( 'NONE', #107 ) ;
#181 = ORIENTED_EDGE ( 'NONE', *, *, #85, .F. ) ;
#182 = COORDINATED_UNIVERSAL_TIME_OFFSET ( 1, 0, .AHEAD. ) ;
#183 = ORIENTED_EDGE ( 'NONE', *, *, #105, .F. ) ;
#184 = AXIS2_PLACEMENT_3D ( 'NONE', #175, #264, #179 ) ;
#185 = DIRECTION ( 'NONE',  ( 0.0000000000000000000, 1.000000000000000000, 0.0000000000000000000 ) ) ;
#186 = PRODUCT_DEFINITION_SHAPE ( 'NONE', 'NONE',  #299 ) ;
#187 = ORIENTED_EDGE ( 'NONE', *, *, #111, .T. ) ;
#188 = FACE_BOUND ( 'NONE', #172, .T. ) ;
#189 = DIRECTION ( 'NONE',  ( 0.0000000000000000000, 1.000000000000000000, 0.0000000000000000000 ) ) ;
#190 = CALENDAR_DATE ( 2021, 29, 11 ) ;
#191 = APPROVAL ( #275, 'UNSPECIFIED' ) ;
#192 = PERSON_AND_ORGANIZATION ( #56, #104 ) ;
#193 = CARTESIAN_POINT ( 'NONE',  ( 1.745740669421566678E-14, -6.123233995736765296E-16, 5.000000000000000000 ) ) ;
#194 = CARTESIAN_POINT ( 'NONE',  ( 0.0000000000000000000, 0.0000000000000000000, 0.0000000000000000000 ) ) ;
#195 = APPROVAL ( #110, 'UNSPECIFIED' ) ;
#196 = EDGE_LOOP ( 'NONE', ( #300 ) ) ;
#197 = DIRECTION ( 'NONE',  ( 4.275831445896957731E-31, 1.000000000000000000, 1.224646799147352714E-16 ) ) ;
#198 = EDGE_LOOP ( 'NONE', ( #76 ) ) ;
#199 = CYLINDRICAL_SURFACE ( 'NONE', #248, 0.5334999999999996412 ) ;
#200 = CARTESIAN_POINT ( 'NONE',  ( 1.745740669421566678E-14, 4.000609220250494823E-33, 5.000000000000000000 ) ) ;
#201 = DIRECTION ( 'NONE',  ( -3.491481338843133355E-15, 1.224646799147352961E-16, -1.000000000000000000 ) ) ;
#202 = CIRCLE ( 'NONE', #139, 0.5334999999999999742 ) ;
#203 = DATE_AND_TIME ( #249, #31 ) ;
#204 = CARTESIAN_POINT ( 'NONE',  ( 5.951144055233099368E-14, 1.499999999999995559, 17.04475401035638882 ) ) ;
#205 = EDGE_LOOP ( 'NONE', ( #41 ) ) ;
#206 = EDGE_CURVE ( 'NONE', #289, #289, #158, .T. ) ;
#207 = SECURITY_CLASSIFICATION ( '', '', #146 ) ;
#208 = SHAPE_DEFINITION_REPRESENTATION ( #186, #123 ) ;
#209 =( GEOMETRIC_REPRESENTATION_CONTEXT ( 3 ) GLOBAL_UNCERTAINTY_ASSIGNED_CONTEXT ( ( #212 ) ) GLOBAL_UNIT_ASSIGNED_CONTEXT ( ( #153, #129, #266 ) ) REPRESENTATION_CONTEXT ( 'NONE', 'WORKASPACE' ) );
#210 = PERSON_AND_ORGANIZATION ( #56, #104 ) ;
#211 = ORIENTED_EDGE ( 'NONE', *, *, #233, .T. ) ;
#212 = UNCERTAINTY_MEASURE_WITH_UNIT (LENGTH_MEASURE( 1.000000000000000082E-05 ), #153, 'distance_accuracy_value', 'NONE');
#213 = PERSON_AND_ORGANIZATION ( #56, #104 ) ;
#214 = CC_DESIGN_APPROVAL ( #195, ( #207 ) ) ;
#215 = CARTESIAN_POINT ( 'NONE',  ( 5.951144055233099368E-14, -2.087380344103695792E-15, 17.04475401035638882 ) ) ;
#216 = CIRCLE ( 'NONE', #81, 0.3891624327025950958 ) ;
#217 = AXIS2_PLACEMENT_3D ( 'NONE', #44, #72, #144 ) ;
#218 = DIRECTION ( 'NONE',  ( -3.491481338843133355E-15, 1.224646799147352961E-16, -1.000000000000000000 ) ) ;
#219 = ADVANCED_FACE ( 'NONE', ( #35, #29 ), #199, .T. ) ;
#220 = PERSON_AND_ORGANIZATION_ROLE ( 'creator' ) ;
#221 = CIRCLE ( 'NONE', #217, 0.4953844939755816523 ) ;
#222 = DIRECTION ( 'NONE',  ( 3.491481338843133355E-15, -1.224646799147352961E-16, 1.000000000000000000 ) ) ;
#223 = CC_DESIGN_DATE_AND_TIME_ASSIGNMENT ( #74, #19, ( #299 ) ) ;
#224 = APPLICATION_CONTEXT ( 'configuration controlled 3d designs of mechanical parts and assemblies' ) ;
#225 = FACE_OUTER_BOUND ( 'NONE', #196, .T. ) ;
#226 = ADVANCED_FACE ( 'NONE', ( #286, #225 ), #22, .F. ) ;
#227 = LOCAL_TIME ( 15, 49, 37.00000000000000000, #182 ) ;
#228 = CARTESIAN_POINT ( 'NONE',  ( 1.316288464743861212E-13, -4.616918432785520292E-15, 37.69999999999999574 ) ) ;
#229 = VERTEX_POINT ( 'NONE', #109 ) ;
#230 = CARTESIAN_POINT ( 'NONE',  ( 1.326762908760390423E-13, 8.998558695971099120E-33, 38.00000000000000000 ) ) ;
#231 = DESIGN_CONTEXT ( 'detailed design', #18, 'design' ) ;
#232 = CARTESIAN_POINT ( 'NONE',  ( 1.787165517468568613E-14, -6.268532803442080381E-16, 5.118645480318470220 ) ) ;
#233 = EDGE_CURVE ( 'NONE', #133, #133, #3, .T. ) ;
#234 = ORIENTED_EDGE ( 'NONE', *, *, #168, .F. ) ;
#235 = FACE_OUTER_BOUND ( 'NONE', #12, .T. ) ;
#236 = DIRECTION ( 'NONE',  ( -4.275831445896957731E-31, -1.000000000000000000, -1.224646799147352961E-16 ) ) ;
#237 = PERSON_AND_ORGANIZATION ( #56, #104 ) ;
#238 = EDGE_LOOP ( 'NONE', ( #120 ) ) ;
#239 = CARTESIAN_POINT ( 'NONE',  ( 1.787165517468568613E-14, -6.268532803442080381E-16, 5.118645480318470220 ) ) ;
#240 = CC_DESIGN_DATE_AND_TIME_ASSIGNMENT ( #40, #293, ( #207 ) ) ;
#241 = ORIENTED_EDGE ( 'NONE', *, *, #93, .F. ) ;
#242 = AXIS2_PLACEMENT_3D ( 'NONE', #80, #167, #103 ) ;
#243 = CLOSED_SHELL ( 'NONE', ( #127, #39, #50, #226, #151, #37, #68, #247 ) ) ;
#244 = CARTESIAN_POINT ( 'NONE',  ( 1.326762908760390423E-13, -4.653657836759941152E-15, 38.00000000000000000 ) ) ;
#245 = DIRECTION ( 'NONE',  ( 0.0000000000000000000, 1.000000000000000000, 0.0000000000000000000 ) ) ;
#246 = CC_DESIGN_APPROVAL ( #191, ( #14 ) ) ;
#247 = ADVANCED_FACE ( 'NONE', ( #132 ), #4, .F. ) ;
#248 = AXIS2_PLACEMENT_3D ( 'NONE', #283, #201, #28 ) ;
#249 = CALENDAR_DATE ( 2021, 29, 11 ) ;
#250 = DATE_AND_TIME ( #166, #272 ) ;
#251 = FACE_OUTER_BOUND ( 'NONE', #65, .T. ) ;
#252 = ADVANCED_FACE ( 'NONE', ( #176 ), #86, .F. ) ;
#253 = VERTEX_POINT ( 'NONE', #9 ) ;
#254 = ORIENTED_EDGE ( 'NONE', *, *, #290, .T. ) ;
#255 = MANIFOLD_SOLID_BREP ( 'Corps-Déplacer/Copier1[2]', #159 ) ;
#256 = EDGE_LOOP ( 'NONE', ( #181 ) ) ;
#257 = DIRECTION ( 'NONE',  ( 0.0000000000000000000, 1.000000000000000000, 0.0000000000000000000 ) ) ;
#258 = EDGE_LOOP ( 'NONE', ( #34 ) ) ;
#259 = AXIS2_PLACEMENT_3D ( 'NONE', #145, #13, #236 ) ;
#260 = FACE_BOUND ( 'NONE', #277, .T. ) ;
#261 = EDGE_CURVE ( 'NONE', #180, #180, #216, .T. ) ;
#262 = DIRECTION ( 'NONE',  ( 0.0000000000000000000, 1.000000000000000000, 0.0000000000000000000 ) ) ;
#263 = CONICAL_SURFACE ( 'NONE', #69, 1.499999999999997558, 0.1745329251994261477 ) ;
#264 = DIRECTION ( 'NONE',  ( -3.491481338843133355E-15, 1.224646799147352961E-16, -1.000000000000000000 ) ) ;
#265 = CC_DESIGN_PERSON_AND_ORGANIZATION_ASSIGNMENT ( #192, #220, ( #299 ) ) ;
#266 =( NAMED_UNIT ( * ) SI_UNIT ( $, .STERADIAN. ) SOLID_ANGLE_UNIT ( ) );
#267 = VERTEX_POINT ( 'NONE', #61 ) ;
#268 = AXIS2_PLACEMENT_3D ( 'NONE', #89, #295, #169 ) ;
#269 = AXIS2_PLACEMENT_3D ( 'NONE', #193, #278, #262 ) ;
#270 = VERTEX_POINT ( 'NONE', #64 ) ;
#271 = APPROVAL_ROLE ( '' ) ;
#272 = LOCAL_TIME ( 15, 49, 37.00000000000000000, #149 ) ;
#273 = CONICAL_SURFACE ( 'NONE', #302, 1.200000000000003286, 0.7853981633974453924 ) ;
#274 = CARTESIAN_POINT ( 'NONE',  ( 0.0000000000000000000, 0.0000000000000000000, 0.0000000000000000000 ) ) ;
#275 = APPROVAL_STATUS ( 'not_yet_approved' ) ;
#276 = FACE_OUTER_BOUND ( 'NONE', #122, .T. ) ;
#277 = EDGE_LOOP ( 'NONE', ( #143 ) ) ;
#278 = DIRECTION ( 'NONE',  ( -3.491481338843133355E-15, 1.224646799147352961E-16, -1.000000000000000000 ) ) ;
#279 = DIRECTION ( 'NONE',  ( -3.491481338843133355E-15, 1.224646799147352961E-16, -1.000000000000000000 ) ) ;
#280 = CALENDAR_DATE ( 2021, 29, 11 ) ;
#281 = EDGE_LOOP ( 'NONE', ( #183 ) ) ;
#282 = CC_DESIGN_PERSON_AND_ORGANIZATION_ASSIGNMENT ( #15, #298, ( #207 ) ) ;
#283 = CARTESIAN_POINT ( 'NONE',  ( 0.0000000000000000000, 0.0000000000000000000, 0.0000000000000000000 ) ) ;
#284 = CC_DESIGN_PERSON_AND_ORGANIZATION_ASSIGNMENT ( #213, #46, ( #14 ) ) ;
#285 = CIRCLE ( 'NONE', #269, 0.5334999999999999742 ) ;
#286 = FACE_OUTER_BOUND ( 'NONE', #45, .T. ) ;
#287 = DIRECTION ( 'NONE',  ( 4.275831445896957731E-31, 1.000000000000000000, 1.224646799147352961E-16 ) ) ;
#288 = FACE_OUTER_BOUND ( 'NONE', #281, .T. ) ;
#289 = VERTEX_POINT ( 'NONE', #87 ) ;
#290 = EDGE_CURVE ( 'NONE', #270, #270, #115, .T. ) ;
#291 = ORIENTED_EDGE ( 'NONE', *, *, #105, .T. ) ;
#292 = APPROVAL_PERSON_ORGANIZATION ( #98, #191, #25 ) ;
#293 = DATE_TIME_ROLE ( 'classification_date' ) ;
#294 = ORIENTED_EDGE ( 'NONE', *, *, #290, .F. ) ;
#295 = DIRECTION ( 'NONE',  ( -3.491481338843133355E-15, 1.224646799147352961E-16, -1.000000000000000000 ) ) ;
#296 = AXIS2_PLACEMENT_3D ( 'NONE', #230, #101, #287 ) ;
#297 = CYLINDRICAL_SURFACE ( 'NONE', #10, 0.4649999999999999134 ) ;
#298 = PERSON_AND_ORGANIZATION_ROLE ( 'classification_officer' ) ;
#299 = PRODUCT_DEFINITION ( 'UNKNOWN', '', #14, #231 ) ;
#300 = ORIENTED_EDGE ( 'NONE', *, *, #93, .T. ) ;
#301 = COORDINATED_UNIVERSAL_TIME_OFFSET ( 1, 0, .AHEAD. ) ;
#302 = AXIS2_PLACEMENT_3D ( 'NONE', #244, #55, #185 ) ;
#303 = DIRECTION ( 'NONE',  ( 4.275831445896957731E-31, 1.000000000000000000, 1.224646799147352961E-16 ) ) ;
ENDSEC;
END-ISO-10303-21;
