ISO-10303-21;
HEADER;
FILE_DESCRIPTION (( 'STEP AP203' ),
    '1' );
FILE_NAME ('966756.step',
    '2021-10-13T11:36:34',
    ( '' ),
    ( '' ),
    'SwSTEP 2.0',
    'SolidWorks 2019',
    '' );
FILE_SCHEMA (( 'CONFIG_CONTROL_DESIGN' ));
ENDSEC;

DATA;
#1 = EDGE_LOOP ( 'NONE', ( #73 ) ) ;
#2 = CIRCLE ( 'NONE', #182, 3.999999999999998224 ) ;
#3 = CIRCLE ( 'NONE', #22, 3.350000000000005418 ) ;
#4 = CARTESIAN_POINT ( 'NONE',  ( 4.257164190796672967E-15, -1.493212190969728824E-16, 1.219300284791795752 ) ) ;
#5 = FACE_OUTER_BOUND ( 'NONE', #155, .T. ) ;
#6 = CARTESIAN_POINT ( 'NONE',  ( 8.379555213223520053E-14, -3.350000000000015632, 24.00000000000000000 ) ) ;
#7 = PERSON_AND_ORGANIZATION ( #97, #241 ) ;
#8 = ADVANCED_FACE ( 'NONE', ( #233 ), #206, .F. ) ;
#9 = CARTESIAN_POINT ( 'NONE',  ( 2.758270257686075477E-13, -9.674709713264090904E-15, 79.00000000000000000 ) ) ;
#10 = AXIS2_PLACEMENT_3D ( 'NONE', #251, #204, #24 ) ;
#11 = VERTEX_POINT ( 'NONE', #76 ) ;
#12 = DIRECTION ( 'NONE',  ( -3.491481338843133355E-15, 4.327174794786742882E-16, -1.000000000000000000 ) ) ;
#13 = CARTESIAN_POINT ( 'NONE',  ( 8.379555213223520053E-14, 2.999519565323707552E-32, 24.00000000000000000 ) ) ;
#14 = PLANE ( 'NONE',  #262 ) ;
#15 = ADVANCED_FACE ( 'NONE', ( #5 ), #252, .F. ) ;
#16 = APPROVAL_DATE_TIME ( #123, #239 ) ;
#17 = APPROVAL_PERSON_ORGANIZATION ( #7, #261, #173 ) ;
#18 = APPROVAL_DATE_TIME ( #144, #217 ) ;
#19 = MANIFOLD_SOLID_BREP ( 'Corps-Déplacer/Copier1[1]', #132 ) ;
#20 = ORIENTED_EDGE ( 'NONE', *, *, #210, .F. ) ;
#21 = PERSON_AND_ORGANIZATION_ROLE ( 'creator' ) ;
#22 = AXIS2_PLACEMENT_3D ( 'NONE', #55, #70, #255 ) ;
#23 = EDGE_LOOP ( 'NONE', ( #181 ) ) ;
#24 = DIRECTION ( 'NONE',  ( -4.275831445896958607E-31, -1.000000000000000000, -1.224646799147353207E-16 ) ) ;
#25 = PRODUCT_RELATED_PRODUCT_CATEGORY ( 'detail', '', ( #147 ) ) ;
#26 = FACE_OUTER_BOUND ( 'NONE', #33, .T. ) ;
#27 = APPLICATION_PROTOCOL_DEFINITION ( 'international standard', 'config_control_design', 1994, #263 ) ;
#28 = AXIS2_PLACEMENT_3D ( 'NONE', #208, #153, #31 ) ;
#29 = PRODUCT_DEFINITION_FORMATION_WITH_SPECIFIED_SOURCE ( 'ANY', '', #147, .NOT_KNOWN. ) ;
#30 = DIRECTION ( 'NONE',  ( 4.275831445896958607E-31, 1.000000000000000000, 1.224646799147353207E-16 ) ) ;
#31 = DIRECTION ( 'NONE',  ( 0.0000000000000000000, 1.000000000000000000, 0.0000000000000000000 ) ) ;
#32 = CARTESIAN_POINT ( 'NONE',  ( 4.257164190796671389E-15, -3.350000000000005418, 1.219300284791795308 ) ) ;
#33 = EDGE_LOOP ( 'NONE', ( #185 ) ) ;
#34 = CARTESIAN_POINT ( 'NONE',  ( 0.0000000000000000000, 0.0000000000000000000, 0.0000000000000000000 ) ) ;
#35 = CIRCLE ( 'NONE', #28, 3.483974596215572817 ) ;
#36 = DIRECTION ( 'NONE',  ( 0.0000000000000000000, -1.000000000000000000, 0.0000000000000000000 ) ) ;
#37 = VERTEX_POINT ( 'NONE', #137 ) ;
#38 = PERSON_AND_ORGANIZATION ( #97, #241 ) ;
#39 = APPROVAL_STATUS ( 'not_yet_approved' ) ;
#40 = ADVANCED_FACE ( 'NONE', ( #170, #254 ), #51, .T. ) ;
#41 = PERSON_AND_ORGANIZATION_ROLE ( 'design_supplier' ) ;
#42 = DATE_AND_TIME ( #65, #183 ) ;
#43 = APPLICATION_CONTEXT ( 'configuration controlled 3d designs of mechanical parts and assemblies' ) ;
#44 = ORIENTED_EDGE ( 'NONE', *, *, #259, .T. ) ;
#45 = CC_DESIGN_APPROVAL ( #261, ( #46 ) ) ;
#46 = PRODUCT_DEFINITION ( 'UNKNOWN', '', #29, #223 ) ;
#47 = DIRECTION ( 'NONE',  ( 0.0000000000000000000, 1.000000000000000000, 0.0000000000000000000 ) ) ;
#48 =( LENGTH_UNIT ( ) NAMED_UNIT ( * ) SI_UNIT ( .MILLI., .METRE. ) );
#49 = DIRECTION ( 'NONE',  ( 0.0000000000000000000, 1.000000000000000000, 0.0000000000000000000 ) ) ;
#50 = TOROIDAL_SURFACE ( 'NONE', #165, 4.350000000000011191, 1.000000000000000000 ) ;
#51 = CONICAL_SURFACE ( 'NONE', #124, 4.500000000000012434, 0.5235987755983007030 ) ;
#52 = FACE_OUTER_BOUND ( 'NONE', #228, .T. ) ;
#53 = CARTESIAN_POINT ( 'NONE',  ( 2.730338406975330410E-13, -9.576737969332300892E-15, 78.19999999999998863 ) ) ;
#54 = DIRECTION ( 'NONE',  ( 3.491481338843133355E-15, -4.327174794786742882E-16, 1.000000000000000000 ) ) ;
#55 = CARTESIAN_POINT ( 'NONE',  ( 8.379555213223520053E-14, -1.038521950748818292E-14, 24.00000000000000000 ) ) ;
#56 = AXIS2_PLACEMENT_3D ( 'NONE', #248, #133, #36 ) ;
#57 = CC_DESIGN_PERSON_AND_ORGANIZATION_ASSIGNMENT ( #190, #161, ( #147 ) ) ;
#58 = CC_DESIGN_APPROVAL ( #239, ( #82 ) ) ;
#59 = UNCERTAINTY_MEASURE_WITH_UNIT (LENGTH_MEASURE( 1.000000000000000082E-05 ), #48, 'distance_accuracy_value', 'NONE');
#60 = COORDINATED_UNIVERSAL_TIME_OFFSET ( 1, 0, .AHEAD. ) ;
#61 = APPROVAL_DATE_TIME ( #42, #261 ) ;
#62 = EDGE_LOOP ( 'NONE', ( #244 ) ) ;
#63 = LOCAL_TIME ( 13, 36, 34.00000000000000000, #225 ) ;
#64 = ORIENTED_EDGE ( 'NONE', *, *, #135, .F. ) ;
#65 = CALENDAR_DATE ( 2021, 13, 10 ) ;
#66 = CIRCLE ( 'NONE', #214, 3.350000000000005418 ) ;
#67 = CC_DESIGN_DATE_AND_TIME_ASSIGNMENT ( #143, #120, ( #82 ) ) ;
#68 = ORIENTED_EDGE ( 'NONE', *, *, #151, .F. ) ;
#69 = DIRECTION ( 'NONE',  ( -3.491481338843133355E-15, 1.224646799147353207E-16, -1.000000000000000000 ) ) ;
#70 = DIRECTION ( 'NONE',  ( -3.491481338843133355E-15, 1.224646799147353207E-16, -1.000000000000000000 ) ) ;
#71 = ADVANCED_BREP_SHAPE_REPRESENTATION ( '966756', ( #19, #109, #198 ), #145 ) ;
#72 = CC_DESIGN_PERSON_AND_ORGANIZATION_ASSIGNMENT ( #38, #257, ( #29 ) ) ;
#73 = ORIENTED_EDGE ( 'NONE', *, *, #259, .F. ) ;
#74 = FACE_OUTER_BOUND ( 'NONE', #1, .T. ) ;
#75 = FACE_OUTER_BOUND ( 'NONE', #249, .T. ) ;
#76 = CARTESIAN_POINT ( 'NONE',  ( 8.379555213223520053E-14, -3.350000000000015632, 24.00000000000000000 ) ) ;
#77 = FACE_OUTER_BOUND ( 'NONE', #246, .T. ) ;
#78 = APPLICATION_PROTOCOL_DEFINITION ( 'international standard', 'config_control_design', 1994, #43 ) ;
#79 = VERTEX_POINT ( 'NONE', #188 ) ;
#80 = CC_DESIGN_PERSON_AND_ORGANIZATION_ASSIGNMENT ( #218, #41, ( #29 ) ) ;
#81 = DATE_TIME_ROLE ( 'creation_date' ) ;
#82 = SECURITY_CLASSIFICATION ( '', '', #236 ) ;
#83 = COORDINATED_UNIVERSAL_TIME_OFFSET ( 1, 0, .AHEAD. ) ;
#84 = AXIS2_PLACEMENT_3D ( 'NONE', #134, #69, #47 ) ;
#85 = LOCAL_TIME ( 13, 36, 34.00000000000000000, #221 ) ;
#86 = ORIENTED_EDGE ( 'NONE', *, *, #92, .F. ) ;
#87 = ORIENTED_EDGE ( 'NONE', *, *, #195, .F. ) ;
#88 = ADVANCED_FACE ( 'NONE', ( #52, #191 ), #247, .T. ) ;
#89 = EDGE_LOOP ( 'NONE', ( #86 ) ) ;
#90 = DIRECTION ( 'NONE',  ( -3.491481338843133355E-15, 1.224646799147353207E-16, -1.000000000000000000 ) ) ;
#91 = DIRECTION ( 'NONE',  ( -4.275831445896958607E-31, -1.000000000000000000, -1.224646799147353207E-16 ) ) ;
#92 = EDGE_CURVE ( 'NONE', #117, #117, #35, .T. ) ;
#93 = DIRECTION ( 'NONE',  ( -3.491481338843133355E-15, 1.224646799147353207E-16, -1.000000000000000000 ) ) ;
#94 = APPROVAL_STATUS ( 'not_yet_approved' ) ;
#95 = DIRECTION ( 'NONE',  ( 0.0000000000000000000, 1.000000000000000000, 0.0000000000000000000 ) ) ;
#96 = CIRCLE ( 'NONE', #219, 4.000000000000001776 ) ;
#97 = PERSON ( 'UNSPECIFIED', 'UNSPECIFIED', 'UNSPECIFIED', ('UNSPECIFIED'), ('UNSPECIFIED'), ('UNSPECIFIED') ) ;
#98 = DIRECTION ( 'NONE',  ( 0.0000000000000000000, 0.0000000000000000000, 1.000000000000000000 ) ) ;
#99 = DIRECTION ( 'NONE',  ( 1.510825004591027855E-30, 1.000000000000000000, 4.327174794786743375E-16 ) ) ;
#100 = VERTEX_POINT ( 'NONE', #111 ) ;
#101 = VERTEX_POINT ( 'NONE', #6 ) ;
#102 = CALENDAR_DATE ( 2021, 13, 10 ) ;
#103 = SHAPE_DEFINITION_REPRESENTATION ( #106, #71 ) ;
#104 = APPROVAL_ROLE ( '' ) ;
#105 = AXIS2_PLACEMENT_3D ( 'NONE', #250, #131, #30 ) ;
#106 = PRODUCT_DEFINITION_SHAPE ( 'NONE', 'NONE',  #46 ) ;
#107 = CALENDAR_DATE ( 2021, 13, 10 ) ;
#108 = EDGE_LOOP ( 'NONE', ( #242 ) ) ;
#109 = MANIFOLD_SOLID_BREP ( 'Corps-Déplacer/Copier1[2]', #164 ) ;
#110 = CARTESIAN_POINT ( 'NONE',  ( 0.0000000000000000000, 0.0000000000000000000, 0.0000000000000000000 ) ) ;
#111 = CARTESIAN_POINT ( 'NONE',  ( 1.235767301229585099E-13, -4.000000000000014211, 35.39378221735087493 ) ) ;
#112 = DIRECTION ( 'NONE',  ( -3.491481338843133355E-15, 1.224646799147353207E-16, -1.000000000000000000 ) ) ;
#113 = CC_DESIGN_DATE_AND_TIME_ASSIGNMENT ( #178, #81, ( #46 ) ) ;
#114 = CARTESIAN_POINT ( 'NONE',  ( 1.266004416592360395E-13, -1.569025256019930338E-14, 36.25980762113533018 ) ) ;
#115 = CARTESIAN_POINT ( 'NONE',  ( 1.187103655206665341E-13, -1.474514954580286030E-14, 34.00000000000000000 ) ) ;
#116 = CIRCLE ( 'NONE', #180, 3.350000000000010303 ) ;
#117 = VERTEX_POINT ( 'NONE', #256 ) ;
#118 = FACE_OUTER_BOUND ( 'NONE', #126, .T. ) ;
#119 = FACE_OUTER_BOUND ( 'NONE', #108, .T. ) ;
#120 = DATE_TIME_ROLE ( 'classification_date' ) ;
#121 = PERSON_AND_ORGANIZATION ( #97, #241 ) ;
#122 = CIRCLE ( 'NONE', #56, 3.350000000000005418 ) ;
#123 = DATE_AND_TIME ( #197, #85 ) ;
#124 = AXIS2_PLACEMENT_3D ( 'NONE', #114, #129, #229 ) ;
#125 = APPROVAL_STATUS ( 'not_yet_approved' ) ;
#126 = EDGE_LOOP ( 'NONE', ( #148 ) ) ;
#127 = CC_DESIGN_SECURITY_CLASSIFICATION ( #82, ( #29 ) ) ;
#128 = EDGE_LOOP ( 'NONE', ( #245 ) ) ;
#129 = DIRECTION ( 'NONE',  ( 3.491481338843133355E-15, -4.327174794786742882E-16, 1.000000000000000000 ) ) ;
#130 = DIRECTION ( 'NONE',  ( -3.491481338843133355E-15, 4.327174794786742882E-16, -1.000000000000000000 ) ) ;
#131 = DIRECTION ( 'NONE',  ( -3.491481338843133355E-15, 1.224646799147353207E-16, -1.000000000000000000 ) ) ;
#132 = CLOSED_SHELL ( 'NONE', ( #253, #88, #15, #227, #40, #184, #8 ) ) ;
#133 = DIRECTION ( 'NONE',  ( -3.491481338843133355E-15, 1.224646799147353207E-16, -1.000000000000000000 ) ) ;
#134 = CARTESIAN_POINT ( 'NONE',  ( 2.758270257686075477E-13, -9.674709713264090904E-15, 79.00000000000000000 ) ) ;
#135 = EDGE_CURVE ( 'NONE', #37, #37, #167, .T. ) ;
#136 = CARTESIAN_POINT ( 'NONE',  ( 1.187103655206665341E-13, -1.471239430227492580E-14, 34.00000000000000000 ) ) ;
#137 = CARTESIAN_POINT ( 'NONE',  ( 2.758270257686075477E-13, 3.199999999999992184, 79.00000000000000000 ) ) ;
#138 = PERSON_AND_ORGANIZATION_ROLE ( 'classification_officer' ) ;
#139 = DIRECTION ( 'NONE',  ( 0.0000000000000000000, -1.000000000000000000, 0.0000000000000000000 ) ) ;
#140 = FACE_OUTER_BOUND ( 'NONE', #23, .T. ) ;
#141 = CALENDAR_DATE ( 2021, 13, 10 ) ;
#142 = ADVANCED_FACE ( 'NONE', ( #174, #75 ), #203, .T. ) ;
#143 = DATE_AND_TIME ( #102, #258 ) ;
#144 = DATE_AND_TIME ( #141, #231 ) ;
#145 =( GEOMETRIC_REPRESENTATION_CONTEXT ( 3 ) GLOBAL_UNCERTAINTY_ASSIGNED_CONTEXT ( ( #59 ) ) GLOBAL_UNIT_ASSIGNED_CONTEXT ( ( #48, #171, #177 ) ) REPRESENTATION_CONTEXT ( 'NONE', 'WORKASPACE' ) );
#146 = ADVANCED_FACE ( 'NONE', ( #192 ), #149, .T. ) ;
#147 = PRODUCT ( '966756', '966756', '', ( #159 ) ) ;
#148 = ORIENTED_EDGE ( 'NONE', *, *, #162, .T. ) ;
#149 = CONICAL_SURFACE ( 'NONE', #205, 3.999999999999992450, 1.221730476396026610 ) ;
#150 = EDGE_LOOP ( 'NONE', ( #166 ) ) ;
#151 = EDGE_CURVE ( 'NONE', #79, #79, #96, .T. ) ;
#152 = CARTESIAN_POINT ( 'NONE',  ( 2.758270257686075477E-13, 2.399615652258959309E-32, 79.00000000000000000 ) ) ;
#153 = DIRECTION ( 'NONE',  ( -3.491481338843133355E-15, 4.327174794786742882E-16, -1.000000000000000000 ) ) ;
#154 = DIRECTION ( 'NONE',  ( -3.491481338843133355E-15, 4.327174794786742882E-16, -1.000000000000000000 ) ) ;
#155 = EDGE_LOOP ( 'NONE', ( #64 ) ) ;
#156 = APPROVAL_PERSON_ORGANIZATION ( #216, #217, #212 ) ;
#157 = CARTESIAN_POINT ( 'NONE',  ( 0.0000000000000000000, 0.0000000000000000000, 0.0000000000000000000 ) ) ;
#158 = CARTESIAN_POINT ( 'NONE',  ( 5.083181123339292873E-15, -1.782939929516087970E-16, 1.455880937064825575 ) ) ;
#159 = MECHANICAL_CONTEXT ( 'NONE', #43, 'mechanical' ) ;
#160 = DIRECTION ( 'NONE',  ( -4.599235688088913806E-31, -1.000000000000000000, -1.294569758191644937E-16 ) ) ;
#161 = PERSON_AND_ORGANIZATION_ROLE ( 'design_owner' ) ;
#162 = EDGE_CURVE ( 'NONE', #179, #179, #116, .T. ) ;
#163 = EDGE_LOOP ( 'NONE', ( #20 ) ) ;
#164 = CLOSED_SHELL ( 'NONE', ( #146, #142, #260 ) ) ;
#165 = AXIS2_PLACEMENT_3D ( 'NONE', #115, #12, #99 ) ;
#166 = ORIENTED_EDGE ( 'NONE', *, *, #135, .T. ) ;
#167 = CIRCLE ( 'NONE', #175, 3.200000000000001954 ) ;
#168 = APPROVAL_PERSON_ORGANIZATION ( #196, #239, #104 ) ;
#169 = DIRECTION ( 'NONE',  ( -3.491481338843133355E-15, 1.224646799147353207E-16, -1.000000000000000000 ) ) ;
#170 = FACE_BOUND ( 'NONE', #89, .T. ) ;
#171 =( NAMED_UNIT ( * ) PLANE_ANGLE_UNIT ( ) SI_UNIT ( $, .RADIAN. ) );
#172 = DIRECTION ( 'NONE',  ( 0.0000000000000000000, 1.000000000000000000, 0.0000000000000000000 ) ) ;
#173 = APPROVAL_ROLE ( '' ) ;
#174 = FACE_OUTER_BOUND ( 'NONE', #189, .T. ) ;
#175 = AXIS2_PLACEMENT_3D ( 'NONE', #9, #93, #95 ) ;
#176 = DIRECTION ( 'NONE',  ( -3.851859888774479151E-31, -1.000000000000000000, -1.084202172485506529E-16 ) ) ;
#177 =( NAMED_UNIT ( * ) SI_UNIT ( $, .STERADIAN. ) SOLID_ANGLE_UNIT ( ) );
#178 = DATE_AND_TIME ( #107, #63 ) ;
#179 = VERTEX_POINT ( 'NONE', #193 ) ;
#180 = AXIS2_PLACEMENT_3D ( 'NONE', #136, #130, #49 ) ;
#181 = ORIENTED_EDGE ( 'NONE', *, *, #151, .T. ) ;
#182 = AXIS2_PLACEMENT_3D ( 'NONE', #194, #54, #139 ) ;
#183 = LOCAL_TIME ( 13, 36, 34.00000000000000000, #243 ) ;
#184 = ADVANCED_FACE ( 'NONE', ( #26, #77 ), #50, .F. ) ;
#185 = ORIENTED_EDGE ( 'NONE', *, *, #162, .F. ) ;
#186 = DIRECTION ( 'NONE',  ( -3.491481338843133355E-15, 4.327174794786742882E-16, -1.000000000000000000 ) ) ;
#187 = DIRECTION ( 'NONE',  ( 1.510825004591027679E-30, 1.000000000000000000, 4.327174794786742882E-16 ) ) ;
#188 = CARTESIAN_POINT ( 'NONE',  ( 2.730338406975330410E-13, 3.999999999999992450, 78.19999999999998863 ) ) ;
#189 = EDGE_LOOP ( 'NONE', ( #44 ) ) ;
#190 = PERSON_AND_ORGANIZATION ( #97, #241 ) ;
#191 = FACE_BOUND ( 'NONE', #150, .T. ) ;
#192 = FACE_OUTER_BOUND ( 'NONE', #62, .T. ) ;
#193 = CARTESIAN_POINT ( 'NONE',  ( 1.187103655206665341E-13, 3.349999999999995648, 34.00000000000000000 ) ) ;
#194 = CARTESIAN_POINT ( 'NONE',  ( 1.235767301229585099E-13, -1.531550823030918987E-14, 35.39378221735087493 ) ) ;
#195 = EDGE_CURVE ( 'NONE', #207, #207, #66, .T. ) ;
#196 = PERSON_AND_ORGANIZATION ( #97, #241 ) ;
#197 = CALENDAR_DATE ( 2021, 13, 10 ) ;
#198 = AXIS2_PLACEMENT_3D ( 'NONE', #157, #98, #209 ) ;
#199 = ORIENTED_EDGE ( 'NONE', *, *, #92, .T. ) ;
#200 = PERSON_AND_ORGANIZATION ( #97, #241 ) ;
#201 = AXIS2_PLACEMENT_3D ( 'NONE', #152, #90, #230 ) ;
#202 = EDGE_CURVE ( 'NONE', #11, #11, #122, .T. ) ;
#203 = CYLINDRICAL_SURFACE ( 'NONE', #240, 3.350000000000005418 ) ;
#204 = DIRECTION ( 'NONE',  ( 3.491481338843133355E-15, -1.224646799147353207E-16, 1.000000000000000000 ) ) ;
#205 = AXIS2_PLACEMENT_3D ( 'NONE', #158, #234, #176 ) ;
#206 = PLANE ( 'NONE',  #10 ) ;
#207 = VERTEX_POINT ( 'NONE', #32 ) ;
#208 = CARTESIAN_POINT ( 'NONE',  ( 1.204561061900881197E-13, -1.492875304201426452E-14, 34.50000000000000000 ) ) ;
#209 = DIRECTION ( 'NONE',  ( 1.000000000000000000, 0.0000000000000000000, 0.0000000000000000000 ) ) ;
#210 = EDGE_CURVE ( 'NONE', #100, #100, #2, .T. ) ;
#211 = CYLINDRICAL_SURFACE ( 'NONE', #224, 3.350000000000005418 ) ;
#212 = APPROVAL_ROLE ( '' ) ;
#213 = FACE_OUTER_BOUND ( 'NONE', #237, .T. ) ;
#214 = AXIS2_PLACEMENT_3D ( 'NONE', #4, #169, #160 ) ;
#215 = DIRECTION ( 'NONE',  ( 3.491481338843133355E-15, -1.224646799147353207E-16, 1.000000000000000000 ) ) ;
#216 = PERSON_AND_ORGANIZATION ( #97, #241 ) ;
#217 = APPROVAL ( #125, 'UNSPECIFIED' ) ;
#218 = PERSON_AND_ORGANIZATION ( #97, #241 ) ;
#219 = AXIS2_PLACEMENT_3D ( 'NONE', #53, #112, #172 ) ;
#220 = CC_DESIGN_APPROVAL ( #217, ( #29 ) ) ;
#221 = COORDINATED_UNIVERSAL_TIME_OFFSET ( 1, 0, .AHEAD. ) ;
#222 = CC_DESIGN_PERSON_AND_ORGANIZATION_ASSIGNMENT ( #200, #21, ( #46 ) ) ;
#223 = DESIGN_CONTEXT ( 'detailed design', #263, 'design' ) ;
#224 = AXIS2_PLACEMENT_3D ( 'NONE', #34, #154, #238 ) ;
#225 = COORDINATED_UNIVERSAL_TIME_OFFSET ( 1, 0, .AHEAD. ) ;
#226 = ORIENTED_EDGE ( 'NONE', *, *, #202, .F. ) ;
#227 = ADVANCED_FACE ( 'NONE', ( #118, #213 ), #211, .T. ) ;
#228 = EDGE_LOOP ( 'NONE', ( #68 ) ) ;
#229 = DIRECTION ( 'NONE',  ( 0.0000000000000000000, -1.000000000000000000, 0.0000000000000000000 ) ) ;
#230 = DIRECTION ( 'NONE',  ( 4.275831445896958607E-31, 1.000000000000000000, 1.224646799147353207E-16 ) ) ;
#231 = LOCAL_TIME ( 13, 36, 34.00000000000000000, #83 ) ;
#232 = CC_DESIGN_PERSON_AND_ORGANIZATION_ASSIGNMENT ( #121, #138, ( #82 ) ) ;
#233 = FACE_OUTER_BOUND ( 'NONE', #128, .T. ) ;
#234 = DIRECTION ( 'NONE',  ( 3.491481338843133355E-15, -1.224646799147353207E-16, 1.000000000000000000 ) ) ;
#235 = CYLINDRICAL_SURFACE ( 'NONE', #105, 3.999999999999998224 ) ;
#236 = SECURITY_CLASSIFICATION_LEVEL ( 'unclassified' ) ;
#237 = EDGE_LOOP ( 'NONE', ( #226 ) ) ;
#238 = DIRECTION ( 'NONE',  ( 1.510825004591027679E-30, 1.000000000000000000, 4.327174794786742882E-16 ) ) ;
#239 = APPROVAL ( #39, 'UNSPECIFIED' ) ;
#240 = AXIS2_PLACEMENT_3D ( 'NONE', #110, #186, #187 ) ;
#241 = ORGANIZATION ( 'UNSPECIFIED', 'UNSPECIFIED', '' ) ;
#242 = ORIENTED_EDGE ( 'NONE', *, *, #210, .T. ) ;
#243 = COORDINATED_UNIVERSAL_TIME_OFFSET ( 1, 0, .AHEAD. ) ;
#244 = ORIENTED_EDGE ( 'NONE', *, *, #195, .T. ) ;
#245 = ORIENTED_EDGE ( 'NONE', *, *, #202, .T. ) ;
#246 = EDGE_LOOP ( 'NONE', ( #199 ) ) ;
#247 = CONICAL_SURFACE ( 'NONE', #84, 3.200000000000001954, 0.7853981633974426169 ) ;
#248 = CARTESIAN_POINT ( 'NONE',  ( 8.379555213223520053E-14, -1.038521950748818292E-14, 24.00000000000000000 ) ) ;
#249 = EDGE_LOOP ( 'NONE', ( #87 ) ) ;
#250 = CARTESIAN_POINT ( 'NONE',  ( 0.0000000000000000000, 0.0000000000000000000, 0.0000000000000000000 ) ) ;
#251 = CARTESIAN_POINT ( 'NONE',  ( 8.379555213223520053E-14, 2.999519565323707552E-32, 24.00000000000000000 ) ) ;
#252 = PLANE ( 'NONE',  #201 ) ;
#253 = ADVANCED_FACE ( 'NONE', ( #119, #140 ), #235, .T. ) ;
#254 = FACE_OUTER_BOUND ( 'NONE', #163, .T. ) ;
#255 = DIRECTION ( 'NONE',  ( 0.0000000000000000000, -1.000000000000000000, 0.0000000000000000000 ) ) ;
#256 = CARTESIAN_POINT ( 'NONE',  ( 1.204561061900881197E-13, 3.483974596215558162, 34.50000000000000000 ) ) ;
#257 = PERSON_AND_ORGANIZATION_ROLE ( 'creator' ) ;
#258 = LOCAL_TIME ( 13, 36, 34.00000000000000000, #60 ) ;
#259 = EDGE_CURVE ( 'NONE', #101, #101, #3, .T. ) ;
#260 = ADVANCED_FACE ( 'NONE', ( #74 ), #14, .T. ) ;
#261 = APPROVAL ( #94, 'UNSPECIFIED' ) ;
#262 = AXIS2_PLACEMENT_3D ( 'NONE', #13, #215, #91 ) ;
#263 = APPLICATION_CONTEXT ( 'configuration controlled 3d designs of mechanical parts and assemblies' ) ;
ENDSEC;
END-ISO-10303-21;
