ISO-10303-21;
HEADER;
FILE_DESCRIPTION (( 'STEP AP203' ),
    '1' );
FILE_NAME ('966752.step',
    '2021-10-13T11:36:33',
    ( '' ),
    ( '' ),
    'SwSTEP 2.0',
    'SolidWorks 2019',
    '' );
FILE_SCHEMA (( 'CONFIG_CONTROL_DESIGN' ));
ENDSEC;

DATA;
#1 = PERSON_AND_ORGANIZATION_ROLE ( 'design_supplier' ) ;
#2 = EDGE_CURVE ( 'NONE', #239, #239, #144, .T. ) ;
#3 = APPROVAL_ROLE ( '' ) ;
#4 = PERSON_AND_ORGANIZATION ( #204, #208 ) ;
#5 = APPROVAL_STATUS ( 'not_yet_approved' ) ;
#6 = CIRCLE ( 'NONE', #85, 2.950000000000004619 ) ;
#7 = LOCAL_TIME ( 13, 36, 33.00000000000000000, #23 ) ;
#8 = EDGE_LOOP ( 'NONE', ( #70 ) ) ;
#9 = UNCERTAINTY_MEASURE_WITH_UNIT (LENGTH_MEASURE( 1.000000000000000082E-05 ), #216, 'distance_accuracy_value', 'NONE');
#10 = EDGE_LOOP ( 'NONE', ( #153 ) ) ;
#11 = FACE_OUTER_BOUND ( 'NONE', #10, .T. ) ;
#12 = CARTESIAN_POINT ( 'NONE',  ( 1.012529588264508673E-13, -1.214306433183764966E-14, 29.00000000000000000 ) ) ;
#13 =( NAMED_UNIT ( * ) PLANE_ANGLE_UNIT ( ) SI_UNIT ( $, .RADIAN. ) );
#14 = CYLINDRICAL_SURFACE ( 'NONE', #135, 2.950000000000004619 ) ;
#15 = DIRECTION ( 'NONE',  ( 4.275831445896958607E-31, 1.000000000000000000, 1.224646799147353207E-16 ) ) ;
#16 = DIRECTION ( 'NONE',  ( -3.491481338843133355E-15, 1.224646799147353207E-16, -1.000000000000000000 ) ) ;
#17 = ADVANCED_FACE ( 'NONE', ( #220, #11 ), #14, .T. ) ;
#18 = VERTEX_POINT ( 'NONE', #180 ) ;
#19 = CARTESIAN_POINT ( 'NONE',  ( 2.304377683636468267E-13, 2.299999999999988720, 66.00000000000000000 ) ) ;
#20 = COORDINATED_UNIVERSAL_TIME_OFFSET ( 1, 0, .AHEAD. ) ;
#21 = AXIS2_PLACEMENT_3D ( 'NONE', #237, #62, #238 ) ;
#22 = LOCAL_TIME ( 13, 36, 33.00000000000000000, #227 ) ;
#23 = COORDINATED_UNIVERSAL_TIME_OFFSET ( 1, 0, .AHEAD. ) ;
#24 = APPLICATION_CONTEXT ( 'configuration controlled 3d designs of mechanical parts and assemblies' ) ;
#25 = CALENDAR_DATE ( 2021, 13, 10 ) ;
#26 = CC_DESIGN_PERSON_AND_ORGANIZATION_ASSIGNMENT ( #151, #133, ( #99 ) ) ;
#27 = ORIENTED_EDGE ( 'NONE', *, *, #242, .F. ) ;
#28 = EDGE_LOOP ( 'NONE', ( #108 ) ) ;
#29 = ADVANCED_BREP_SHAPE_REPRESENTATION ( '966752', ( #103, #175, #77 ), #205 ) ;
#30 = SECURITY_CLASSIFICATION ( '', '', #206 ) ;
#31 = EDGE_LOOP ( 'NONE', ( #210 ) ) ;
#32 = EDGE_LOOP ( 'NONE', ( #193 ) ) ;
#33 = CARTESIAN_POINT ( 'NONE',  ( 1.023431735250767607E-13, -1.227818032149844780E-14, 29.31224989991988039 ) ) ;
#34 = CARTESIAN_POINT ( 'NONE',  ( 2.304377683636468267E-13, -8.082668874372532400E-15, 66.00000000000000000 ) ) ;
#35 = CC_DESIGN_PERSON_AND_ORGANIZATION_ASSIGNMENT ( #170, #1, ( #99 ) ) ;
#36 = AXIS2_PLACEMENT_3D ( 'NONE', #223, #16, #15 ) ;
#37 = PLANE ( 'NONE',  #36 ) ;
#38 = DIRECTION ( 'NONE',  ( 0.0000000000000000000, 1.000000000000000000, 0.0000000000000000000 ) ) ;
#39 = ADVANCED_FACE ( 'NONE', ( #158, #90 ), #72, .T. ) ;
#40 = DIRECTION ( 'NONE',  ( -5.135813185032647042E-31, -1.000000000000000000, -1.445602896647344340E-16 ) ) ;
#41 = CARTESIAN_POINT ( 'NONE',  ( 7.681258945454893382E-14, -2.950000000000014388, 22.00000000000000000 ) ) ;
#42 = CC_DESIGN_APPROVAL ( #152, ( #194 ) ) ;
#43 = CALENDAR_DATE ( 2021, 13, 10 ) ;
#44 = PRODUCT ( '966752', '966752', '', ( #66 ) ) ;
#45 = PERSON_AND_ORGANIZATION_ROLE ( 'design_owner' ) ;
#46 = CALENDAR_DATE ( 2021, 13, 10 ) ;
#47 = AXIS2_PLACEMENT_3D ( 'NONE', #196, #142, #217 ) ;
#48 = AXIS2_PLACEMENT_3D ( 'NONE', #224, #96, #164 ) ;
#49 = PERSON_AND_ORGANIZATION_ROLE ( 'creator' ) ;
#50 = CC_DESIGN_PERSON_AND_ORGANIZATION_ASSIGNMENT ( #209, #45, ( #44 ) ) ;
#51 = PERSON_AND_ORGANIZATION ( #204, #208 ) ;
#52 = EDGE_LOOP ( 'NONE', ( #123 ) ) ;
#53 = EDGE_LOOP ( 'NONE', ( #154 ) ) ;
#54 = EDGE_CURVE ( 'NONE', #112, #112, #88, .T. ) ;
#55 = EDGE_LOOP ( 'NONE', ( #213 ) ) ;
#56 = CIRCLE ( 'NONE', #21, 2.950000000000004619 ) ;
#57 = EDGE_LOOP ( 'NONE', ( #157 ) ) ;
#58 = DIRECTION ( 'NONE',  ( 0.0000000000000000000, 1.000000000000000000, 0.0000000000000000000 ) ) ;
#59 = PLANE ( 'NONE',  #173 ) ;
#60 = TOROIDAL_SURFACE ( 'NONE', #200, 3.950000000000009059, 1.000000000000000444 ) ;
#61 = FACE_OUTER_BOUND ( 'NONE', #28, .T. ) ;
#62 = DIRECTION ( 'NONE',  ( -3.491481338843133355E-15, 1.224646799147353207E-16, -1.000000000000000000 ) ) ;
#63 = CARTESIAN_POINT ( 'NONE',  ( 1.012529588264508673E-13, 2.949999999999997069, 29.00000000000000000 ) ) ;
#64 = DATE_AND_TIME ( #25, #7 ) ;
#65 = APPROVAL_DATE_TIME ( #84, #218 ) ;
#66 = MECHANICAL_CONTEXT ( 'NONE', #67, 'mechanical' ) ;
#67 = APPLICATION_CONTEXT ( 'configuration controlled 3d designs of mechanical parts and assemblies' ) ;
#68 = ADVANCED_FACE ( 'NONE', ( #93, #234 ), #60, .F. ) ;
#69 = EDGE_LOOP ( 'NONE', ( #89 ) ) ;
#70 = ORIENTED_EDGE ( 'NONE', *, *, #242, .T. ) ;
#71 = EDGE_LOOP ( 'NONE', ( #195 ) ) ;
#72 = CYLINDRICAL_SURFACE ( 'NONE', #150, 2.999999999999994227 ) ;
#73 = FACE_OUTER_BOUND ( 'NONE', #55, .T. ) ;
#74 = DIRECTION ( 'NONE',  ( 0.0000000000000000000, -1.000000000000000000, 0.0000000000000000000 ) ) ;
#75 = APPROVAL ( #120, 'UNSPECIFIED' ) ;
#76 = PLANE ( 'NONE',  #188 ) ;
#77 = AXIS2_PLACEMENT_3D ( 'NONE', #105, #82, #226 ) ;
#78 = DIRECTION ( 'NONE',  ( -3.491481338843133355E-15, 1.224646799147353207E-16, -1.000000000000000000 ) ) ;
#79 = APPROVAL_STATUS ( 'not_yet_approved' ) ;
#80 = APPLICATION_PROTOCOL_DEFINITION ( 'international standard', 'config_control_design', 1994, #67 ) ;
#81 = APPROVAL_ROLE ( '' ) ;
#82 = DIRECTION ( 'NONE',  ( 0.0000000000000000000, 0.0000000000000000000, 1.000000000000000000 ) ) ;
#83 = EDGE_CURVE ( 'NONE', #113, #113, #129, .T. ) ;
#84 = DATE_AND_TIME ( #121, #183 ) ;
#85 = AXIS2_PLACEMENT_3D ( 'NONE', #221, #241, #101 ) ;
#86 = LOCAL_TIME ( 13, 36, 33.00000000000000000, #118 ) ;
#87 = EDGE_LOOP ( 'NONE', ( #27 ) ) ;
#88 = CIRCLE ( 'NONE', #192, 2.950000000000004619 ) ;
#89 = ORIENTED_EDGE ( 'NONE', *, *, #155, .T. ) ;
#90 = FACE_OUTER_BOUND ( 'NONE', #52, .T. ) ;
#91 = AXIS2_PLACEMENT_3D ( 'NONE', #97, #100, #38 ) ;
#92 = CC_DESIGN_APPROVAL ( #218, ( #30 ) ) ;
#93 = FACE_OUTER_BOUND ( 'NONE', #31, .T. ) ;
#94 = VERTEX_POINT ( 'NONE', #63 ) ;
#95 = DIRECTION ( 'NONE',  ( 1.510825004591028030E-30, 1.000000000000000000, 4.327174794786743375E-16 ) ) ;
#96 = DIRECTION ( 'NONE',  ( -3.491481338843133355E-15, 1.224646799147353207E-16, -1.000000000000000000 ) ) ;
#97 = CARTESIAN_POINT ( 'NONE',  ( 1.012529588264508673E-13, -1.254880690488155436E-14, 29.00000000000000000 ) ) ;
#98 = CLOSED_SHELL ( 'NONE', ( #39, #211, #233, #17, #68, #110 ) ) ;
#99 = PRODUCT_DEFINITION_FORMATION_WITH_SPECIFIED_SOURCE ( 'ANY', '', #44, .NOT_KNOWN. ) ;
#100 = DIRECTION ( 'NONE',  ( -3.491481338843133355E-15, 4.327174794786742882E-16, -1.000000000000000000 ) ) ;
#101 = DIRECTION ( 'NONE',  ( 0.0000000000000000000, -1.000000000000000000, 0.0000000000000000000 ) ) ;
#102 = SHAPE_DEFINITION_REPRESENTATION ( #187, #29 ) ;
#103 = MANIFOLD_SOLID_BREP ( 'Corps-Déplacer/Copier1[1]', #98 ) ;
#104 = APPLICATION_PROTOCOL_DEFINITION ( 'international standard', 'config_control_design', 1994, #24 ) ;
#105 = CARTESIAN_POINT ( 'NONE',  ( 0.0000000000000000000, 0.0000000000000000000, 0.0000000000000000000 ) ) ;
#106 = DATE_TIME_ROLE ( 'creation_date' ) ;
#107 = APPROVAL_PERSON_ORGANIZATION ( #147, #218, #185 ) ;
#108 = ORIENTED_EDGE ( 'NONE', *, *, #201, .T. ) ;
#109 = DIRECTION ( 'NONE',  ( -3.491481338843133355E-15, 4.327174794786742882E-16, -1.000000000000000000 ) ) ;
#110 = ADVANCED_FACE ( 'NONE', ( #73 ), #59, .F. ) ;
#111 = DIRECTION ( 'NONE',  ( 3.491481338843133355E-15, -1.224646799147353207E-16, 1.000000000000000000 ) ) ;
#112 = VERTEX_POINT ( 'NONE', #199 ) ;
#113 = VERTEX_POINT ( 'NONE', #182 ) ;
#114 = AXIS2_PLACEMENT_3D ( 'NONE', #163, #184, #130 ) ;
#115 = CC_DESIGN_PERSON_AND_ORGANIZATION_ASSIGNMENT ( #51, #49, ( #194 ) ) ;
#116 = VERTEX_POINT ( 'NONE', #19 ) ;
#117 = DATE_AND_TIME ( #43, #86 ) ;
#118 = COORDINATED_UNIVERSAL_TIME_OFFSET ( 1, 0, .AHEAD. ) ;
#119 = EDGE_CURVE ( 'NONE', #18, #18, #56, .T. ) ;
#120 = APPROVAL_STATUS ( 'not_yet_approved' ) ;
#121 = CALENDAR_DATE ( 2021, 13, 10 ) ;
#122 = PERSON_AND_ORGANIZATION ( #204, #208 ) ;
#123 = ORIENTED_EDGE ( 'NONE', *, *, #2, .T. ) ;
#124 = ORIENTED_EDGE ( 'NONE', *, *, #83, .F. ) ;
#125 = DIRECTION ( 'NONE',  ( 1.553742652111447255E-30, 1.000000000000000000, 4.327174794786743375E-16 ) ) ;
#126 = DIRECTION ( 'NONE',  ( 3.491481338843133355E-15, -1.224646799147353207E-16, 1.000000000000000000 ) ) ;
#127 = CARTESIAN_POINT ( 'NONE',  ( 7.681258945454893382E-14, 2.249639673992776559E-32, 22.00000000000000000 ) ) ;
#128 = FACE_OUTER_BOUND ( 'NONE', #57, .T. ) ;
#129 = CIRCLE ( 'NONE', #231, 2.999999999999994227 ) ;
#130 = DIRECTION ( 'NONE',  ( 1.510825004591028030E-30, 1.000000000000000000, 4.327174794786743375E-16 ) ) ;
#131 = DIRECTION ( 'NONE',  ( -4.275831445896958607E-31, -1.000000000000000000, -1.224646799147353207E-16 ) ) ;
#132 = VERTEX_POINT ( 'NONE', #41 ) ;
#133 = PERSON_AND_ORGANIZATION_ROLE ( 'creator' ) ;
#134 = PRODUCT_RELATED_PRODUCT_CATEGORY ( 'detail', '', ( #44 ) ) ;
#135 = AXIS2_PLACEMENT_3D ( 'NONE', #198, #109, #95 ) ;
#136 = PERSON_AND_ORGANIZATION_ROLE ( 'classification_officer' ) ;
#137 = DATE_TIME_ROLE ( 'classification_date' ) ;
#138 = LOCAL_TIME ( 13, 36, 33.00000000000000000, #20 ) ;
#139 = DESIGN_CONTEXT ( 'detailed design', #24, 'design' ) ;
#140 = ORIENTED_EDGE ( 'NONE', *, *, #83, .T. ) ;
#141 = CARTESIAN_POINT ( 'NONE',  ( 7.681258945454893382E-14, -9.519784548530834340E-15, 22.00000000000000000 ) ) ;
#142 = DIRECTION ( 'NONE',  ( -3.491481338843133355E-15, 1.224646799147353207E-16, -1.000000000000000000 ) ) ;
#143 = DIRECTION ( 'NONE',  ( 3.491481338843133355E-15, -1.224646799147353207E-16, 1.000000000000000000 ) ) ;
#144 = CIRCLE ( 'NONE', #47, 2.999999999999996891 ) ;
#145 = DIRECTION ( 'NONE',  ( 0.0000000000000000000, 1.000000000000000000, 0.0000000000000000000 ) ) ;
#146 = FACE_OUTER_BOUND ( 'NONE', #32, .T. ) ;
#147 = PERSON_AND_ORGANIZATION ( #204, #208 ) ;
#148 = APPROVAL_DATE_TIME ( #64, #75 ) ;
#149 = DATE_AND_TIME ( #166, #138 ) ;
#150 = AXIS2_PLACEMENT_3D ( 'NONE', #160, #162, #177 ) ;
#151 = PERSON_AND_ORGANIZATION ( #204, #208 ) ;
#152 = APPROVAL ( #5, 'UNSPECIFIED' ) ;
#153 = ORIENTED_EDGE ( 'NONE', *, *, #54, .F. ) ;
#154 = ORIENTED_EDGE ( 'NONE', *, *, #119, .F. ) ;
#155 = EDGE_CURVE ( 'NONE', #94, #94, #207, .T. ) ;
#156 = CONICAL_SURFACE ( 'NONE', #178, 2.299999999999996714, 0.7853981633974439491 ) ;
#157 = ORIENTED_EDGE ( 'NONE', *, *, #2, .F. ) ;
#158 = FACE_OUTER_BOUND ( 'NONE', #174, .T. ) ;
#159 = CC_DESIGN_DATE_AND_TIME_ASSIGNMENT ( #149, #106, ( #194 ) ) ;
#160 = CARTESIAN_POINT ( 'NONE',  ( 0.0000000000000000000, 0.0000000000000000000, 0.0000000000000000000 ) ) ;
#161 = CARTESIAN_POINT ( 'NONE',  ( 2.279937314264566018E-13, 2.999999999999989342, 65.29999999999999716 ) ) ;
#162 = DIRECTION ( 'NONE',  ( -3.491481338843133355E-15, 1.224646799147353207E-16, -1.000000000000000000 ) ) ;
#163 = CARTESIAN_POINT ( 'NONE',  ( 0.0000000000000000000, 0.0000000000000000000, 0.0000000000000000000 ) ) ;
#164 = DIRECTION ( 'NONE',  ( 0.0000000000000000000, 1.000000000000000000, 0.0000000000000000000 ) ) ;
#165 = CARTESIAN_POINT ( 'NONE',  ( 7.681258945454893382E-14, 2.249639673992776559E-32, 22.00000000000000000 ) ) ;
#166 = CALENDAR_DATE ( 2021, 13, 10 ) ;
#167 = CLOSED_SHELL ( 'NONE', ( #212, #191, #172 ) ) ;
#168 = APPROVAL_DATE_TIME ( #229, #152 ) ;
#169 = COORDINATED_UNIVERSAL_TIME_OFFSET ( 1, 0, .AHEAD. ) ;
#170 = PERSON_AND_ORGANIZATION ( #204, #208 ) ;
#171 = EDGE_LOOP ( 'NONE', ( #124 ) ) ;
#172 = ADVANCED_FACE ( 'NONE', ( #197 ), #76, .T. ) ;
#173 = AXIS2_PLACEMENT_3D ( 'NONE', #127, #111, #179 ) ;
#174 = EDGE_LOOP ( 'NONE', ( #140 ) ) ;
#175 = MANIFOLD_SOLID_BREP ( 'Corps-Déplacer/Copier1[2]', #167 ) ;
#176 = DIRECTION ( 'NONE',  ( -3.491481338843133355E-15, 4.327174794786742882E-16, -1.000000000000000000 ) ) ;
#177 = DIRECTION ( 'NONE',  ( 4.275831445896959482E-31, 1.000000000000000000, 1.224646799147353454E-16 ) ) ;
#178 = AXIS2_PLACEMENT_3D ( 'NONE', #34, #78, #145 ) ;
#179 = DIRECTION ( 'NONE',  ( -4.275831445896958607E-31, -1.000000000000000000, -1.224646799147353207E-16 ) ) ;
#180 = CARTESIAN_POINT ( 'NONE',  ( 3.748846078462739735E-15, -2.950000000000004619, 1.073712191085312240 ) ) ;
#181 = FACE_OUTER_BOUND ( 'NONE', #87, .T. ) ;
#182 = CARTESIAN_POINT ( 'NONE',  ( 1.023431735250767607E-13, 2.999999999999982236, 29.31224989991988039 ) ) ;
#183 = LOCAL_TIME ( 13, 36, 33.00000000000000000, #169 ) ;
#184 = DIRECTION ( 'NONE',  ( -3.491481338843133355E-15, 4.327174794786742882E-16, -1.000000000000000000 ) ) ;
#185 = APPROVAL_ROLE ( '' ) ;
#186 = CC_DESIGN_DATE_AND_TIME_ASSIGNMENT ( #117, #137, ( #30 ) ) ;
#187 = PRODUCT_DEFINITION_SHAPE ( 'NONE', 'NONE',  #194 ) ;
#188 = AXIS2_PLACEMENT_3D ( 'NONE', #165, #143, #131 ) ;
#189 = PERSON_AND_ORGANIZATION ( #204, #208 ) ;
#190 = CC_DESIGN_APPROVAL ( #75, ( #99 ) ) ;
#191 = ADVANCED_FACE ( 'NONE', ( #61, #236 ), #203, .T. ) ;
#192 = AXIS2_PLACEMENT_3D ( 'NONE', #141, #215, #74 ) ;
#193 = ORIENTED_EDGE ( 'NONE', *, *, #119, .T. ) ;
#194 = PRODUCT_DEFINITION ( 'UNKNOWN', '', #99, #139 ) ;
#195 = ORIENTED_EDGE ( 'NONE', *, *, #201, .F. ) ;
#196 = CARTESIAN_POINT ( 'NONE',  ( 2.279937314264566018E-13, -7.996943598432214956E-15, 65.29999999999999716 ) ) ;
#197 = FACE_OUTER_BOUND ( 'NONE', #71, .T. ) ;
#198 = CARTESIAN_POINT ( 'NONE',  ( 0.0000000000000000000, 0.0000000000000000000, 0.0000000000000000000 ) ) ;
#199 = CARTESIAN_POINT ( 'NONE',  ( 7.681258945454893382E-14, -2.950000000000014388, 22.00000000000000000 ) ) ;
#200 = AXIS2_PLACEMENT_3D ( 'NONE', #12, #176, #125 ) ;
#201 = EDGE_CURVE ( 'NONE', #132, #132, #6, .T. ) ;
#202 = CARTESIAN_POINT ( 'NONE',  ( 3.812385842504463344E-15, -1.337204947137063450E-16, 1.091910702798617239 ) ) ;
#203 = CYLINDRICAL_SURFACE ( 'NONE', #114, 2.950000000000004619 ) ;
#204 = PERSON ( 'UNSPECIFIED', 'UNSPECIFIED', 'UNSPECIFIED', ('UNSPECIFIED'), ('UNSPECIFIED'), ('UNSPECIFIED') ) ;
#205 =( GEOMETRIC_REPRESENTATION_CONTEXT ( 3 ) GLOBAL_UNCERTAINTY_ASSIGNED_CONTEXT ( ( #9 ) ) GLOBAL_UNIT_ASSIGNED_CONTEXT ( ( #216, #13, #219 ) ) REPRESENTATION_CONTEXT ( 'NONE', 'WORKASPACE' ) );
#206 = SECURITY_CLASSIFICATION_LEVEL ( 'unclassified' ) ;
#207 = CIRCLE ( 'NONE', #91, 2.950000000000009504 ) ;
#208 = ORGANIZATION ( 'UNSPECIFIED', 'UNSPECIFIED', '' ) ;
#209 = PERSON_AND_ORGANIZATION ( #204, #208 ) ;
#210 = ORIENTED_EDGE ( 'NONE', *, *, #155, .F. ) ;
#211 = ADVANCED_FACE ( 'NONE', ( #128, #243 ), #156, .T. ) ;
#212 = ADVANCED_FACE ( 'NONE', ( #146 ), #228, .T. ) ;
#213 = ORIENTED_EDGE ( 'NONE', *, *, #54, .T. ) ;
#214 = APPROVAL_PERSON_ORGANIZATION ( #122, #152, #81 ) ;
#215 = DIRECTION ( 'NONE',  ( -3.491481338843133355E-15, 1.224646799147353207E-16, -1.000000000000000000 ) ) ;
#216 =( LENGTH_UNIT ( ) NAMED_UNIT ( * ) SI_UNIT ( .MILLI., .METRE. ) );
#217 = DIRECTION ( 'NONE',  ( 0.0000000000000000000, 1.000000000000000000, 0.0000000000000000000 ) ) ;
#218 = APPROVAL ( #79, 'UNSPECIFIED' ) ;
#219 =( NAMED_UNIT ( * ) SI_UNIT ( $, .STERADIAN. ) SOLID_ANGLE_UNIT ( ) );
#220 = FACE_OUTER_BOUND ( 'NONE', #69, .T. ) ;
#221 = CARTESIAN_POINT ( 'NONE',  ( 7.681258945454893382E-14, -9.519784548530834340E-15, 22.00000000000000000 ) ) ;
#222 = CC_DESIGN_SECURITY_CLASSIFICATION ( #30, ( #99 ) ) ;
#223 = CARTESIAN_POINT ( 'NONE',  ( 2.304377683636468267E-13, 1.724723750061122017E-32, 66.00000000000000000 ) ) ;
#224 = CARTESIAN_POINT ( 'NONE',  ( 2.304377683636468267E-13, -8.082668874372532400E-15, 66.00000000000000000 ) ) ;
#225 = CIRCLE ( 'NONE', #48, 2.299999999999996714 ) ;
#226 = DIRECTION ( 'NONE',  ( 1.000000000000000000, 0.0000000000000000000, 0.0000000000000000000 ) ) ;
#227 = COORDINATED_UNIVERSAL_TIME_OFFSET ( 1, 0, .AHEAD. ) ;
#228 = CONICAL_SURFACE ( 'NONE', #240, 2.999999999999989342, 1.221730476396026610 ) ;
#229 = DATE_AND_TIME ( #46, #22 ) ;
#230 = CC_DESIGN_PERSON_AND_ORGANIZATION_ASSIGNMENT ( #189, #136, ( #30 ) ) ;
#231 = AXIS2_PLACEMENT_3D ( 'NONE', #33, #235, #58 ) ;
#232 = APPROVAL_PERSON_ORGANIZATION ( #4, #75, #3 ) ;
#233 = ADVANCED_FACE ( 'NONE', ( #181 ), #37, .F. ) ;
#234 = FACE_OUTER_BOUND ( 'NONE', #171, .T. ) ;
#235 = DIRECTION ( 'NONE',  ( 3.491481338843133355E-15, -4.327174794786742882E-16, 1.000000000000000000 ) ) ;
#236 = FACE_OUTER_BOUND ( 'NONE', #53, .T. ) ;
#237 = CARTESIAN_POINT ( 'NONE',  ( 3.748846078462741313E-15, -1.314918198018119460E-16, 1.073712191085312684 ) ) ;
#238 = DIRECTION ( 'NONE',  ( -5.222860866134868666E-31, -1.000000000000000000, -1.470104640658308782E-16 ) ) ;
#239 = VERTEX_POINT ( 'NONE', #161 ) ;
#240 = AXIS2_PLACEMENT_3D ( 'NONE', #202, #126, #40 ) ;
#241 = DIRECTION ( 'NONE',  ( -3.491481338843133355E-15, 1.224646799147353207E-16, -1.000000000000000000 ) ) ;
#242 = EDGE_CURVE ( 'NONE', #116, #116, #225, .T. ) ;
#243 = FACE_BOUND ( 'NONE', #8, .T. ) ;
ENDSEC;
END-ISO-10303-21;
