ISO-10303-21;
HEADER;
FILE_DESCRIPTION (( 'STEP AP203' ),
    '1' );
FILE_NAME ('966751.step',
    '2021-10-13T11:36:32',
    ( '' ),
    ( '' ),
    'SwSTEP 2.0',
    'SolidWorks 2019',
    '' );
FILE_SCHEMA (( 'CONFIG_CONTROL_DESIGN' ));
ENDSEC;

DATA;
#1 =( NAMED_UNIT ( * ) PLANE_ANGLE_UNIT ( ) SI_UNIT ( $, .RADIAN. ) );
#2 =( GEOMETRIC_REPRESENTATION_CONTEXT ( 3 ) GLOBAL_UNCERTAINTY_ASSIGNED_CONTEXT ( ( #178 ) ) GLOBAL_UNIT_ASSIGNED_CONTEXT ( ( #127, #1, #250 ) ) REPRESENTATION_CONTEXT ( 'NONE', 'WORKASPACE' ) );
#3 = AXIS2_PLACEMENT_3D ( 'NONE', #27, #85, #62 ) ;
#4 = FACE_OUTER_BOUND ( 'NONE', #96, .T. ) ;
#5 = VERTEX_POINT ( 'NONE', #25 ) ;
#6 = FACE_OUTER_BOUND ( 'NONE', #246, .T. ) ;
#7 = CC_DESIGN_PERSON_AND_ORGANIZATION_ASSIGNMENT ( #15, #197, ( #231 ) ) ;
#8 = CARTESIAN_POINT ( 'NONE',  ( 7.681258945454893382E-14, -9.519784548530834340E-15, 22.00000000000000000 ) ) ;
#9 = APPLICATION_PROTOCOL_DEFINITION ( 'international standard', 'config_control_design', 1994, #114 ) ;
#10 = MANIFOLD_SOLID_BREP ( 'Corps-Déplacer/Copier1[2]', #113 ) ;
#11 = PERSON_AND_ORGANIZATION_ROLE ( 'creator' ) ;
#12 = DIRECTION ( 'NONE',  ( -5.406119142139601038E-31, -1.000000000000000000, -1.521687259628775796E-16 ) ) ;
#13 = ADVANCED_FACE ( 'NONE', ( #168 ), #261, .T. ) ;
#14 = PERSON_AND_ORGANIZATION_ROLE ( 'creator' ) ;
#15 = PERSON_AND_ORGANIZATION ( #175, #88 ) ;
#16 = LOCAL_TIME ( 13, 36, 32.00000000000000000, #115 ) ;
#17 = EDGE_LOOP ( 'NONE', ( #207 ) ) ;
#18 = DIRECTION ( 'NONE',  ( -3.491481338843133355E-15, 1.224646799147353207E-16, -1.000000000000000000 ) ) ;
#19 = AXIS2_PLACEMENT_3D ( 'NONE', #45, #130, #12 ) ;
#20 = PLANE ( 'NONE',  #105 ) ;
#21 = DIRECTION ( 'NONE',  ( 3.491481338843133355E-15, -1.224646799147353207E-16, 1.000000000000000000 ) ) ;
#22 = CYLINDRICAL_SURFACE ( 'NONE', #54, 2.850000000000004530 ) ;
#23 = DIRECTION ( 'NONE',  ( 0.0000000000000000000, 1.000000000000000000, 0.0000000000000000000 ) ) ;
#24 = EDGE_LOOP ( 'NONE', ( #94 ) ) ;
#25 = CARTESIAN_POINT ( 'NONE',  ( 7.681258945454893382E-14, -2.850000000000013856, 22.00000000000000000 ) ) ;
#26 = DIRECTION ( 'NONE',  ( 0.0000000000000000000, 1.000000000000000000, 0.0000000000000000000 ) ) ;
#27 = CARTESIAN_POINT ( 'NONE',  ( 0.0000000000000000000, 0.0000000000000000000, 0.0000000000000000000 ) ) ;
#28 = DIRECTION ( 'NONE',  ( -3.491481338843133355E-15, 4.327174794786742882E-16, -1.000000000000000000 ) ) ;
#29 = SECURITY_CLASSIFICATION ( '', '', #108 ) ;
#30 = CC_DESIGN_PERSON_AND_ORGANIZATION_ASSIGNMENT ( #92, #11, ( #76 ) ) ;
#31 = COORDINATED_UNIVERSAL_TIME_OFFSET ( 1, 0, .AHEAD. ) ;
#32 = AXIS2_PLACEMENT_3D ( 'NONE', #209, #103, #26 ) ;
#33 = DATE_AND_TIME ( #216, #247 ) ;
#34 = APPROVAL_ROLE ( '' ) ;
#35 = EDGE_LOOP ( 'NONE', ( #56 ) ) ;
#36 = CC_DESIGN_APPROVAL ( #180, ( #215 ) ) ;
#37 = ORIENTED_EDGE ( 'NONE', *, *, #200, .T. ) ;
#38 = CC_DESIGN_DATE_AND_TIME_ASSIGNMENT ( #33, #241, ( #29 ) ) ;
#39 = CARTESIAN_POINT ( 'NONE',  ( 1.012529588264508673E-13, 2.849999999999996536, 29.00000000000000000 ) ) ;
#40 = EDGE_LOOP ( 'NONE', ( #60 ) ) ;
#41 = CYLINDRICAL_SURFACE ( 'NONE', #3, 2.850000000000004530 ) ;
#42 = DIRECTION ( 'NONE',  ( 0.0000000000000000000, 1.000000000000000000, 0.0000000000000000000 ) ) ;
#43 = PRODUCT_DEFINITION_SHAPE ( 'NONE', 'NONE',  #76 ) ;
#44 = FACE_OUTER_BOUND ( 'NONE', #58, .T. ) ;
#45 = CARTESIAN_POINT ( 'NONE',  ( 3.621766550379257808E-15, -1.270344699780216934E-16, 1.037315167658691584 ) ) ;
#46 = EDGE_CURVE ( 'NONE', #191, #191, #206, .T. ) ;
#47 = DATE_AND_TIME ( #234, #139 ) ;
#48 = AXIS2_PLACEMENT_3D ( 'NONE', #239, #18, #160 ) ;
#49 = APPROVAL_STATUS ( 'not_yet_approved' ) ;
#50 = DATE_AND_TIME ( #71, #142 ) ;
#51 = CARTESIAN_POINT ( 'NONE',  ( 1.030956118924653893E-13, -1.277717650302571596E-14, 29.52775681356643034 ) ) ;
#52 = APPROVAL ( #49, 'UNSPECIFIED' ) ;
#53 = PERSON_AND_ORGANIZATION_ROLE ( 'classification_officer' ) ;
#54 = AXIS2_PLACEMENT_3D ( 'NONE', #253, #66, #147 ) ;
#55 = SHAPE_DEFINITION_REPRESENTATION ( #43, #98 ) ;
#56 = ORIENTED_EDGE ( 'NONE', *, *, #161, .F. ) ;
#57 = ADVANCED_FACE ( 'NONE', ( #249, #101 ), #218, .T. ) ;
#58 = EDGE_LOOP ( 'NONE', ( #37 ) ) ;
#59 = FACE_OUTER_BOUND ( 'NONE', #162, .T. ) ;
#60 = ORIENTED_EDGE ( 'NONE', *, *, #89, .T. ) ;
#61 = AXIS2_PLACEMENT_3D ( 'NONE', #8, #70, #233 ) ;
#62 = DIRECTION ( 'NONE',  ( 1.510825004591027855E-30, 1.000000000000000000, 4.327174794786742882E-16 ) ) ;
#63 = DIRECTION ( 'NONE',  ( -3.491481338843133355E-15, 1.224646799147353207E-16, -1.000000000000000000 ) ) ;
#64 = DIRECTION ( 'NONE',  ( 3.491481338843133355E-15, -1.224646799147353207E-16, 1.000000000000000000 ) ) ;
#65 = CIRCLE ( 'NONE', #202, 2.999999999999994227 ) ;
#66 = DIRECTION ( 'NONE',  ( -3.491481338843133355E-15, 4.327174794786742882E-16, -1.000000000000000000 ) ) ;
#67 = CARTESIAN_POINT ( 'NONE',  ( 1.029986994958724403E-13, 2.983974596215558162, 29.50000000000000355 ) ) ;
#68 = AXIS2_PLACEMENT_3D ( 'NONE', #121, #63, #193 ) ;
#69 = ADVANCED_FACE ( 'NONE', ( #144, #4 ), #222, .F. ) ;
#70 = DIRECTION ( 'NONE',  ( -3.491481338843133355E-15, 1.224646799147353207E-16, -1.000000000000000000 ) ) ;
#71 = CALENDAR_DATE ( 2021, 13, 10 ) ;
#72 = CARTESIAN_POINT ( 'NONE',  ( 3.812385842504463344E-15, -1.337204947137063450E-16, 1.091910702798617239 ) ) ;
#73 = APPROVAL_STATUS ( 'not_yet_approved' ) ;
#74 = CC_DESIGN_APPROVAL ( #263, ( #76 ) ) ;
#75 = DIRECTION ( 'NONE',  ( 0.0000000000000000000, -1.000000000000000000, 0.0000000000000000000 ) ) ;
#76 = PRODUCT_DEFINITION ( 'UNKNOWN', '', #215, #240 ) ;
#77 = EDGE_LOOP ( 'NONE', ( #244 ) ) ;
#78 = ORIENTED_EDGE ( 'NONE', *, *, #109, .F. ) ;
#79 = DIRECTION ( 'NONE',  ( 3.491481338843133355E-15, -4.327174794786742882E-16, 1.000000000000000000 ) ) ;
#80 = VERTEX_POINT ( 'NONE', #188 ) ;
#81 = CARTESIAN_POINT ( 'NONE',  ( 3.621766550379256230E-15, -2.850000000000004530, 1.037315167658691140 ) ) ;
#82 = LOCAL_TIME ( 13, 36, 32.00000000000000000, #31 ) ;
#83 = CIRCLE ( 'NONE', #61, 2.850000000000004530 ) ;
#84 = DIRECTION ( 'NONE',  ( 3.491481338843133355E-15, -4.327174794786742882E-16, 1.000000000000000000 ) ) ;
#85 = DIRECTION ( 'NONE',  ( -3.491481338843133355E-15, 4.327174794786742882E-16, -1.000000000000000000 ) ) ;
#86 = CARTESIAN_POINT ( 'NONE',  ( 2.304377683636468267E-13, -8.082668874372532400E-15, 66.00000000000000000 ) ) ;
#87 = DATE_AND_TIME ( #153, #82 ) ;
#88 = ORGANIZATION ( 'UNSPECIFIED', 'UNSPECIFIED', '' ) ;
#89 = EDGE_CURVE ( 'NONE', #225, #225, #93, .T. ) ;
#90 = PERSON_AND_ORGANIZATION ( #175, #88 ) ;
#91 = COORDINATED_UNIVERSAL_TIME_OFFSET ( 1, 0, .AHEAD. ) ;
#92 = PERSON_AND_ORGANIZATION ( #175, #88 ) ;
#93 = CIRCLE ( 'NONE', #32, 2.999999999999996891 ) ;
#94 = ORIENTED_EDGE ( 'NONE', *, *, #146, .F. ) ;
#95 = MANIFOLD_SOLID_BREP ( 'Corps-Déplacer/Copier1[1]', #179 ) ;
#96 = EDGE_LOOP ( 'NONE', ( #184 ) ) ;
#97 = CIRCLE ( 'NONE', #143, 2.850000000000004530 ) ;
#98 = ADVANCED_BREP_SHAPE_REPRESENTATION ( '966751', ( #95, #10, #120 ), #2 ) ;
#99 = EDGE_CURVE ( 'NONE', #232, #232, #248, .T. ) ;
#100 = CARTESIAN_POINT ( 'NONE',  ( 2.279937314264566018E-13, 2.999999999999989342, 65.29999999999999716 ) ) ;
#101 = FACE_OUTER_BOUND ( 'NONE', #211, .T. ) ;
#102 = FACE_OUTER_BOUND ( 'NONE', #24, .T. ) ;
#103 = DIRECTION ( 'NONE',  ( -3.491481338843133355E-15, 1.224646799147353207E-16, -1.000000000000000000 ) ) ;
#104 = CARTESIAN_POINT ( 'NONE',  ( 1.029986994958724403E-13, -1.276516564462089308E-14, 29.50000000000000355 ) ) ;
#105 = AXIS2_PLACEMENT_3D ( 'NONE', #164, #21, #145 ) ;
#106 = CARTESIAN_POINT ( 'NONE',  ( 0.0000000000000000000, 0.0000000000000000000, 0.0000000000000000000 ) ) ;
#107 = AXIS2_PLACEMENT_3D ( 'NONE', #104, #166, #42 ) ;
#108 = SECURITY_CLASSIFICATION_LEVEL ( 'unclassified' ) ;
#109 = EDGE_CURVE ( 'NONE', #185, #185, #183, .T. ) ;
#110 = DATE_TIME_ROLE ( 'creation_date' ) ;
#111 = PERSON_AND_ORGANIZATION ( #175, #88 ) ;
#112 = DIRECTION ( 'NONE',  ( -4.275831445896958607E-31, -1.000000000000000000, -1.224646799147353207E-16 ) ) ;
#113 = CLOSED_SHELL ( 'NONE', ( #13, #176, #242 ) ) ;
#114 = APPLICATION_CONTEXT ( 'configuration controlled 3d designs of mechanical parts and assemblies' ) ;
#115 = COORDINATED_UNIVERSAL_TIME_OFFSET ( 1, 0, .AHEAD. ) ;
#116 = ORIENTED_EDGE ( 'NONE', *, *, #46, .T. ) ;
#117 = DIRECTION ( 'NONE',  ( -5.135813185032647042E-31, -1.000000000000000000, -1.445602896647344340E-16 ) ) ;
#118 = AXIS2_PLACEMENT_3D ( 'NONE', #186, #64, #112 ) ;
#119 = CC_DESIGN_DATE_AND_TIME_ASSIGNMENT ( #214, #110, ( #76 ) ) ;
#120 = AXIS2_PLACEMENT_3D ( 'NONE', #210, #150, #173 ) ;
#121 = CARTESIAN_POINT ( 'NONE',  ( 2.304377683636468267E-13, -8.082668874372532400E-15, 66.00000000000000000 ) ) ;
#122 = EDGE_CURVE ( 'NONE', #5, #5, #97, .T. ) ;
#123 = VERTEX_POINT ( 'NONE', #228 ) ;
#124 = ORIENTED_EDGE ( 'NONE', *, *, #146, .T. ) ;
#125 = FACE_BOUND ( 'NONE', #245, .T. ) ;
#126 = DIRECTION ( 'NONE',  ( -3.491481338843133355E-15, 1.224646799147353207E-16, -1.000000000000000000 ) ) ;
#127 =( LENGTH_UNIT ( ) NAMED_UNIT ( * ) SI_UNIT ( .MILLI., .METRE. ) );
#128 = ADVANCED_FACE ( 'NONE', ( #44, #129 ), #204, .T. ) ;
#129 = FACE_OUTER_BOUND ( 'NONE', #40, .T. ) ;
#130 = DIRECTION ( 'NONE',  ( -3.491481338843133355E-15, 1.224646799147353207E-16, -1.000000000000000000 ) ) ;
#131 = AXIS2_PLACEMENT_3D ( 'NONE', #86, #135, #23 ) ;
#132 = APPROVAL_DATE_TIME ( #47, #52 ) ;
#133 = AXIS2_PLACEMENT_3D ( 'NONE', #187, #167, #169 ) ;
#134 = APPROVAL_ROLE ( '' ) ;
#135 = DIRECTION ( 'NONE',  ( -3.491481338843133355E-15, 1.224646799147353207E-16, -1.000000000000000000 ) ) ;
#136 = COORDINATED_UNIVERSAL_TIME_OFFSET ( 1, 0, .AHEAD. ) ;
#137 = ADVANCED_FACE ( 'NONE', ( #229, #6 ), #22, .T. ) ;
#138 = EDGE_LOOP ( 'NONE', ( #220 ) ) ;
#139 = LOCAL_TIME ( 13, 36, 32.00000000000000000, #91 ) ;
#140 = CC_DESIGN_PERSON_AND_ORGANIZATION_ASSIGNMENT ( #111, #14, ( #215 ) ) ;
#141 = CARTESIAN_POINT ( 'NONE',  ( 2.304377683636468267E-13, 2.299999999999988720, 66.00000000000000000 ) ) ;
#142 = LOCAL_TIME ( 13, 36, 32.00000000000000000, #198 ) ;
#143 = AXIS2_PLACEMENT_3D ( 'NONE', #172, #126, #251 ) ;
#144 = FACE_OUTER_BOUND ( 'NONE', #17, .T. ) ;
#145 = DIRECTION ( 'NONE',  ( -4.275831445896958607E-31, -1.000000000000000000, -1.224646799147353207E-16 ) ) ;
#146 = EDGE_CURVE ( 'NONE', #123, #123, #83, .T. ) ;
#147 = DIRECTION ( 'NONE',  ( 1.510825004591027855E-30, 1.000000000000000000, 4.327174794786742882E-16 ) ) ;
#148 = AXIS2_PLACEMENT_3D ( 'NONE', #72, #196, #117 ) ;
#149 = DIRECTION ( 'NONE',  ( 0.0000000000000000000, -1.000000000000000000, 0.0000000000000000000 ) ) ;
#150 = DIRECTION ( 'NONE',  ( 0.0000000000000000000, 0.0000000000000000000, 1.000000000000000000 ) ) ;
#151 = PERSON_AND_ORGANIZATION ( #175, #88 ) ;
#152 = PRODUCT_RELATED_PRODUCT_CATEGORY ( 'detail', '', ( #231 ) ) ;
#153 = CALENDAR_DATE ( 2021, 13, 10 ) ;
#154 = PERSON_AND_ORGANIZATION ( #175, #88 ) ;
#155 = APPROVAL_STATUS ( 'not_yet_approved' ) ;
#156 = PLANE ( 'NONE',  #48 ) ;
#157 = APPROVAL_DATE_TIME ( #50, #180 ) ;
#158 = FACE_OUTER_BOUND ( 'NONE', #181, .T. ) ;
#159 = EDGE_LOOP ( 'NONE', ( #259 ) ) ;
#160 = DIRECTION ( 'NONE',  ( 4.275831445896958607E-31, 1.000000000000000000, 1.224646799147353207E-16 ) ) ;
#161 = EDGE_CURVE ( 'NONE', #205, #205, #243, .T. ) ;
#162 = EDGE_LOOP ( 'NONE', ( #124 ) ) ;
#163 = ORIENTED_EDGE ( 'NONE', *, *, #122, .F. ) ;
#164 = CARTESIAN_POINT ( 'NONE',  ( 7.681258945454893382E-14, 2.249639673992776559E-32, 22.00000000000000000 ) ) ;
#165 = FACE_OUTER_BOUND ( 'NONE', #77, .T. ) ;
#166 = DIRECTION ( 'NONE',  ( -3.491481338843133355E-15, 4.327174794786742882E-16, -1.000000000000000000 ) ) ;
#167 = DIRECTION ( 'NONE',  ( -3.491481338843133355E-15, 4.327174794786742882E-16, -1.000000000000000000 ) ) ;
#168 = FACE_OUTER_BOUND ( 'NONE', #138, .T. ) ;
#169 = DIRECTION ( 'NONE',  ( 0.0000000000000000000, 1.000000000000000000, 0.0000000000000000000 ) ) ;
#170 = FACE_OUTER_BOUND ( 'NONE', #260, .T. ) ;
#171 = ADVANCED_FACE ( 'NONE', ( #158 ), #156, .F. ) ;
#172 = CARTESIAN_POINT ( 'NONE',  ( 7.681258945454893382E-14, -9.519784548530834340E-15, 22.00000000000000000 ) ) ;
#173 = DIRECTION ( 'NONE',  ( 1.000000000000000000, 0.0000000000000000000, 0.0000000000000000000 ) ) ;
#174 = APPROVAL_DATE_TIME ( #87, #263 ) ;
#175 = PERSON ( 'UNSPECIFIED', 'UNSPECIFIED', 'UNSPECIFIED', ('UNSPECIFIED'), ('UNSPECIFIED'), ('UNSPECIFIED') ) ;
#176 = ADVANCED_FACE ( 'NONE', ( #59, #212 ), #41, .T. ) ;
#177 = CC_DESIGN_APPROVAL ( #52, ( #29 ) ) ;
#178 = UNCERTAINTY_MEASURE_WITH_UNIT (LENGTH_MEASURE( 1.000000000000000082E-05 ), #127, 'distance_accuracy_value', 'NONE');
#179 = CLOSED_SHELL ( 'NONE', ( #128, #226, #171, #137, #57, #69, #194 ) ) ;
#180 = APPROVAL ( #73, 'UNSPECIFIED' ) ;
#181 = EDGE_LOOP ( 'NONE', ( #223 ) ) ;
#182 = CC_DESIGN_PERSON_AND_ORGANIZATION_ASSIGNMENT ( #90, #254, ( #215 ) ) ;
#183 = CIRCLE ( 'NONE', #107, 2.983974596215570596 ) ;
#184 = ORIENTED_EDGE ( 'NONE', *, *, #109, .T. ) ;
#185 = VERTEX_POINT ( 'NONE', #67 ) ;
#186 = CARTESIAN_POINT ( 'NONE',  ( 7.681258945454893382E-14, 2.249639673992776559E-32, 22.00000000000000000 ) ) ;
#187 = CARTESIAN_POINT ( 'NONE',  ( 1.012529588264508673E-13, -1.254880690488155436E-14, 29.00000000000000000 ) ) ;
#188 = CARTESIAN_POINT ( 'NONE',  ( 1.030956118924653893E-13, -3.000000000000007105, 29.52775681356643034 ) ) ;
#189 = CONICAL_SURFACE ( 'NONE', #131, 2.299999999999996714, 0.7853981633974439491 ) ;
#190 = EDGE_LOOP ( 'NONE', ( #78 ) ) ;
#191 = VERTEX_POINT ( 'NONE', #141 ) ;
#192 = DIRECTION ( 'NONE',  ( 4.275831445896959482E-31, 1.000000000000000000, 1.224646799147353454E-16 ) ) ;
#193 = DIRECTION ( 'NONE',  ( 0.0000000000000000000, 1.000000000000000000, 0.0000000000000000000 ) ) ;
#194 = ADVANCED_FACE ( 'NONE', ( #170 ), #203, .F. ) ;
#195 = DIRECTION ( 'NONE',  ( -3.491481338843133355E-15, 1.224646799147353207E-16, -1.000000000000000000 ) ) ;
#196 = DIRECTION ( 'NONE',  ( 3.491481338843133355E-15, -1.224646799147353207E-16, 1.000000000000000000 ) ) ;
#197 = PERSON_AND_ORGANIZATION_ROLE ( 'design_owner' ) ;
#198 = COORDINATED_UNIVERSAL_TIME_OFFSET ( 1, 0, .AHEAD. ) ;
#199 = PERSON_AND_ORGANIZATION ( #175, #88 ) ;
#200 = EDGE_CURVE ( 'NONE', #80, #80, #65, .T. ) ;
#201 = ORIENTED_EDGE ( 'NONE', *, *, #200, .F. ) ;
#202 = AXIS2_PLACEMENT_3D ( 'NONE', #51, #84, #75 ) ;
#203 = PLANE ( 'NONE',  #118 ) ;
#204 = CYLINDRICAL_SURFACE ( 'NONE', #217, 2.999999999999994227 ) ;
#205 = VERTEX_POINT ( 'NONE', #81 ) ;
#206 = CIRCLE ( 'NONE', #68, 2.299999999999996714 ) ;
#207 = ORIENTED_EDGE ( 'NONE', *, *, #99, .F. ) ;
#208 = CARTESIAN_POINT ( 'NONE',  ( 1.061193234287428936E-13, -1.315192083291582632E-14, 30.39378221735088559 ) ) ;
#209 = CARTESIAN_POINT ( 'NONE',  ( 2.279937314264566018E-13, -7.996943598432214956E-15, 65.29999999999999716 ) ) ;
#210 = CARTESIAN_POINT ( 'NONE',  ( 0.0000000000000000000, 0.0000000000000000000, 0.0000000000000000000 ) ) ;
#211 = EDGE_LOOP ( 'NONE', ( #201 ) ) ;
#212 = FACE_OUTER_BOUND ( 'NONE', #35, .T. ) ;
#213 = CARTESIAN_POINT ( 'NONE',  ( 1.012529588264508673E-13, -1.257674520083185143E-14, 29.00000000000000000 ) ) ;
#214 = DATE_AND_TIME ( #238, #16 ) ;
#215 = PRODUCT_DEFINITION_FORMATION_WITH_SPECIFIED_SOURCE ( 'ANY', '', #231, .NOT_KNOWN. ) ;
#216 = CALENDAR_DATE ( 2021, 13, 10 ) ;
#217 = AXIS2_PLACEMENT_3D ( 'NONE', #106, #195, #192 ) ;
#218 = CONICAL_SURFACE ( 'NONE', #230, 3.500000000000007105, 0.5235987755983017022 ) ;
#219 = CC_DESIGN_PERSON_AND_ORGANIZATION_ASSIGNMENT ( #151, #53, ( #29 ) ) ;
#220 = ORIENTED_EDGE ( 'NONE', *, *, #161, .T. ) ;
#221 = APPROVAL_PERSON_ORGANIZATION ( #235, #180, #257 ) ;
#222 = TOROIDAL_SURFACE ( 'NONE', #256, 3.850000000000009415, 1.000000000000000000 ) ;
#223 = ORIENTED_EDGE ( 'NONE', *, *, #46, .F. ) ;
#224 = APPROVAL_PERSON_ORGANIZATION ( #199, #52, #134 ) ;
#225 = VERTEX_POINT ( 'NONE', #100 ) ;
#226 = ADVANCED_FACE ( 'NONE', ( #165, #125 ), #189, .T. ) ;
#227 = DIRECTION ( 'NONE',  ( 1.554627552060321929E-30, 1.000000000000000000, 4.327174794786742882E-16 ) ) ;
#228 = CARTESIAN_POINT ( 'NONE',  ( 7.681258945454893382E-14, -2.850000000000013856, 22.00000000000000000 ) ) ;
#229 = FACE_OUTER_BOUND ( 'NONE', #159, .T. ) ;
#230 = AXIS2_PLACEMENT_3D ( 'NONE', #208, #79, #149 ) ;
#231 = PRODUCT ( '966751', '966751', '', ( #237 ) ) ;
#232 = VERTEX_POINT ( 'NONE', #39 ) ;
#233 = DIRECTION ( 'NONE',  ( 0.0000000000000000000, -1.000000000000000000, 0.0000000000000000000 ) ) ;
#234 = CALENDAR_DATE ( 2021, 13, 10 ) ;
#235 = PERSON_AND_ORGANIZATION ( #175, #88 ) ;
#236 = APPLICATION_CONTEXT ( 'configuration controlled 3d designs of mechanical parts and assemblies' ) ;
#237 = MECHANICAL_CONTEXT ( 'NONE', #236, 'mechanical' ) ;
#238 = CALENDAR_DATE ( 2021, 13, 10 ) ;
#239 = CARTESIAN_POINT ( 'NONE',  ( 2.304377683636468267E-13, 1.724723750061122017E-32, 66.00000000000000000 ) ) ;
#240 = DESIGN_CONTEXT ( 'detailed design', #114, 'design' ) ;
#241 = DATE_TIME_ROLE ( 'classification_date' ) ;
#242 = ADVANCED_FACE ( 'NONE', ( #102 ), #20, .T. ) ;
#243 = CIRCLE ( 'NONE', #19, 2.850000000000004530 ) ;
#244 = ORIENTED_EDGE ( 'NONE', *, *, #89, .F. ) ;
#245 = EDGE_LOOP ( 'NONE', ( #116 ) ) ;
#246 = EDGE_LOOP ( 'NONE', ( #163 ) ) ;
#247 = LOCAL_TIME ( 13, 36, 32.00000000000000000, #136 ) ;
#248 = CIRCLE ( 'NONE', #133, 2.850000000000009415 ) ;
#249 = FACE_BOUND ( 'NONE', #190, .T. ) ;
#250 =( NAMED_UNIT ( * ) SI_UNIT ( $, .STERADIAN. ) SOLID_ANGLE_UNIT ( ) );
#251 = DIRECTION ( 'NONE',  ( 0.0000000000000000000, -1.000000000000000000, 0.0000000000000000000 ) ) ;
#252 = APPLICATION_PROTOCOL_DEFINITION ( 'international standard', 'config_control_design', 1994, #236 ) ;
#253 = CARTESIAN_POINT ( 'NONE',  ( 0.0000000000000000000, 0.0000000000000000000, 0.0000000000000000000 ) ) ;
#254 = PERSON_AND_ORGANIZATION_ROLE ( 'design_supplier' ) ;
#255 = CC_DESIGN_SECURITY_CLASSIFICATION ( #29, ( #215 ) ) ;
#256 = AXIS2_PLACEMENT_3D ( 'NONE', #213, #28, #227 ) ;
#257 = APPROVAL_ROLE ( '' ) ;
#258 = APPROVAL_PERSON_ORGANIZATION ( #154, #263, #34 ) ;
#259 = ORIENTED_EDGE ( 'NONE', *, *, #99, .T. ) ;
#260 = EDGE_LOOP ( 'NONE', ( #262 ) ) ;
#261 = CONICAL_SURFACE ( 'NONE', #148, 2.999999999999989342, 1.221730476396026610 ) ;
#262 = ORIENTED_EDGE ( 'NONE', *, *, #122, .T. ) ;
#263 = APPROVAL ( #155, 'UNSPECIFIED' ) ;
ENDSEC;
END-ISO-10303-21;
