ISO-10303-21;
HEADER;
FILE_DESCRIPTION (( 'STEP AP203' ),
    '1' );
FILE_NAME ('966750.step',
    '2021-10-13T11:36:32',
    ( '' ),
    ( '' ),
    'SwSTEP 2.0',
    'SolidWorks 2019',
    '' );
FILE_SCHEMA (( 'CONFIG_CONTROL_DESIGN' ));
ENDSEC;

DATA;
#1 = ORIENTED_EDGE ( 'NONE', *, *, #232, .F. ) ;
#2 = DIRECTION ( 'NONE',  ( 1.510825004591027679E-30, 1.000000000000000000, 4.327174794786742389E-16 ) ) ;
#3 = CIRCLE ( 'NONE', #86, 2.999999999999996891 ) ;
#4 = DIRECTION ( 'NONE',  ( 4.275831445896959482E-31, 1.000000000000000000, 1.224646799147353454E-16 ) ) ;
#5 = DIRECTION ( 'NONE',  ( 1.556025505702958719E-30, 1.000000000000000000, 4.327174794786743375E-16 ) ) ;
#6 = PERSON_AND_ORGANIZATION_ROLE ( 'design_owner' ) ;
#7 = DIRECTION ( 'NONE',  ( -3.491481338843133355E-15, 1.224646799147353207E-16, -1.000000000000000000 ) ) ;
#8 = PERSON_AND_ORGANIZATION ( #208, #141 ) ;
#9 = CC_DESIGN_PERSON_AND_ORGANIZATION_ASSIGNMENT ( #98, #16, ( #261 ) ) ;
#10 = DIRECTION ( 'NONE',  ( -3.491481338843133355E-15, 4.327174794786742882E-16, -1.000000000000000000 ) ) ;
#11 = AXIS2_PLACEMENT_3D ( 'NONE', #52, #7, #4 ) ;
#12 = AXIS2_PLACEMENT_3D ( 'NONE', #239, #76, #257 ) ;
#13 = FACE_BOUND ( 'NONE', #47, .T. ) ;
#14 = CALENDAR_DATE ( 2021, 13, 10 ) ;
#15 = MANIFOLD_SOLID_BREP ( 'Corps-Déplacer/Copier1[2]', #201 ) ;
#16 = PERSON_AND_ORGANIZATION_ROLE ( 'design_supplier' ) ;
#17 = CIRCLE ( 'NONE', #168, 2.700000000000008171 ) ;
#18 = COORDINATED_UNIVERSAL_TIME_OFFSET ( 1, 0, .AHEAD. ) ;
#19 = APPROVAL_DATE_TIME ( #203, #253 ) ;
#20 = ADVANCED_FACE ( 'NONE', ( #235, #50 ), #32, .T. ) ;
#21 = PERSON_AND_ORGANIZATION ( #208, #141 ) ;
#22 = AXIS2_PLACEMENT_3D ( 'NONE', #106, #151, #2 ) ;
#23 = ORIENTED_EDGE ( 'NONE', *, *, #163, .F. ) ;
#24 = ORIENTED_EDGE ( 'NONE', *, *, #192, .F. ) ;
#25 = CONICAL_SURFACE ( 'NONE', #77, 3.500000000000006661, 0.5235987755983005920 ) ;
#26 = LOCAL_TIME ( 13, 36, 32.00000000000000000, #56 ) ;
#27 = EDGE_LOOP ( 'NONE', ( #42 ) ) ;
#28 = EDGE_LOOP ( 'NONE', ( #83 ) ) ;
#29 = AXIS2_PLACEMENT_3D ( 'NONE', #237, #49, #130 ) ;
#30 = DIRECTION ( 'NONE',  ( -4.275831445896958607E-31, -1.000000000000000000, -1.224646799147353207E-16 ) ) ;
#31 = FACE_OUTER_BOUND ( 'NONE', #182, .T. ) ;
#32 = CYLINDRICAL_SURFACE ( 'NONE', #11, 2.999999999999994227 ) ;
#33 = VERTEX_POINT ( 'NONE', #91 ) ;
#34 = DIRECTION ( 'NONE',  ( 0.0000000000000000000, 1.000000000000000000, 0.0000000000000000000 ) ) ;
#35 = EDGE_CURVE ( 'NONE', #122, #122, #194, .T. ) ;
#36 = SECURITY_CLASSIFICATION_LEVEL ( 'unclassified' ) ;
#37 = AXIS2_PLACEMENT_3D ( 'NONE', #53, #200, #214 ) ;
#38 = APPROVAL_STATUS ( 'not_yet_approved' ) ;
#39 = DIRECTION ( 'NONE',  ( 0.0000000000000000000, -1.000000000000000000, 0.0000000000000000000 ) ) ;
#40 = COORDINATED_UNIVERSAL_TIME_OFFSET ( 1, 0, .AHEAD. ) ;
#41 = APPROVAL ( #38, 'UNSPECIFIED' ) ;
#42 = ORIENTED_EDGE ( 'NONE', *, *, #84, .T. ) ;
#43 = CARTESIAN_POINT ( 'NONE',  ( 6.982962677686266711E-14, -8.654349589573485764E-15, 20.00000000000000000 ) ) ;
#44 = ORIENTED_EDGE ( 'NONE', *, *, #124, .T. ) ;
#45 = CARTESIAN_POINT ( 'NONE',  ( 3.431147258254034522E-15, -1.203484452423363515E-16, 0.9827196325187605996 ) ) ;
#46 = AXIS2_PLACEMENT_3D ( 'NONE', #75, #109, #258 ) ;
#47 = EDGE_LOOP ( 'NONE', ( #24 ) ) ;
#48 = EDGE_LOOP ( 'NONE', ( #44 ) ) ;
#49 = DIRECTION ( 'NONE',  ( -3.491481338843133355E-15, 1.224646799147353207E-16, -1.000000000000000000 ) ) ;
#50 = FACE_OUTER_BOUND ( 'NONE', #63, .T. ) ;
#51 =( NAMED_UNIT ( * ) PLANE_ANGLE_UNIT ( ) SI_UNIT ( $, .RADIAN. ) );
#52 = CARTESIAN_POINT ( 'NONE',  ( 0.0000000000000000000, 0.0000000000000000000, 0.0000000000000000000 ) ) ;
#53 = CARTESIAN_POINT ( 'NONE',  ( 2.304377683636468267E-13, 1.724723750061122017E-32, 66.00000000000000000 ) ) ;
#54 = CARTESIAN_POINT ( 'NONE',  ( 9.701976267566232338E-14, -3.000000000000006661, 27.78756443470175697 ) ) ;
#55 = AXIS2_PLACEMENT_3D ( 'NONE', #152, #133, #5 ) ;
#56 = COORDINATED_UNIVERSAL_TIME_OFFSET ( 1, 0, .AHEAD. ) ;
#57 = PERSON_AND_ORGANIZATION ( #208, #141 ) ;
#58 = CIRCLE ( 'NONE', #46, 2.700000000000004619 ) ;
#59 = ADVANCED_FACE ( 'NONE', ( #153, #92 ), #250, .T. ) ;
#60 = APPROVAL_PERSON_ORGANIZATION ( #57, #146, #227 ) ;
#61 = CALENDAR_DATE ( 2021, 13, 10 ) ;
#62 = CC_DESIGN_PERSON_AND_ORGANIZATION_ASSIGNMENT ( #186, #205, ( #189 ) ) ;
#63 = EDGE_LOOP ( 'NONE', ( #123 ) ) ;
#64 = ORIENTED_EDGE ( 'NONE', *, *, #220, .F. ) ;
#65 = EDGE_LOOP ( 'NONE', ( #105 ) ) ;
#66 = CC_DESIGN_PERSON_AND_ORGANIZATION_ASSIGNMENT ( #160, #79, ( #261 ) ) ;
#67 = DIRECTION ( 'NONE',  ( -3.491481338843133355E-15, 1.224646799147353207E-16, -1.000000000000000000 ) ) ;
#68 = CYLINDRICAL_SURFACE ( 'NONE', #22, 2.700000000000004619 ) ;
#69 = DIRECTION ( 'NONE',  ( 3.491481338843133355E-15, -4.327174794786742882E-16, 1.000000000000000000 ) ) ;
#70 = CC_DESIGN_PERSON_AND_ORGANIZATION_ASSIGNMENT ( #128, #6, ( #255 ) ) ;
#71 = DIRECTION ( 'NONE',  ( 0.0000000000000000000, 1.000000000000000000, 0.0000000000000000000 ) ) ;
#72 = AXIS2_PLACEMENT_3D ( 'NONE', #254, #218, #74 ) ;
#73 = PRODUCT_DEFINITION_SHAPE ( 'NONE', 'NONE',  #189 ) ;
#74 = DIRECTION ( 'NONE',  ( -5.135813185032647042E-31, -1.000000000000000000, -1.445602896647344340E-16 ) ) ;
#75 = CARTESIAN_POINT ( 'NONE',  ( 6.982962677686266711E-14, -8.654349589573485764E-15, 20.00000000000000000 ) ) ;
#76 = DIRECTION ( 'NONE',  ( 0.0000000000000000000, 0.0000000000000000000, 1.000000000000000000 ) ) ;
#77 = AXIS2_PLACEMENT_3D ( 'NONE', #137, #143, #39 ) ;
#78 = LOCAL_TIME ( 13, 36, 32.00000000000000000, #40 ) ;
#79 = PERSON_AND_ORGANIZATION_ROLE ( 'creator' ) ;
#80 = CIRCLE ( 'NONE', #190, 2.833974596215571129 ) ;
#81 = LOCAL_TIME ( 13, 36, 32.00000000000000000, #138 ) ;
#82 = DATE_AND_TIME ( #61, #81 ) ;
#83 = ORIENTED_EDGE ( 'NONE', *, *, #124, .F. ) ;
#84 = EDGE_CURVE ( 'NONE', #115, #115, #17, .T. ) ;
#85 = ORIENTED_EDGE ( 'NONE', *, *, #35, .T. ) ;
#86 = AXIS2_PLACEMENT_3D ( 'NONE', #221, #67, #166 ) ;
#87 = CARTESIAN_POINT ( 'NONE',  ( 0.0000000000000000000, 0.0000000000000000000, 0.0000000000000000000 ) ) ;
#88 = DIRECTION ( 'NONE',  ( 1.510825004591027679E-30, 1.000000000000000000, 4.327174794786742389E-16 ) ) ;
#89 = DIRECTION ( 'NONE',  ( 0.0000000000000000000, 1.000000000000000000, 0.0000000000000000000 ) ) ;
#90 = CARTESIAN_POINT ( 'NONE',  ( 6.982962677686266711E-14, 2.249639673992776559E-32, 20.00000000000000000 ) ) ;
#91 = CARTESIAN_POINT ( 'NONE',  ( 3.431147258254033339E-15, -2.700000000000004619, 0.9827196325187601555 ) ) ;
#92 = FACE_BOUND ( 'NONE', #48, .T. ) ;
#93 = VERTEX_POINT ( 'NONE', #136 ) ;
#94 = CALENDAR_DATE ( 2021, 13, 10 ) ;
#95 = DIRECTION ( 'NONE',  ( -4.279844320860517014E-31, -1.000000000000000000, -1.606225440719263162E-16 ) ) ;
#96 = CC_DESIGN_PERSON_AND_ORGANIZATION_ASSIGNMENT ( #21, #144, ( #175 ) ) ;
#97 = DATE_AND_TIME ( #242, #229 ) ;
#98 = PERSON_AND_ORGANIZATION ( #208, #141 ) ;
#99 = CIRCLE ( 'NONE', #173, 2.700000000000004619 ) ;
#100 = EDGE_LOOP ( 'NONE', ( #23 ) ) ;
#101 = CARTESIAN_POINT ( 'NONE',  ( 6.982962677686266711E-14, 2.249639673992776559E-32, 20.00000000000000000 ) ) ;
#102 = ORIENTED_EDGE ( 'NONE', *, *, #84, .F. ) ;
#103 = MANIFOLD_SOLID_BREP ( 'Corps-Déplacer/Copier1[1]', #135 ) ;
#104 = LOCAL_TIME ( 13, 36, 32.00000000000000000, #18 ) ;
#105 = ORIENTED_EDGE ( 'NONE', *, *, #220, .T. ) ;
#106 = CARTESIAN_POINT ( 'NONE',  ( 0.0000000000000000000, 0.0000000000000000000, 0.0000000000000000000 ) ) ;
#107 = FACE_OUTER_BOUND ( 'NONE', #249, .T. ) ;
#108 = APPROVAL_PERSON_ORGANIZATION ( #8, #253, #225 ) ;
#109 = DIRECTION ( 'NONE',  ( -3.491481338843133355E-15, 1.224646799147353207E-16, -1.000000000000000000 ) ) ;
#110 = DIRECTION ( 'NONE',  ( -3.491481338843133355E-15, 4.327174794786742882E-16, -1.000000000000000000 ) ) ;
#111 = DIRECTION ( 'NONE',  ( 0.0000000000000000000, -1.000000000000000000, 0.0000000000000000000 ) ) ;
#112 = APPROVAL_PERSON_ORGANIZATION ( #207, #41, #246 ) ;
#113 = DIRECTION ( 'NONE',  ( -3.491481338843133355E-15, 1.224646799147353207E-16, -1.000000000000000000 ) ) ;
#114 = VERTEX_POINT ( 'NONE', #181 ) ;
#115 = VERTEX_POINT ( 'NONE', #177 ) ;
#116 = DATE_AND_TIME ( #94, #104 ) ;
#117 = ADVANCED_FACE ( 'NONE', ( #180 ), #212, .F. ) ;
#118 = SHAPE_DEFINITION_REPRESENTATION ( #73, #262 ) ;
#119 = APPROVAL_DATE_TIME ( #97, #146 ) ;
#120 = ADVANCED_FACE ( 'NONE', ( #202, #107 ), #193, .T. ) ;
#121 = AXIS2_PLACEMENT_3D ( 'NONE', #101, #185, #145 ) ;
#122 = VERTEX_POINT ( 'NONE', #54 ) ;
#123 = ORIENTED_EDGE ( 'NONE', *, *, #206, .T. ) ;
#124 = EDGE_CURVE ( 'NONE', #114, #114, #179, .T. ) ;
#125 = FACE_OUTER_BOUND ( 'NONE', #171, .T. ) ;
#126 = FACE_OUTER_BOUND ( 'NONE', #27, .T. ) ;
#127 = DIRECTION ( 'NONE',  ( 3.491481338843133355E-15, -1.224646799147353207E-16, 1.000000000000000000 ) ) ;
#128 = PERSON_AND_ORGANIZATION ( #208, #141 ) ;
#129 = CARTESIAN_POINT ( 'NONE',  ( 9.426999614876460059E-14, -1.168337194592420578E-14, 27.00000000000000000 ) ) ;
#130 = DIRECTION ( 'NONE',  ( 0.0000000000000000000, 1.000000000000000000, 0.0000000000000000000 ) ) ;
#131 = APPROVAL_STATUS ( 'not_yet_approved' ) ;
#132 = ADVANCED_FACE ( 'NONE', ( #251 ), #260, .F. ) ;
#133 = DIRECTION ( 'NONE',  ( -3.491481338843133355E-15, 4.327174794786742882E-16, -1.000000000000000000 ) ) ;
#134 = VERTEX_POINT ( 'NONE', #217 ) ;
#135 = CLOSED_SHELL ( 'NONE', ( #20, #59, #117, #228, #197, #167, #132 ) ) ;
#136 = CARTESIAN_POINT ( 'NONE',  ( 2.279937314264566018E-13, 2.999999999999989342, 65.29999999999999716 ) ) ;
#137 = CARTESIAN_POINT ( 'NONE',  ( 1.000434742119398530E-13, -1.239890917292550832E-14, 28.65358983848621577 ) ) ;
#138 = COORDINATED_UNIVERSAL_TIME_OFFSET ( 1, 0, .AHEAD. ) ;
#139 = UNCERTAINTY_MEASURE_WITH_UNIT (LENGTH_MEASURE( 1.000000000000000082E-05 ), #213, 'distance_accuracy_value', 'NONE');
#140 = AXIS2_PLACEMENT_3D ( 'NONE', #43, #170, #147 ) ;
#141 = ORGANIZATION ( 'UNSPECIFIED', 'UNSPECIFIED', '' ) ;
#142 = DATE_AND_TIME ( #14, #78 ) ;
#143 = DIRECTION ( 'NONE',  ( 3.491481338843133355E-15, -4.327174794786742882E-16, 1.000000000000000000 ) ) ;
#144 = PERSON_AND_ORGANIZATION_ROLE ( 'classification_officer' ) ;
#145 = DIRECTION ( 'NONE',  ( -4.275831445896958607E-31, -1.000000000000000000, -1.224646799147353207E-16 ) ) ;
#146 = APPROVAL ( #184, 'UNSPECIFIED' ) ;
#147 = DIRECTION ( 'NONE',  ( 0.0000000000000000000, -1.000000000000000000, 0.0000000000000000000 ) ) ;
#148 = CONICAL_SURFACE ( 'NONE', #72, 2.999999999999989342, 1.221730476396026610 ) ;
#149 = ORIENTED_EDGE ( 'NONE', *, *, #192, .T. ) ;
#150 = MECHANICAL_CONTEXT ( 'NONE', #226, 'mechanical' ) ;
#151 = DIRECTION ( 'NONE',  ( -3.491481338843133355E-15, 4.327174794786742882E-16, -1.000000000000000000 ) ) ;
#152 = CARTESIAN_POINT ( 'NONE',  ( 9.426999614876460059E-14, -1.170938346284344789E-14, 27.00000000000000000 ) ) ;
#153 = FACE_OUTER_BOUND ( 'NONE', #263, .T. ) ;
#154 = CC_DESIGN_DATE_AND_TIME_ASSIGNMENT ( #116, #164, ( #189 ) ) ;
#155 = CARTESIAN_POINT ( 'NONE',  ( 9.601573681818617358E-14, -1.189973068566354293E-14, 27.50000000000000000 ) ) ;
#156 = FACE_OUTER_BOUND ( 'NONE', #165, .T. ) ;
#157 = VERTEX_POINT ( 'NONE', #234 ) ;
#158 = APPROVAL_DATE_TIME ( #82, #41 ) ;
#159 = DESIGN_CONTEXT ( 'detailed design', #240, 'design' ) ;
#160 = PERSON_AND_ORGANIZATION ( #208, #141 ) ;
#161 = AXIS2_PLACEMENT_3D ( 'NONE', #233, #113, #89 ) ;
#162 = CC_DESIGN_APPROVAL ( #41, ( #261 ) ) ;
#163 = EDGE_CURVE ( 'NONE', #157, #157, #58, .T. ) ;
#164 = DATE_TIME_ROLE ( 'creation_date' ) ;
#165 = EDGE_LOOP ( 'NONE', ( #102 ) ) ;
#166 = DIRECTION ( 'NONE',  ( 0.0000000000000000000, 1.000000000000000000, 0.0000000000000000000 ) ) ;
#167 = ADVANCED_FACE ( 'NONE', ( #156, #31 ), #243, .F. ) ;
#168 = AXIS2_PLACEMENT_3D ( 'NONE', #129, #236, #71 ) ;
#169 = CC_DESIGN_SECURITY_CLASSIFICATION ( #175, ( #261 ) ) ;
#170 = DIRECTION ( 'NONE',  ( -3.491481338843133355E-15, 1.224646799147353207E-16, -1.000000000000000000 ) ) ;
#171 = EDGE_LOOP ( 'NONE', ( #248 ) ) ;
#172 = EDGE_LOOP ( 'NONE', ( #85 ) ) ;
#173 = AXIS2_PLACEMENT_3D ( 'NONE', #45, #223, #95 ) ;
#174 = ADVANCED_FACE ( 'NONE', ( #125 ), #148, .T. ) ;
#175 = SECURITY_CLASSIFICATION ( '', '', #36 ) ;
#176 = ORIENTED_EDGE ( 'NONE', *, *, #163, .T. ) ;
#177 = CARTESIAN_POINT ( 'NONE',  ( 9.426999614876460059E-14, 2.699999999999996625, 27.00000000000000000 ) ) ;
#178 =( NAMED_UNIT ( * ) SI_UNIT ( $, .STERADIAN. ) SOLID_ANGLE_UNIT ( ) );
#179 = CIRCLE ( 'NONE', #161, 2.299999999999996714 ) ;
#180 = FACE_OUTER_BOUND ( 'NONE', #28, .T. ) ;
#181 = CARTESIAN_POINT ( 'NONE',  ( 2.304377683636468267E-13, 2.299999999999988720, 66.00000000000000000 ) ) ;
#182 = EDGE_LOOP ( 'NONE', ( #149 ) ) ;
#183 = APPLICATION_PROTOCOL_DEFINITION ( 'international standard', 'config_control_design', 1994, #226 ) ;
#184 = APPROVAL_STATUS ( 'not_yet_approved' ) ;
#185 = DIRECTION ( 'NONE',  ( 3.491481338843133355E-15, -1.224646799147353207E-16, 1.000000000000000000 ) ) ;
#186 = PERSON_AND_ORGANIZATION ( #208, #141 ) ;
#187 = FACE_OUTER_BOUND ( 'NONE', #100, .T. ) ;
#188 = ORIENTED_EDGE ( 'NONE', *, *, #206, .F. ) ;
#189 = PRODUCT_DEFINITION ( 'UNKNOWN', '', #261, #159 ) ;
#190 = AXIS2_PLACEMENT_3D ( 'NONE', #155, #110, #34 ) ;
#191 = AXIS2_PLACEMENT_3D ( 'NONE', #90, #127, #30 ) ;
#192 = EDGE_CURVE ( 'NONE', #215, #215, #80, .T. ) ;
#193 = CYLINDRICAL_SURFACE ( 'NONE', #219, 2.700000000000004619 ) ;
#194 = CIRCLE ( 'NONE', #209, 2.999999999999994227 ) ;
#195 = FACE_OUTER_BOUND ( 'NONE', #256, .T. ) ;
#196 =( GEOMETRIC_REPRESENTATION_CONTEXT ( 3 ) GLOBAL_UNCERTAINTY_ASSIGNED_CONTEXT ( ( #139 ) ) GLOBAL_UNIT_ASSIGNED_CONTEXT ( ( #213, #51, #178 ) ) REPRESENTATION_CONTEXT ( 'NONE', 'WORKASPACE' ) );
#197 = ADVANCED_FACE ( 'NONE', ( #13, #211 ), #25, .T. ) ;
#198 = EDGE_LOOP ( 'NONE', ( #238 ) ) ;
#199 = APPLICATION_PROTOCOL_DEFINITION ( 'international standard', 'config_control_design', 1994, #240 ) ;
#200 = DIRECTION ( 'NONE',  ( -3.491481338843133355E-15, 1.224646799147353207E-16, -1.000000000000000000 ) ) ;
#201 = CLOSED_SHELL ( 'NONE', ( #174, #120, #259 ) ) ;
#202 = FACE_OUTER_BOUND ( 'NONE', #230, .T. ) ;
#203 = DATE_AND_TIME ( #222, #26 ) ;
#204 = CC_DESIGN_APPROVAL ( #253, ( #189 ) ) ;
#205 = PERSON_AND_ORGANIZATION_ROLE ( 'creator' ) ;
#206 = EDGE_CURVE ( 'NONE', #93, #93, #3, .T. ) ;
#207 = PERSON_AND_ORGANIZATION ( #208, #141 ) ;
#208 = PERSON ( 'UNSPECIFIED', 'UNSPECIFIED', 'UNSPECIFIED', ('UNSPECIFIED'), ('UNSPECIFIED'), ('UNSPECIFIED') ) ;
#209 = AXIS2_PLACEMENT_3D ( 'NONE', #216, #69, #111 ) ;
#210 = CC_DESIGN_DATE_AND_TIME_ASSIGNMENT ( #142, #245, ( #175 ) ) ;
#211 = FACE_OUTER_BOUND ( 'NONE', #198, .T. ) ;
#212 = PLANE ( 'NONE',  #37 ) ;
#213 =( LENGTH_UNIT ( ) NAMED_UNIT ( * ) SI_UNIT ( .MILLI., .METRE. ) );
#214 = DIRECTION ( 'NONE',  ( 4.275831445896958607E-31, 1.000000000000000000, 1.224646799147353207E-16 ) ) ;
#215 = VERTEX_POINT ( 'NONE', #252 ) ;
#216 = CARTESIAN_POINT ( 'NONE',  ( 9.701976267566232338E-14, -1.202416484303539797E-14, 27.78756443470175697 ) ) ;
#217 = CARTESIAN_POINT ( 'NONE',  ( 6.982962677686266711E-14, -2.700000000000013056, 20.00000000000000000 ) ) ;
#218 = DIRECTION ( 'NONE',  ( 3.491481338843133355E-15, -1.224646799147353207E-16, 1.000000000000000000 ) ) ;
#219 = AXIS2_PLACEMENT_3D ( 'NONE', #87, #10, #88 ) ;
#220 = EDGE_CURVE ( 'NONE', #134, #134, #241, .T. ) ;
#221 = CARTESIAN_POINT ( 'NONE',  ( 2.279937314264566018E-13, -7.996943598432214956E-15, 65.29999999999999716 ) ) ;
#222 = CALENDAR_DATE ( 2021, 13, 10 ) ;
#223 = DIRECTION ( 'NONE',  ( -3.491481338843133355E-15, 1.224646799147353207E-16, -1.000000000000000000 ) ) ;
#224 = COORDINATED_UNIVERSAL_TIME_OFFSET ( 1, 0, .AHEAD. ) ;
#225 = APPROVAL_ROLE ( '' ) ;
#226 = APPLICATION_CONTEXT ( 'configuration controlled 3d designs of mechanical parts and assemblies' ) ;
#227 = APPROVAL_ROLE ( '' ) ;
#228 = ADVANCED_FACE ( 'NONE', ( #126, #195 ), #68, .T. ) ;
#229 = LOCAL_TIME ( 13, 36, 32.00000000000000000, #224 ) ;
#230 = EDGE_LOOP ( 'NONE', ( #176 ) ) ;
#231 = PRODUCT_RELATED_PRODUCT_CATEGORY ( 'detail', '', ( #255 ) ) ;
#232 = EDGE_CURVE ( 'NONE', #33, #33, #99, .T. ) ;
#233 = CARTESIAN_POINT ( 'NONE',  ( 2.304377683636468267E-13, -8.082668874372532400E-15, 66.00000000000000000 ) ) ;
#234 = CARTESIAN_POINT ( 'NONE',  ( 6.982962677686266711E-14, -2.700000000000013056, 20.00000000000000000 ) ) ;
#235 = FACE_OUTER_BOUND ( 'NONE', #172, .T. ) ;
#236 = DIRECTION ( 'NONE',  ( -3.491481338843133355E-15, 4.327174794786742882E-16, -1.000000000000000000 ) ) ;
#237 = CARTESIAN_POINT ( 'NONE',  ( 2.304377683636468267E-13, -8.082668874372532400E-15, 66.00000000000000000 ) ) ;
#238 = ORIENTED_EDGE ( 'NONE', *, *, #35, .F. ) ;
#239 = CARTESIAN_POINT ( 'NONE',  ( 0.0000000000000000000, 0.0000000000000000000, 0.0000000000000000000 ) ) ;
#240 = APPLICATION_CONTEXT ( 'configuration controlled 3d designs of mechanical parts and assemblies' ) ;
#241 = CIRCLE ( 'NONE', #140, 2.700000000000004619 ) ;
#242 = CALENDAR_DATE ( 2021, 13, 10 ) ;
#243 = TOROIDAL_SURFACE ( 'NONE', #55, 3.700000000000009059, 1.000000000000000000 ) ;
#244 = CC_DESIGN_APPROVAL ( #146, ( #175 ) ) ;
#245 = DATE_TIME_ROLE ( 'classification_date' ) ;
#246 = APPROVAL_ROLE ( '' ) ;
#247 = PLANE ( 'NONE',  #121 ) ;
#248 = ORIENTED_EDGE ( 'NONE', *, *, #232, .T. ) ;
#249 = EDGE_LOOP ( 'NONE', ( #1 ) ) ;
#250 = CONICAL_SURFACE ( 'NONE', #29, 2.299999999999996714, 0.7853981633974439491 ) ;
#251 = FACE_OUTER_BOUND ( 'NONE', #65, .T. ) ;
#252 = CARTESIAN_POINT ( 'NONE',  ( 9.601573681818617358E-14, 2.833974596215559583, 27.50000000000000000 ) ) ;
#253 = APPROVAL ( #131, 'UNSPECIFIED' ) ;
#254 = CARTESIAN_POINT ( 'NONE',  ( 3.812385842504463344E-15, -1.337204947137063450E-16, 1.091910702798617239 ) ) ;
#255 = PRODUCT ( '966750', '966750', '', ( #150 ) ) ;
#256 = EDGE_LOOP ( 'NONE', ( #64 ) ) ;
#257 = DIRECTION ( 'NONE',  ( 1.000000000000000000, 0.0000000000000000000, 0.0000000000000000000 ) ) ;
#258 = DIRECTION ( 'NONE',  ( 0.0000000000000000000, -1.000000000000000000, 0.0000000000000000000 ) ) ;
#259 = ADVANCED_FACE ( 'NONE', ( #187 ), #247, .T. ) ;
#260 = PLANE ( 'NONE',  #191 ) ;
#261 = PRODUCT_DEFINITION_FORMATION_WITH_SPECIFIED_SOURCE ( 'ANY', '', #255, .NOT_KNOWN. ) ;
#262 = ADVANCED_BREP_SHAPE_REPRESENTATION ( '966750', ( #103, #15, #12 ), #196 ) ;
#263 = EDGE_LOOP ( 'NONE', ( #188 ) ) ;
ENDSEC;
END-ISO-10303-21;
