ISO-10303-21;
HEADER;
FILE_DESCRIPTION (( 'STEP AP203' ),
    '1' );
FILE_NAME ('966749.step',
    '2021-10-13T11:36:31',
    ( '' ),
    ( '' ),
    'SwSTEP 2.0',
    'SolidWorks 2019',
    '' );
FILE_SCHEMA (( 'CONFIG_CONTROL_DESIGN' ));
ENDSEC;

DATA;
#1 = CARTESIAN_POINT ( 'NONE',  ( 9.601573681818617358E-14, 2.683974596215557895, 27.50000000000000000 ) ) ;
#2 = FACE_OUTER_BOUND ( 'NONE', #12, .T. ) ;
#3 = DIRECTION ( 'NONE',  ( -4.275831445896958607E-31, -1.000000000000000000, -1.224646799147353207E-16 ) ) ;
#4 = CC_DESIGN_APPROVAL ( #239, ( #87 ) ) ;
#5 = FACE_OUTER_BOUND ( 'NONE', #198, .T. ) ;
#6 = ORIENTED_EDGE ( 'NONE', *, *, #81, .F. ) ;
#7 = PERSON_AND_ORGANIZATION_ROLE ( 'design_owner' ) ;
#8 = CARTESIAN_POINT ( 'NONE',  ( 2.304377683636468267E-13, -8.082668874372532400E-15, 66.00000000000000000 ) ) ;
#9 = CIRCLE ( 'NONE', #133, 2.550000000000003819 ) ;
#10 = COORDINATED_UNIVERSAL_TIME_OFFSET ( 1, 0, .AHEAD. ) ;
#11 = PERSON_AND_ORGANIZATION ( #119, #103 ) ;
#12 = EDGE_LOOP ( 'NONE', ( #244 ) ) ;
#13 = ORIENTED_EDGE ( 'NONE', *, *, #223, .F. ) ;
#14 = CC_DESIGN_PERSON_AND_ORGANIZATION_ASSIGNMENT ( #154, #7, ( #97 ) ) ;
#15 =( NAMED_UNIT ( * ) SI_UNIT ( $, .STERADIAN. ) SOLID_ANGLE_UNIT ( ) );
#16 = EDGE_LOOP ( 'NONE', ( #89 ) ) ;
#17 = APPLICATION_CONTEXT ( 'configuration controlled 3d designs of mechanical parts and assemblies' ) ;
#18 = CC_DESIGN_DATE_AND_TIME_ASSIGNMENT ( #57, #33, ( #87 ) ) ;
#19 = CIRCLE ( 'NONE', #98, 2.550000000000003819 ) ;
#20 = LOCAL_TIME ( 13, 36, 31.00000000000000000, #253 ) ;
#21 = FACE_OUTER_BOUND ( 'NONE', #254, .T. ) ;
#22 = EDGE_LOOP ( 'NONE', ( #108 ) ) ;
#23 = FACE_OUTER_BOUND ( 'NONE', #191, .T. ) ;
#24 = DIRECTION ( 'NONE',  ( 0.0000000000000000000, -1.000000000000000000, 0.0000000000000000000 ) ) ;
#25 = EDGE_LOOP ( 'NONE', ( #209 ) ) ;
#26 = DIRECTION ( 'NONE',  ( -3.491481338843133355E-15, 4.327174794786742882E-16, -1.000000000000000000 ) ) ;
#27 = PLANE ( 'NONE',  #71 ) ;
#28 = PLANE ( 'NONE',  #202 ) ;
#29 = CIRCLE ( 'NONE', #251, 2.299999999999996714 ) ;
#30 = DIRECTION ( 'NONE',  ( -3.491481338843133355E-15, 1.224646799147353207E-16, -1.000000000000000000 ) ) ;
#31 = DIRECTION ( 'NONE',  ( 1.510825004591027679E-30, 1.000000000000000000, 4.327174794786742882E-16 ) ) ;
#32 = CALENDAR_DATE ( 2021, 13, 10 ) ;
#33 = DATE_TIME_ROLE ( 'classification_date' ) ;
#34 = APPROVAL_ROLE ( '' ) ;
#35 = CALENDAR_DATE ( 2021, 13, 10 ) ;
#36 = DIRECTION ( 'NONE',  ( 3.491481338843133355E-15, -1.224646799147353207E-16, 1.000000000000000000 ) ) ;
#37 = AXIS2_PLACEMENT_3D ( 'NONE', #60, #55, #124 ) ;
#38 = DIRECTION ( 'NONE',  ( -3.491481338843133355E-15, 1.224646799147353207E-16, -1.000000000000000000 ) ) ;
#39 = SHAPE_DEFINITION_REPRESENTATION ( #181, #213 ) ;
#40 = CIRCLE ( 'NONE', #44, 2.550000000000007816 ) ;
#41 = CC_DESIGN_PERSON_AND_ORGANIZATION_ASSIGNMENT ( #11, #155, ( #87 ) ) ;
#42 = DIRECTION ( 'NONE',  ( 3.491481338843133355E-15, -1.224646799147353207E-16, 1.000000000000000000 ) ) ;
#43 = CARTESIAN_POINT ( 'NONE',  ( 2.304377683636468267E-13, 2.299999999999988720, 66.00000000000000000 ) ) ;
#44 = AXIS2_PLACEMENT_3D ( 'NONE', #130, #228, #135 ) ;
#45 = DIRECTION ( 'NONE',  ( -3.491481338843133355E-15, 1.224646799147353207E-16, -1.000000000000000000 ) ) ;
#46 = EDGE_LOOP ( 'NONE', ( #226 ) ) ;
#47 = DIRECTION ( 'NONE',  ( -3.491481338843133355E-15, 4.327174794786742882E-16, -1.000000000000000000 ) ) ;
#48 = CARTESIAN_POINT ( 'NONE',  ( 6.982962677686266711E-14, -2.550000000000012257, 20.00000000000000000 ) ) ;
#49 = CC_DESIGN_PERSON_AND_ORGANIZATION_ASSIGNMENT ( #115, #80, ( #59 ) ) ;
#50 = DIRECTION ( 'NONE',  ( 1.510825004591027679E-30, 1.000000000000000000, 4.327174794786742882E-16 ) ) ;
#51 = DIRECTION ( 'NONE',  ( 0.0000000000000000000, -1.000000000000000000, 0.0000000000000000000 ) ) ;
#52 = ORIENTED_EDGE ( 'NONE', *, *, #141, .F. ) ;
#53 = DIRECTION ( 'NONE',  ( 1.557515632113242156E-30, 1.000000000000000000, 4.327174794786743375E-16 ) ) ;
#54 = AXIS2_PLACEMENT_3D ( 'NONE', #193, #26, #31 ) ;
#55 = DIRECTION ( 'NONE',  ( -3.491481338843133355E-15, 1.224646799147353207E-16, -1.000000000000000000 ) ) ;
#56 = PERSON_AND_ORGANIZATION ( #119, #103 ) ;
#57 = DATE_AND_TIME ( #35, #94 ) ;
#58 = APPROVAL_PERSON_ORGANIZATION ( #118, #117, #34 ) ;
#59 = PRODUCT_DEFINITION ( 'UNKNOWN', '', #178, #160 ) ;
#60 = CARTESIAN_POINT ( 'NONE',  ( 2.304377683636468267E-13, -8.082668874372532400E-15, 66.00000000000000000 ) ) ;
#61 = DATE_AND_TIME ( #177, #196 ) ;
#62 = PLANE ( 'NONE',  #259 ) ;
#63 = DATE_TIME_ROLE ( 'creation_date' ) ;
#64 = ADVANCED_FACE ( 'NONE', ( #85 ), #195, .T. ) ;
#65 = CC_DESIGN_DATE_AND_TIME_ASSIGNMENT ( #236, #63, ( #59 ) ) ;
#66 = CIRCLE ( 'NONE', #157, 2.550000000000003819 ) ;
#67 = DIRECTION ( 'NONE',  ( -3.491481338843133355E-15, 1.224646799147353207E-16, -1.000000000000000000 ) ) ;
#68 = ORIENTED_EDGE ( 'NONE', *, *, #141, .T. ) ;
#69 = VERTEX_POINT ( 'NONE', #162 ) ;
#70 = EDGE_LOOP ( 'NONE', ( #13 ) ) ;
#71 = AXIS2_PLACEMENT_3D ( 'NONE', #107, #45, #110 ) ;
#72 = CARTESIAN_POINT ( 'NONE',  ( 6.982962677686266711E-14, -8.654349589573485764E-15, 20.00000000000000000 ) ) ;
#73 = DIRECTION ( 'NONE',  ( 0.0000000000000000000, -1.000000000000000000, 0.0000000000000000000 ) ) ;
#74 = ADVANCED_FACE ( 'NONE', ( #90, #211 ), #143, .T. ) ;
#75 = CIRCLE ( 'NONE', #83, 2.999999999999994227 ) ;
#76 = COORDINATED_UNIVERSAL_TIME_OFFSET ( 1, 0, .AHEAD. ) ;
#77 = ADVANCED_FACE ( 'NONE', ( #2, #216 ), #132, .T. ) ;
#78 = CIRCLE ( 'NONE', #93, 2.683974596215569441 ) ;
#79 = CC_DESIGN_APPROVAL ( #129, ( #178 ) ) ;
#80 = PERSON_AND_ORGANIZATION_ROLE ( 'creator' ) ;
#81 = EDGE_CURVE ( 'NONE', #95, #95, #29, .T. ) ;
#82 = APPROVAL_DATE_TIME ( #205, #239 ) ;
#83 = AXIS2_PLACEMENT_3D ( 'NONE', #145, #197, #51 ) ;
#84 = CC_DESIGN_SECURITY_CLASSIFICATION ( #87, ( #178 ) ) ;
#85 = FACE_OUTER_BOUND ( 'NONE', #131, .T. ) ;
#86 = AXIS2_PLACEMENT_3D ( 'NONE', #149, #47, #50 ) ;
#87 = SECURITY_CLASSIFICATION ( '', '', #237 ) ;
#88 = CARTESIAN_POINT ( 'NONE',  ( 2.279937314264566018E-13, 2.999999999999989342, 65.29999999999999716 ) ) ;
#89 = ORIENTED_EDGE ( 'NONE', *, *, #220, .F. ) ;
#90 = FACE_OUTER_BOUND ( 'NONE', #25, .T. ) ;
#91 = CARTESIAN_POINT ( 'NONE',  ( 9.426999614876460059E-14, 2.549999999999996270, 27.00000000000000000 ) ) ;
#92 = DIRECTION ( 'NONE',  ( -3.491481338843133355E-15, 1.224646799147353207E-16, -1.000000000000000000 ) ) ;
#93 = AXIS2_PLACEMENT_3D ( 'NONE', #189, #247, #210 ) ;
#94 = LOCAL_TIME ( 13, 36, 31.00000000000000000, #101 ) ;
#95 = VERTEX_POINT ( 'NONE', #43 ) ;
#96 = CC_DESIGN_PERSON_AND_ORGANIZATION_ASSIGNMENT ( #171, #204, ( #178 ) ) ;
#97 = PRODUCT ( '966749', '966749', '', ( #238 ) ) ;
#98 = AXIS2_PLACEMENT_3D ( 'NONE', #190, #67, #167 ) ;
#99 = APPROVAL_DATE_TIME ( #221, #129 ) ;
#100 = CC_DESIGN_PERSON_AND_ORGANIZATION_ASSIGNMENT ( #252, #174, ( #178 ) ) ;
#101 = COORDINATED_UNIVERSAL_TIME_OFFSET ( 1, 0, .AHEAD. ) ;
#102 = COORDINATED_UNIVERSAL_TIME_OFFSET ( 1, 0, .AHEAD. ) ;
#103 = ORGANIZATION ( 'UNSPECIFIED', 'UNSPECIFIED', '' ) ;
#104 = CALENDAR_DATE ( 2021, 13, 10 ) ;
#105 = DIRECTION ( 'NONE',  ( 0.0000000000000000000, -1.000000000000000000, 0.0000000000000000000 ) ) ;
#106 = EDGE_LOOP ( 'NONE', ( #151 ) ) ;
#107 = CARTESIAN_POINT ( 'NONE',  ( 2.304377683636468267E-13, 1.724723750061122017E-32, 66.00000000000000000 ) ) ;
#108 = ORIENTED_EDGE ( 'NONE', *, *, #81, .T. ) ;
#109 = CARTESIAN_POINT ( 'NONE',  ( 6.982962677686266711E-14, 2.249639673992776559E-32, 20.00000000000000000 ) ) ;
#110 = DIRECTION ( 'NONE',  ( 4.275831445896958607E-31, 1.000000000000000000, 1.224646799147353207E-16 ) ) ;
#111 = EDGE_CURVE ( 'NONE', #168, #168, #78, .T. ) ;
#112 = DIRECTION ( 'NONE',  ( 0.0000000000000000000, 1.000000000000000000, 0.0000000000000000000 ) ) ;
#113 = EDGE_LOOP ( 'NONE', ( #165 ) ) ;
#114 =( NAMED_UNIT ( * ) PLANE_ANGLE_UNIT ( ) SI_UNIT ( $, .RADIAN. ) );
#115 = PERSON_AND_ORGANIZATION ( #119, #103 ) ;
#116 = CC_DESIGN_APPROVAL ( #117, ( #59 ) ) ;
#117 = APPROVAL ( #142, 'UNSPECIFIED' ) ;
#118 = PERSON_AND_ORGANIZATION ( #119, #103 ) ;
#119 = PERSON ( 'UNSPECIFIED', 'UNSPECIFIED', 'UNSPECIFIED', ('UNSPECIFIED'), ('UNSPECIFIED'), ('UNSPECIFIED') ) ;
#120 = APPROVAL_ROLE ( '' ) ;
#121 = ADVANCED_FACE ( 'NONE', ( #23, #263 ), #230, .T. ) ;
#122 = CIRCLE ( 'NONE', #153, 2.999999999999996891 ) ;
#123 = ADVANCED_FACE ( 'NONE', ( #128 ), #62, .T. ) ;
#124 = DIRECTION ( 'NONE',  ( 0.0000000000000000000, 1.000000000000000000, 0.0000000000000000000 ) ) ;
#125 = AXIS2_PLACEMENT_3D ( 'NONE', #248, #232, #73 ) ;
#126 = CARTESIAN_POINT ( 'NONE',  ( 9.426999614876460059E-14, -1.170938346284344789E-14, 27.00000000000000000 ) ) ;
#127 = DIRECTION ( 'NONE',  ( -3.491481338843133355E-15, 1.224646799147353207E-16, -1.000000000000000000 ) ) ;
#128 = FACE_OUTER_BOUND ( 'NONE', #16, .T. ) ;
#129 = APPROVAL ( #136, 'UNSPECIFIED' ) ;
#130 = CARTESIAN_POINT ( 'NONE',  ( 9.426999614876460059E-14, -1.168337194592420578E-14, 27.00000000000000000 ) ) ;
#131 = EDGE_LOOP ( 'NONE', ( #206 ) ) ;
#132 = CYLINDRICAL_SURFACE ( 'NONE', #54, 2.550000000000003819 ) ;
#133 = AXIS2_PLACEMENT_3D ( 'NONE', #72, #127, #24 ) ;
#134 = APPROVAL_PERSON_ORGANIZATION ( #137, #239, #120 ) ;
#135 = DIRECTION ( 'NONE',  ( 0.0000000000000000000, 1.000000000000000000, 0.0000000000000000000 ) ) ;
#136 = APPROVAL_STATUS ( 'not_yet_approved' ) ;
#137 = PERSON_AND_ORGANIZATION ( #119, #103 ) ;
#138 = AXIS2_PLACEMENT_3D ( 'NONE', #172, #169, #156 ) ;
#139 = CALENDAR_DATE ( 2021, 13, 10 ) ;
#140 = CARTESIAN_POINT ( 'NONE',  ( 6.982962677686266711E-14, 2.249639673992776559E-32, 20.00000000000000000 ) ) ;
#141 = EDGE_CURVE ( 'NONE', #185, #185, #66, .T. ) ;
#142 = APPROVAL_STATUS ( 'not_yet_approved' ) ;
#143 = CONICAL_SURFACE ( 'NONE', #37, 2.299999999999996714, 0.7853981633974439491 ) ;
#144 = ADVANCED_FACE ( 'NONE', ( #249, #147 ), #170, .T. ) ;
#145 = CARTESIAN_POINT ( 'NONE',  ( 9.792687613654558730E-14, -1.213658814200243013E-14, 28.04737205583709425 ) ) ;
#146 = EDGE_LOOP ( 'NONE', ( #52 ) ) ;
#147 = FACE_OUTER_BOUND ( 'NONE', #188, .T. ) ;
#148 = CARTESIAN_POINT ( 'NONE',  ( 2.279937314264566018E-13, -7.996943598432214956E-15, 65.29999999999999716 ) ) ;
#149 = CARTESIAN_POINT ( 'NONE',  ( 0.0000000000000000000, 0.0000000000000000000, 0.0000000000000000000 ) ) ;
#150 = CARTESIAN_POINT ( 'NONE',  ( 6.982962677686266711E-14, -2.550000000000012257, 20.00000000000000000 ) ) ;
#151 = ORIENTED_EDGE ( 'NONE', *, *, #173, .F. ) ;
#152 = FACE_OUTER_BOUND ( 'NONE', #70, .T. ) ;
#153 = AXIS2_PLACEMENT_3D ( 'NONE', #148, #243, #112 ) ;
#154 = PERSON_AND_ORGANIZATION ( #119, #103 ) ;
#155 = PERSON_AND_ORGANIZATION_ROLE ( 'classification_officer' ) ;
#156 = DIRECTION ( 'NONE',  ( 1.000000000000000000, 0.0000000000000000000, 0.0000000000000000000 ) ) ;
#157 = AXIS2_PLACEMENT_3D ( 'NONE', #180, #38, #105 ) ;
#158 = APPLICATION_PROTOCOL_DEFINITION ( 'international standard', 'config_control_design', 1994, #163 ) ;
#159 = EDGE_CURVE ( 'NONE', #260, #260, #122, .T. ) ;
#160 = DESIGN_CONTEXT ( 'detailed design', #163, 'design' ) ;
#161 = EDGE_CURVE ( 'NONE', #69, #69, #75, .T. ) ;
#162 = CARTESIAN_POINT ( 'NONE',  ( 9.792687613654558730E-14, -3.000000000000006661, 28.04737205583709425 ) ) ;
#163 = APPLICATION_CONTEXT ( 'configuration controlled 3d designs of mechanical parts and assemblies' ) ;
#164 = VERTEX_POINT ( 'NONE', #48 ) ;
#165 = ORIENTED_EDGE ( 'NONE', *, *, #111, .F. ) ;
#166 = FACE_OUTER_BOUND ( 'NONE', #242, .T. ) ;
#167 = DIRECTION ( 'NONE',  ( -4.531599869146430398E-31, -1.000000000000000000, -1.275531967630003273E-16 ) ) ;
#168 = VERTEX_POINT ( 'NONE', #1 ) ;
#169 = DIRECTION ( 'NONE',  ( 0.0000000000000000000, 0.0000000000000000000, 1.000000000000000000 ) ) ;
#170 = CONICAL_SURFACE ( 'NONE', #125, 3.500000000000006661, 0.5235987755983000369 ) ;
#171 = PERSON_AND_ORGANIZATION ( #119, #103 ) ;
#172 = CARTESIAN_POINT ( 'NONE',  ( 0.0000000000000000000, 0.0000000000000000000, 0.0000000000000000000 ) ) ;
#173 = EDGE_CURVE ( 'NONE', #187, #187, #19, .T. ) ;
#174 = PERSON_AND_ORGANIZATION_ROLE ( 'design_supplier' ) ;
#175 = UNCERTAINTY_MEASURE_WITH_UNIT (LENGTH_MEASURE( 1.000000000000000082E-05 ), #200, 'distance_accuracy_value', 'NONE');
#176 = CLOSED_SHELL ( 'NONE', ( #227, #74, #241, #121, #144, #184, #258 ) ) ;
#177 = CALENDAR_DATE ( 2021, 13, 10 ) ;
#178 = PRODUCT_DEFINITION_FORMATION_WITH_SPECIFIED_SOURCE ( 'ANY', '', #97, .NOT_KNOWN. ) ;
#179 = MANIFOLD_SOLID_BREP ( 'Corps-Déplacer/Copier1[1]', #176 ) ;
#180 = CARTESIAN_POINT ( 'NONE',  ( 6.982962677686266711E-14, -8.654349589573485764E-15, 20.00000000000000000 ) ) ;
#181 = PRODUCT_DEFINITION_SHAPE ( 'NONE', 'NONE',  #59 ) ;
#182 = LOCAL_TIME ( 13, 36, 31.00000000000000000, #76 ) ;
#183 = MANIFOLD_SOLID_BREP ( 'Corps-Déplacer/Copier1[2]', #194 ) ;
#184 = ADVANCED_FACE ( 'NONE', ( #152, #166 ), #240, .F. ) ;
#185 = VERTEX_POINT ( 'NONE', #150 ) ;
#186 = DIRECTION ( 'NONE',  ( -5.135813185032647042E-31, -1.000000000000000000, -1.445602896647344340E-16 ) ) ;
#187 = VERTEX_POINT ( 'NONE', #262 ) ;
#188 = EDGE_LOOP ( 'NONE', ( #229 ) ) ;
#189 = CARTESIAN_POINT ( 'NONE',  ( 9.601573681818617358E-14, -1.189973068566354293E-14, 27.50000000000000000 ) ) ;
#190 = CARTESIAN_POINT ( 'NONE',  ( 3.240527966128810054E-15, -1.136624205066509603E-16, 0.9281240973788293935 ) ) ;
#191 = EDGE_LOOP ( 'NONE', ( #201 ) ) ;
#192 = VERTEX_POINT ( 'NONE', #91 ) ;
#193 = CARTESIAN_POINT ( 'NONE',  ( 0.0000000000000000000, 0.0000000000000000000, 0.0000000000000000000 ) ) ;
#194 = CLOSED_SHELL ( 'NONE', ( #64, #77, #123 ) ) ;
#195 = CONICAL_SURFACE ( 'NONE', #207, 2.999999999999989342, 1.221730476396026610 ) ;
#196 = LOCAL_TIME ( 13, 36, 31.00000000000000000, #102 ) ;
#197 = DIRECTION ( 'NONE',  ( 3.491481338843133355E-15, -4.327174794786742882E-16, 1.000000000000000000 ) ) ;
#198 = EDGE_LOOP ( 'NONE', ( #6 ) ) ;
#199 = PRODUCT_RELATED_PRODUCT_CATEGORY ( 'detail', '', ( #97 ) ) ;
#200 =( LENGTH_UNIT ( ) NAMED_UNIT ( * ) SI_UNIT ( .MILLI., .METRE. ) );
#201 = ORIENTED_EDGE ( 'NONE', *, *, #223, .T. ) ;
#202 = AXIS2_PLACEMENT_3D ( 'NONE', #109, #212, #3 ) ;
#203 = APPLICATION_PROTOCOL_DEFINITION ( 'international standard', 'config_control_design', 1994, #17 ) ;
#204 = PERSON_AND_ORGANIZATION_ROLE ( 'creator' ) ;
#205 = DATE_AND_TIME ( #104, #235 ) ;
#206 = ORIENTED_EDGE ( 'NONE', *, *, #173, .T. ) ;
#207 = AXIS2_PLACEMENT_3D ( 'NONE', #224, #42, #186 ) ;
#208 = APPROVAL_PERSON_ORGANIZATION ( #56, #129, #217 ) ;
#209 = ORIENTED_EDGE ( 'NONE', *, *, #159, .F. ) ;
#210 = DIRECTION ( 'NONE',  ( 0.0000000000000000000, 1.000000000000000000, 0.0000000000000000000 ) ) ;
#211 = FACE_BOUND ( 'NONE', #22, .T. ) ;
#212 = DIRECTION ( 'NONE',  ( 3.491481338843133355E-15, -1.224646799147353207E-16, 1.000000000000000000 ) ) ;
#213 = ADVANCED_BREP_SHAPE_REPRESENTATION ( '966749', ( #179, #183, #138 ), #246 ) ;
#214 = FACE_OUTER_BOUND ( 'NONE', #46, .T. ) ;
#215 = CARTESIAN_POINT ( 'NONE',  ( 0.0000000000000000000, 0.0000000000000000000, 0.0000000000000000000 ) ) ;
#216 = FACE_OUTER_BOUND ( 'NONE', #106, .T. ) ;
#217 = APPROVAL_ROLE ( '' ) ;
#218 = APPROVAL_STATUS ( 'not_yet_approved' ) ;
#219 = AXIS2_PLACEMENT_3D ( 'NONE', #215, #30, #231 ) ;
#220 = EDGE_CURVE ( 'NONE', #164, #164, #9, .T. ) ;
#221 = DATE_AND_TIME ( #32, #20 ) ;
#222 = APPROVAL_DATE_TIME ( #61, #117 ) ;
#223 = EDGE_CURVE ( 'NONE', #192, #192, #40, .T. ) ;
#224 = CARTESIAN_POINT ( 'NONE',  ( 3.812385842504463344E-15, -1.337204947137063450E-16, 1.091910702798617239 ) ) ;
#225 = FACE_OUTER_BOUND ( 'NONE', #255, .T. ) ;
#226 = ORIENTED_EDGE ( 'NONE', *, *, #161, .T. ) ;
#227 = ADVANCED_FACE ( 'NONE', ( #214, #21 ), #233, .T. ) ;
#228 = DIRECTION ( 'NONE',  ( -3.491481338843133355E-15, 4.327174794786742882E-16, -1.000000000000000000 ) ) ;
#229 = ORIENTED_EDGE ( 'NONE', *, *, #161, .F. ) ;
#230 = CYLINDRICAL_SURFACE ( 'NONE', #86, 2.550000000000003819 ) ;
#231 = DIRECTION ( 'NONE',  ( 4.275831445896959482E-31, 1.000000000000000000, 1.224646799147353454E-16 ) ) ;
#232 = DIRECTION ( 'NONE',  ( 3.491481338843133355E-15, -4.327174794786742882E-16, 1.000000000000000000 ) ) ;
#233 = CYLINDRICAL_SURFACE ( 'NONE', #219, 2.999999999999994227 ) ;
#234 = ORIENTED_EDGE ( 'NONE', *, *, #111, .T. ) ;
#235 = LOCAL_TIME ( 13, 36, 31.00000000000000000, #10 ) ;
#236 = DATE_AND_TIME ( #139, #182 ) ;
#237 = SECURITY_CLASSIFICATION_LEVEL ( 'unclassified' ) ;
#238 = MECHANICAL_CONTEXT ( 'NONE', #17, 'mechanical' ) ;
#239 = APPROVAL ( #218, 'UNSPECIFIED' ) ;
#240 = TOROIDAL_SURFACE ( 'NONE', #257, 3.550000000000008260, 1.000000000000000222 ) ;
#241 = ADVANCED_FACE ( 'NONE', ( #5 ), #27, .F. ) ;
#242 = EDGE_LOOP ( 'NONE', ( #234 ) ) ;
#243 = DIRECTION ( 'NONE',  ( -3.491481338843133355E-15, 1.224646799147353207E-16, -1.000000000000000000 ) ) ;
#244 = ORIENTED_EDGE ( 'NONE', *, *, #220, .T. ) ;
#245 = DIRECTION ( 'NONE',  ( -3.491481338843133355E-15, 4.327174794786742882E-16, -1.000000000000000000 ) ) ;
#246 =( GEOMETRIC_REPRESENTATION_CONTEXT ( 3 ) GLOBAL_UNCERTAINTY_ASSIGNED_CONTEXT ( ( #175 ) ) GLOBAL_UNIT_ASSIGNED_CONTEXT ( ( #200, #114, #15 ) ) REPRESENTATION_CONTEXT ( 'NONE', 'WORKASPACE' ) );
#247 = DIRECTION ( 'NONE',  ( -3.491481338843133355E-15, 4.327174794786742882E-16, -1.000000000000000000 ) ) ;
#248 = CARTESIAN_POINT ( 'NONE',  ( 1.009505876728231042E-13, -1.251133247189254206E-14, 28.91339745962154950 ) ) ;
#249 = FACE_BOUND ( 'NONE', #113, .T. ) ;
#250 = DIRECTION ( 'NONE',  ( 0.0000000000000000000, 1.000000000000000000, 0.0000000000000000000 ) ) ;
#251 = AXIS2_PLACEMENT_3D ( 'NONE', #8, #92, #250 ) ;
#252 = PERSON_AND_ORGANIZATION ( #119, #103 ) ;
#253 = COORDINATED_UNIVERSAL_TIME_OFFSET ( 1, 0, .AHEAD. ) ;
#254 = EDGE_LOOP ( 'NONE', ( #261 ) ) ;
#255 = EDGE_LOOP ( 'NONE', ( #68 ) ) ;
#256 = DIRECTION ( 'NONE',  ( -4.275831445896958607E-31, -1.000000000000000000, -1.224646799147353207E-16 ) ) ;
#257 = AXIS2_PLACEMENT_3D ( 'NONE', #126, #245, #53 ) ;
#258 = ADVANCED_FACE ( 'NONE', ( #225 ), #28, .F. ) ;
#259 = AXIS2_PLACEMENT_3D ( 'NONE', #140, #36, #256 ) ;
#260 = VERTEX_POINT ( 'NONE', #88 ) ;
#261 = ORIENTED_EDGE ( 'NONE', *, *, #159, .T. ) ;
#262 = CARTESIAN_POINT ( 'NONE',  ( 3.240527966128808870E-15, -2.550000000000003819, 0.9281240973788290605 ) ) ;
#263 = FACE_OUTER_BOUND ( 'NONE', #146, .T. ) ;
ENDSEC;
END-ISO-10303-21;
