ISO-10303-21;
HEADER;
FILE_DESCRIPTION (( 'STEP AP203' ),
    '1' );
FILE_NAME ('966748.step',
    '2021-10-13T12:57:36',
    ( '' ),
    ( '' ),
    'SwSTEP 2.0',
    'SolidWorks 2019',
    '' );
FILE_SCHEMA (( 'CONFIG_CONTROL_DESIGN' ));
ENDSEC;

DATA;
#1 = ORIENTED_EDGE ( 'NONE', *, *, #41, .F. ) ;
#2 = EDGE_CURVE ( 'NONE', #114, #114, #113, .T. ) ;
#3 = VERTEX_POINT ( 'NONE', #89 ) ;
#4 = DIRECTION ( 'NONE',  ( 1.510825004591027855E-30, 1.000000000000000000, 4.327174794786742882E-16 ) ) ;
#5 = DIRECTION ( 'NONE',  ( 0.0000000000000000000, 1.000000000000000000, 0.0000000000000000000 ) ) ;
#6 = PRODUCT ( '966748', '966748', '', ( #108 ) ) ;
#7 = CC_DESIGN_PERSON_AND_ORGANIZATION_ASSIGNMENT ( #65, #236, ( #211 ) ) ;
#8 = APPLICATION_CONTEXT ( 'configuration controlled 3d designs of mechanical parts and assemblies' ) ;
#9 = AXIS2_PLACEMENT_3D ( 'NONE', #233, #132, #160 ) ;
#10 = DIRECTION ( 'NONE',  ( 3.491481338843133355E-15, -1.224646799147352714E-16, 1.000000000000000000 ) ) ;
#11 = APPROVAL ( #172, 'UNSPECIFIED' ) ;
#12 = CARTESIAN_POINT ( 'NONE',  ( 1.826044740214958808E-13, -2.263112417673466496E-14, 52.29999999999999716 ) ) ;
#13 = ORIENTED_EDGE ( 'NONE', *, *, #195, .F. ) ;
#14 = CIRCLE ( 'NONE', #22, 3.450000000000008615 ) ;
#15 = EDGE_LOOP ( 'NONE', ( #30 ) ) ;
#16 = FACE_OUTER_BOUND ( 'NONE', #38, .T. ) ;
#17 = EDGE_LOOP ( 'NONE', ( #32 ) ) ;
#18 = APPLICATION_PROTOCOL_DEFINITION ( 'international standard', 'config_control_design', 1994, #8 ) ;
#19 = CC_DESIGN_APPROVAL ( #11, ( #211 ) ) ;
#20 = COORDINATED_UNIVERSAL_TIME_OFFSET ( 1, 0, .AHEAD. ) ;
#21 = VERTEX_POINT ( 'NONE', #227 ) ;
#22 = AXIS2_PLACEMENT_3D ( 'NONE', #192, #80, #125 ) ;
#23 = CARTESIAN_POINT ( 'NONE',  ( 4.384243718880161205E-15, -1.537785689207632582E-16, 1.255697308218418184 ) ) ;
#24 = PLANE ( 'NONE',  #166 ) ;
#25 = DIRECTION ( 'NONE',  ( -3.491481338843133355E-15, 1.224646799147352714E-16, -1.000000000000000000 ) ) ;
#26 = CC_DESIGN_PERSON_AND_ORGANIZATION_ASSIGNMENT ( #147, #238, ( #185 ) ) ;
#27 = ORIENTED_EDGE ( 'NONE', *, *, #206, .T. ) ;
#28 = CARTESIAN_POINT ( 'NONE',  ( 3.533379114909250703E-13, -1.239342560737120930E-14, 101.2000000000000028 ) ) ;
#29 = DIRECTION ( 'NONE',  ( 0.0000000000000000000, 1.000000000000000000, 0.0000000000000000000 ) ) ;
#30 = ORIENTED_EDGE ( 'NONE', *, *, #93, .F. ) ;
#31 = CARTESIAN_POINT ( 'NONE',  ( 1.881440671833882745E-13, -2.331767482894168238E-14, 53.88660254037843345 ) ) ;
#32 = ORIENTED_EDGE ( 'NONE', *, *, #195, .T. ) ;
#33 = PERSON_AND_ORGANIZATION ( #213, #51 ) ;
#34 = DATE_AND_TIME ( #225, #115 ) ;
#35 = PERSON_AND_ORGANIZATION ( #213, #51 ) ;
#36 = DIRECTION ( 'NONE',  ( 1.510825004591027855E-30, 1.000000000000000000, 4.327174794786742882E-16 ) ) ;
#37 = AXIS2_PLACEMENT_3D ( 'NONE', #28, #209, #248 ) ;
#38 = EDGE_LOOP ( 'NONE', ( #222 ) ) ;
#39 = AXIS2_PLACEMENT_3D ( 'NONE', #167, #218, #145 ) ;
#40 = AXIS2_PLACEMENT_3D ( 'NONE', #55, #94, #36 ) ;
#41 = EDGE_CURVE ( 'NONE', #157, #157, #77, .T. ) ;
#42 = UNCERTAINTY_MEASURE_WITH_UNIT (LENGTH_MEASURE( 1.000000000000000082E-05 ), #75, 'distance_accuracy_value', 'NONE');
#43 = CIRCLE ( 'NONE', #37, 4.000000000000000000 ) ;
#44 = CARTESIAN_POINT ( 'NONE',  ( 3.561310965619995770E-13, -1.249139735130299616E-14, 102.0000000000000000 ) ) ;
#45 = PERSON_AND_ORGANIZATION ( #213, #51 ) ;
#46 = DIRECTION ( 'NONE',  ( -3.491481338843133355E-15, 1.224646799147352714E-16, -1.000000000000000000 ) ) ;
#47 = EDGE_CURVE ( 'NONE', #246, #246, #249, .T. ) ;
#48 = CALENDAR_DATE ( 2021, 13, 10 ) ;
#49 = SHAPE_DEFINITION_REPRESENTATION ( #101, #96 ) ;
#50 = FACE_OUTER_BOUND ( 'NONE', #121, .T. ) ;
#51 = ORGANIZATION ( 'UNSPECIFIED', 'UNSPECIFIED', '' ) ;
#52 = ORIENTED_EDGE ( 'NONE', *, *, #47, .T. ) ;
#53 = DIRECTION ( 'NONE',  ( 0.0000000000000000000, 1.000000000000000000, 0.0000000000000000000 ) ) ;
#54 = SECURITY_CLASSIFICATION_LEVEL ( 'unclassified' ) ;
#55 = CARTESIAN_POINT ( 'NONE',  ( 1.808587333520742952E-13, -2.255140518769849223E-14, 51.79999999999999716 ) ) ;
#56 = CARTESIAN_POINT ( 'NONE',  ( 3.533379114909250703E-13, 3.999999999999988010, 101.2000000000000028 ) ) ;
#57 = CYLINDRICAL_SURFACE ( 'NONE', #106, 3.450000000000008615 ) ;
#58 = EDGE_LOOP ( 'NONE', ( #199 ) ) ;
#59 = ADVANCED_FACE ( 'NONE', ( #141, #164 ), #208, .T. ) ;
#60 = DESIGN_CONTEXT ( 'detailed design', #98, 'design' ) ;
#61 = CARTESIAN_POINT ( 'NONE',  ( 1.567675121140566561E-13, -1.942901482859247144E-14, 44.89999999999999858 ) ) ;
#62 = PRODUCT_DEFINITION ( 'UNKNOWN', '', #211, #60 ) ;
#63 = DATE_AND_TIME ( #72, #262 ) ;
#64 = CLOSED_SHELL ( 'NONE', ( #234, #59, #203, #143, #189, #239, #180 ) ) ;
#65 = PERSON_AND_ORGANIZATION ( #213, #51 ) ;
#66 = PERSON_AND_ORGANIZATION_ROLE ( 'design_owner' ) ;
#67 = DIRECTION ( 'NONE',  ( -3.491481338843133355E-15, 1.224646799147352714E-16, -1.000000000000000000 ) ) ;
#68 = ADVANCED_FACE ( 'NONE', ( #70 ), #152, .T. ) ;
#69 = DATE_TIME_ROLE ( 'classification_date' ) ;
#70 = FACE_OUTER_BOUND ( 'NONE', #83, .T. ) ;
#71 = DIRECTION ( 'NONE',  ( 3.491481338843133355E-15, -1.224646799147352714E-16, 1.000000000000000000 ) ) ;
#72 = CALENDAR_DATE ( 2021, 13, 10 ) ;
#73 = CARTESIAN_POINT ( 'NONE',  ( 1.567675121140566561E-13, -3.450000000000028155, 44.89999999999999858 ) ) ;
#74 = EDGE_LOOP ( 'NONE', ( #155 ) ) ;
#75 =( LENGTH_UNIT ( ) NAMED_UNIT ( * ) SI_UNIT ( .MILLI., .METRE. ) );
#76 = CARTESIAN_POINT ( 'NONE',  ( 1.851203556471107196E-13, -4.000000000000019540, 53.02057713659396398 ) ) ;
#77 = CIRCLE ( 'NONE', #229, 3.450000000000008615 ) ;
#78 = CC_DESIGN_APPROVAL ( #100, ( #62 ) ) ;
#79 = PRODUCT_RELATED_PRODUCT_CATEGORY ( 'detail', '', ( #6 ) ) ;
#80 = DIRECTION ( 'NONE',  ( -3.491481338843133355E-15, 1.224646799147352714E-16, -1.000000000000000000 ) ) ;
#81 = ORIENTED_EDGE ( 'NONE', *, *, #47, .F. ) ;
#82 = APPROVAL_ROLE ( '' ) ;
#83 = EDGE_LOOP ( 'NONE', ( #52 ) ) ;
#84 = CYLINDRICAL_SURFACE ( 'NONE', #228, 3.999999999999996447 ) ;
#85 = APPROVAL_DATE_TIME ( #87, #100 ) ;
#86 = EDGE_LOOP ( 'NONE', ( #95 ) ) ;
#87 = DATE_AND_TIME ( #104, #174 ) ;
#88 = CLOSED_SHELL ( 'NONE', ( #68, #245, #117 ) ) ;
#89 = CARTESIAN_POINT ( 'NONE',  ( 1.826044740214958808E-13, 3.583974596215557362, 52.29999999999999716 ) ) ;
#90 = EDGE_LOOP ( 'NONE', ( #81 ) ) ;
#91 = DIRECTION ( 'NONE',  ( -3.491481338843133355E-15, 4.327174794786742882E-16, -1.000000000000000000 ) ) ;
#92 = DIRECTION ( 'NONE',  ( -3.491481338843133355E-15, 1.224646799147352714E-16, -1.000000000000000000 ) ) ;
#93 = EDGE_CURVE ( 'NONE', #116, #116, #43, .T. ) ;
#94 = DIRECTION ( 'NONE',  ( -3.491481338843133355E-15, 4.327174794786742882E-16, -1.000000000000000000 ) ) ;
#95 = ORIENTED_EDGE ( 'NONE', *, *, #137, .T. ) ;
#96 = ADVANCED_BREP_SHAPE_REPRESENTATION ( '966748', ( #110, #205, #130 ), #181 ) ;
#97 = AXIS2_PLACEMENT_3D ( 'NONE', #258, #67, #214 ) ;
#98 = APPLICATION_CONTEXT ( 'configuration controlled 3d designs of mechanical parts and assemblies' ) ;
#99 = DIRECTION ( 'NONE',  ( -4.465924508724013908E-31, -1.000000000000000000, -1.257045997084639653E-16 ) ) ;
#100 = APPROVAL ( #263, 'UNSPECIFIED' ) ;
#101 = PRODUCT_DEFINITION_SHAPE ( 'NONE', 'NONE',  #62 ) ;
#102 = AXIS2_PLACEMENT_3D ( 'NONE', #186, #261, #254 ) ;
#103 = AXIS2_PLACEMENT_3D ( 'NONE', #12, #224, #29 ) ;
#104 = CALENDAR_DATE ( 2021, 13, 10 ) ;
#105 = CARTESIAN_POINT ( 'NONE',  ( 0.0000000000000000000, 0.0000000000000000000, 0.0000000000000000000 ) ) ;
#106 = AXIS2_PLACEMENT_3D ( 'NONE', #179, #91, #4 ) ;
#107 = PLANE ( 'NONE',  #97 ) ;
#108 = MECHANICAL_CONTEXT ( 'NONE', #8, 'mechanical' ) ;
#109 = FACE_OUTER_BOUND ( 'NONE', #86, .T. ) ;
#110 = MANIFOLD_SOLID_BREP ( 'Corps-Déplacer/Copier1[1]', #64 ) ;
#111 = EDGE_LOOP ( 'NONE', ( #173 ) ) ;
#112 = PERSON_AND_ORGANIZATION_ROLE ( 'design_supplier' ) ;
#113 = CIRCLE ( 'NONE', #9, 3.999999999999996447 ) ;
#114 = VERTEX_POINT ( 'NONE', #76 ) ;
#115 = LOCAL_TIME ( 14, 57, 36.00000000000000000, #135 ) ;
#116 = VERTEX_POINT ( 'NONE', #56 ) ;
#117 = ADVANCED_FACE ( 'NONE', ( #207 ), #24, .T. ) ;
#118 = DIRECTION ( 'NONE',  ( 0.0000000000000000000, -1.000000000000000000, 0.0000000000000000000 ) ) ;
#119 = AXIS2_PLACEMENT_3D ( 'NONE', #44, #46, #53 ) ;
#120 = DIRECTION ( 'NONE',  ( -3.851859888774483092E-31, -1.000000000000000000, -1.084202172485507639E-16 ) ) ;
#121 = EDGE_LOOP ( 'NONE', ( #27 ) ) ;
#122 = AXIS2_PLACEMENT_3D ( 'NONE', #221, #71, #235 ) ;
#123 = FACE_OUTER_BOUND ( 'NONE', #146, .T. ) ;
#124 = APPROVAL_ROLE ( '' ) ;
#125 = DIRECTION ( 'NONE',  ( 0.0000000000000000000, -1.000000000000000000, 0.0000000000000000000 ) ) ;
#126 = ORIENTED_EDGE ( 'NONE', *, *, #137, .F. ) ;
#127 = CC_DESIGN_DATE_AND_TIME_ASSIGNMENT ( #34, #69, ( #185 ) ) ;
#128 = APPROVAL_DATE_TIME ( #240, #182 ) ;
#129 = CYLINDRICAL_SURFACE ( 'NONE', #39, 3.450000000000008615 ) ;
#130 = AXIS2_PLACEMENT_3D ( 'NONE', #175, #188, #223 ) ;
#131 = LOCAL_TIME ( 14, 57, 36.00000000000000000, #20 ) ;
#132 = DIRECTION ( 'NONE',  ( 3.491481338843133355E-15, -4.327174794786742882E-16, 1.000000000000000000 ) ) ;
#133 = EDGE_LOOP ( 'NONE', ( #1 ) ) ;
#134 = DIRECTION ( 'NONE',  ( 3.491481338843133355E-15, -4.327174794786742882E-16, 1.000000000000000000 ) ) ;
#135 = COORDINATED_UNIVERSAL_TIME_OFFSET ( 1, 0, .AHEAD. ) ;
#136 = CARTESIAN_POINT ( 'NONE',  ( 1.567675121140566561E-13, -3.450000000000028155, 44.89999999999999858 ) ) ;
#137 = EDGE_CURVE ( 'NONE', #154, #154, #183, .T. ) ;
#138 =( NAMED_UNIT ( * ) PLANE_ANGLE_UNIT ( ) SI_UNIT ( $, .RADIAN. ) );
#139 = CARTESIAN_POINT ( 'NONE',  ( 1.808587333520742952E-13, 3.449999999999993960, 51.79999999999999716 ) ) ;
#140 = AXIS2_PLACEMENT_3D ( 'NONE', #23, #25, #99 ) ;
#141 = FACE_OUTER_BOUND ( 'NONE', #15, .T. ) ;
#142 = DIRECTION ( 'NONE',  ( -4.275831445896956855E-31, -1.000000000000000000, -1.224646799147352714E-16 ) ) ;
#143 = ADVANCED_FACE ( 'NONE', ( #109, #253 ), #129, .T. ) ;
#144 = EDGE_LOOP ( 'NONE', ( #216 ) ) ;
#145 = DIRECTION ( 'NONE',  ( 1.510825004591027855E-30, 1.000000000000000000, 4.327174794786742882E-16 ) ) ;
#146 = EDGE_LOOP ( 'NONE', ( #13 ) ) ;
#147 = PERSON_AND_ORGANIZATION ( #213, #51 ) ;
#148 = CC_DESIGN_PERSON_AND_ORGANIZATION_ASSIGNMENT ( #33, #260, ( #62 ) ) ;
#149 = COORDINATED_UNIVERSAL_TIME_OFFSET ( 1, 0, .AHEAD. ) ;
#150 = FACE_OUTER_BOUND ( 'NONE', #187, .T. ) ;
#151 = DATE_TIME_ROLE ( 'creation_date' ) ;
#152 = CONICAL_SURFACE ( 'NONE', #247, 3.999999999999988010, 1.221730476396026388 ) ;
#153 = APPROVAL_DATE_TIME ( #244, #11 ) ;
#154 = VERTEX_POINT ( 'NONE', #139 ) ;
#155 = ORIENTED_EDGE ( 'NONE', *, *, #231, .T. ) ;
#156 = EDGE_LOOP ( 'NONE', ( #196 ) ) ;
#157 = VERTEX_POINT ( 'NONE', #136 ) ;
#158 = TOROIDAL_SURFACE ( 'NONE', #40, 4.450000000000017053, 0.9999999999999991118 ) ;
#159 = FACE_OUTER_BOUND ( 'NONE', #90, .T. ) ;
#160 = DIRECTION ( 'NONE',  ( 0.0000000000000000000, -1.000000000000000000, 0.0000000000000000000 ) ) ;
#161 = AXIS2_PLACEMENT_3D ( 'NONE', #31, #134, #170 ) ;
#162 = APPROVAL_PERSON_ORGANIZATION ( #35, #182, #124 ) ;
#163 = CC_DESIGN_DATE_AND_TIME_ASSIGNMENT ( #63, #151, ( #62 ) ) ;
#164 = FACE_BOUND ( 'NONE', #17, .T. ) ;
#165 = CARTESIAN_POINT ( 'NONE',  ( 1.567675121140566561E-13, 2.999519565323699889E-32, 44.89999999999999858 ) ) ;
#166 = AXIS2_PLACEMENT_3D ( 'NONE', #165, #10, #142 ) ;
#167 = CARTESIAN_POINT ( 'NONE',  ( 0.0000000000000000000, 0.0000000000000000000, 0.0000000000000000000 ) ) ;
#168 = PLANE ( 'NONE',  #122 ) ;
#169 = COORDINATED_UNIVERSAL_TIME_OFFSET ( 1, 0, .AHEAD. ) ;
#170 = DIRECTION ( 'NONE',  ( 0.0000000000000000000, -1.000000000000000000, 0.0000000000000000000 ) ) ;
#171 = DIRECTION ( 'NONE',  ( -3.491481338843133355E-15, 1.224646799147352714E-16, -1.000000000000000000 ) ) ;
#172 = APPROVAL_STATUS ( 'not_yet_approved' ) ;
#173 = ORIENTED_EDGE ( 'NONE', *, *, #93, .T. ) ;
#174 = LOCAL_TIME ( 14, 57, 36.00000000000000000, #169 ) ;
#175 = CARTESIAN_POINT ( 'NONE',  ( 0.0000000000000000000, 0.0000000000000000000, 0.0000000000000000000 ) ) ;
#176 = VERTEX_POINT ( 'NONE', #73 ) ;
#177 = ORIENTED_EDGE ( 'NONE', *, *, #206, .F. ) ;
#178 = PERSON_AND_ORGANIZATION ( #213, #51 ) ;
#179 = CARTESIAN_POINT ( 'NONE',  ( 0.0000000000000000000, 0.0000000000000000000, 0.0000000000000000000 ) ) ;
#180 = ADVANCED_FACE ( 'NONE', ( #243 ), #168, .F. ) ;
#181 =( GEOMETRIC_REPRESENTATION_CONTEXT ( 3 ) GLOBAL_UNCERTAINTY_ASSIGNED_CONTEXT ( ( #42 ) ) GLOBAL_UNIT_ASSIGNED_CONTEXT ( ( #75, #138, #191 ) ) REPRESENTATION_CONTEXT ( 'NONE', 'WORKASPACE' ) );
#182 = APPROVAL ( #201, 'UNSPECIFIED' ) ;
#183 = CIRCLE ( 'NONE', #102, 3.450000000000016609 ) ;
#184 = CIRCLE ( 'NONE', #119, 3.200000000000000622 ) ;
#185 = SECURITY_CLASSIFICATION ( '', '', #54 ) ;
#186 = CARTESIAN_POINT ( 'NONE',  ( 1.808587333520742952E-13, -2.241476543699532624E-14, 51.79999999999999716 ) ) ;
#187 = EDGE_LOOP ( 'NONE', ( #126 ) ) ;
#188 = DIRECTION ( 'NONE',  ( 0.0000000000000000000, 0.0000000000000000000, 1.000000000000000000 ) ) ;
#189 = ADVANCED_FACE ( 'NONE', ( #237, #198 ), #219, .T. ) ;
#190 = DIRECTION ( 'NONE',  ( 4.275831445896956855E-31, 1.000000000000000000, 1.224646799147352714E-16 ) ) ;
#191 =( NAMED_UNIT ( * ) SI_UNIT ( $, .STERADIAN. ) SOLID_ANGLE_UNIT ( ) );
#192 = CARTESIAN_POINT ( 'NONE',  ( 1.567675121140566561E-13, -1.942901482859247144E-14, 44.89999999999999858 ) ) ;
#193 = APPLICATION_PROTOCOL_DEFINITION ( 'international standard', 'config_control_design', 1994, #98 ) ;
#194 = FACE_OUTER_BOUND ( 'NONE', #111, .T. ) ;
#195 = EDGE_CURVE ( 'NONE', #21, #21, #184, .T. ) ;
#196 = ORIENTED_EDGE ( 'NONE', *, *, #231, .F. ) ;
#197 = PERSON_AND_ORGANIZATION ( #213, #51 ) ;
#198 = FACE_OUTER_BOUND ( 'NONE', #58, .T. ) ;
#199 = ORIENTED_EDGE ( 'NONE', *, *, #2, .F. ) ;
#200 = AXIS2_PLACEMENT_3D ( 'NONE', #210, #92, #5 ) ;
#201 = APPROVAL_STATUS ( 'not_yet_approved' ) ;
#202 = FACE_OUTER_BOUND ( 'NONE', #144, .T. ) ;
#203 = ADVANCED_FACE ( 'NONE', ( #123 ), #107, .F. ) ;
#204 = APPROVAL_PERSON_ORGANIZATION ( #45, #100, #82 ) ;
#205 = MANIFOLD_SOLID_BREP ( 'Corps-Déplacer/Copier1[2]', #88 ) ;
#206 = EDGE_CURVE ( 'NONE', #3, #3, #255, .T. ) ;
#207 = FACE_OUTER_BOUND ( 'NONE', #133, .T. ) ;
#208 = CONICAL_SURFACE ( 'NONE', #200, 3.200000000000000622, 0.7853981633974510546 ) ;
#209 = DIRECTION ( 'NONE',  ( -3.491481338843133355E-15, 1.224646799147352714E-16, -1.000000000000000000 ) ) ;
#210 = CARTESIAN_POINT ( 'NONE',  ( 3.561310965619995770E-13, -1.249139735130299616E-14, 102.0000000000000000 ) ) ;
#211 = PRODUCT_DEFINITION_FORMATION_WITH_SPECIFIED_SOURCE ( 'ANY', '', #6, .NOT_KNOWN. ) ;
#212 = DIRECTION ( 'NONE',  ( 3.491481338843133355E-15, -1.224646799147352714E-16, 1.000000000000000000 ) ) ;
#213 = PERSON ( 'UNSPECIFIED', 'UNSPECIFIED', 'UNSPECIFIED', ('UNSPECIFIED'), ('UNSPECIFIED'), ('UNSPECIFIED') ) ;
#214 = DIRECTION ( 'NONE',  ( 4.275831445896956855E-31, 1.000000000000000000, 1.224646799147352714E-16 ) ) ;
#215 = APPROVAL_ROLE ( '' ) ;
#216 = ORIENTED_EDGE ( 'NONE', *, *, #41, .T. ) ;
#217 = CALENDAR_DATE ( 2021, 13, 10 ) ;
#218 = DIRECTION ( 'NONE',  ( -3.491481338843133355E-15, 4.327174794786742882E-16, -1.000000000000000000 ) ) ;
#219 = CONICAL_SURFACE ( 'NONE', #161, 4.500000000000016875, 0.5235987755983003700 ) ;
#220 = CC_DESIGN_PERSON_AND_ORGANIZATION_ASSIGNMENT ( #178, #112, ( #211 ) ) ;
#221 = CARTESIAN_POINT ( 'NONE',  ( 1.567675121140566561E-13, 2.999519565323699889E-32, 44.89999999999999858 ) ) ;
#222 = ORIENTED_EDGE ( 'NONE', *, *, #2, .T. ) ;
#223 = DIRECTION ( 'NONE',  ( 1.000000000000000000, 0.0000000000000000000, 0.0000000000000000000 ) ) ;
#224 = DIRECTION ( 'NONE',  ( -3.491481338843133355E-15, 4.327174794786742882E-16, -1.000000000000000000 ) ) ;
#225 = CALENDAR_DATE ( 2021, 13, 10 ) ;
#226 = CARTESIAN_POINT ( 'NONE',  ( 4.384243718880159628E-15, -3.450000000000008615, 1.255697308218417740 ) ) ;
#227 = CARTESIAN_POINT ( 'NONE',  ( 3.561310965619995770E-13, 3.199999999999988187, 102.0000000000000000 ) ) ;
#228 = AXIS2_PLACEMENT_3D ( 'NONE', #105, #171, #190 ) ;
#229 = AXIS2_PLACEMENT_3D ( 'NONE', #61, #232, #118 ) ;
#230 = CC_DESIGN_APPROVAL ( #182, ( #185 ) ) ;
#231 = EDGE_CURVE ( 'NONE', #176, #176, #14, .T. ) ;
#232 = DIRECTION ( 'NONE',  ( -3.491481338843133355E-15, 1.224646799147352714E-16, -1.000000000000000000 ) ) ;
#233 = CARTESIAN_POINT ( 'NONE',  ( 1.851203556471107196E-13, -2.294293049905156571E-14, 53.02057713659396398 ) ) ;
#234 = ADVANCED_FACE ( 'NONE', ( #16, #194 ), #84, .T. ) ;
#235 = DIRECTION ( 'NONE',  ( -4.275831445896956855E-31, -1.000000000000000000, -1.224646799147352714E-16 ) ) ;
#236 = PERSON_AND_ORGANIZATION_ROLE ( 'creator' ) ;
#237 = FACE_BOUND ( 'NONE', #242, .T. ) ;
#238 = PERSON_AND_ORGANIZATION_ROLE ( 'classification_officer' ) ;
#239 = ADVANCED_FACE ( 'NONE', ( #150, #50 ), #158, .F. ) ;
#240 = DATE_AND_TIME ( #48, #131 ) ;
#241 = APPROVAL_PERSON_ORGANIZATION ( #197, #11, #215 ) ;
#242 = EDGE_LOOP ( 'NONE', ( #177 ) ) ;
#243 = FACE_OUTER_BOUND ( 'NONE', #74, .T. ) ;
#244 = DATE_AND_TIME ( #217, #250 ) ;
#245 = ADVANCED_FACE ( 'NONE', ( #202, #159 ), #57, .T. ) ;
#246 = VERTEX_POINT ( 'NONE', #226 ) ;
#247 = AXIS2_PLACEMENT_3D ( 'NONE', #251, #212, #120 ) ;
#248 = DIRECTION ( 'NONE',  ( 0.0000000000000000000, 1.000000000000000000, 0.0000000000000000000 ) ) ;
#249 = CIRCLE ( 'NONE', #140, 3.450000000000008615 ) ;
#250 = LOCAL_TIME ( 14, 57, 36.00000000000000000, #257 ) ;
#251 = CARTESIAN_POINT ( 'NONE',  ( 5.083181123339288929E-15, -1.782939929516085751E-16, 1.455880937064824465 ) ) ;
#252 = CC_DESIGN_PERSON_AND_ORGANIZATION_ASSIGNMENT ( #259, #66, ( #6 ) ) ;
#253 = FACE_OUTER_BOUND ( 'NONE', #156, .T. ) ;
#254 = DIRECTION ( 'NONE',  ( 0.0000000000000000000, 1.000000000000000000, 0.0000000000000000000 ) ) ;
#255 = CIRCLE ( 'NONE', #103, 3.583974596215579567 ) ;
#256 = CC_DESIGN_SECURITY_CLASSIFICATION ( #185, ( #211 ) ) ;
#257 = COORDINATED_UNIVERSAL_TIME_OFFSET ( 1, 0, .AHEAD. ) ;
#258 = CARTESIAN_POINT ( 'NONE',  ( 3.561310965619996275E-13, 4.423544863740857586E-13, 102.0000000000000142 ) ) ;
#259 = PERSON_AND_ORGANIZATION ( #213, #51 ) ;
#260 = PERSON_AND_ORGANIZATION_ROLE ( 'creator' ) ;
#261 = DIRECTION ( 'NONE',  ( -3.491481338843133355E-15, 4.327174794786742882E-16, -1.000000000000000000 ) ) ;
#262 = LOCAL_TIME ( 14, 57, 36.00000000000000000, #149 ) ;
#263 = APPROVAL_STATUS ( 'not_yet_approved' ) ;
ENDSEC;
END-ISO-10303-21;
