ISO-10303-21;
HEADER;
FILE_DESCRIPTION (( 'STEP AP203' ),
    '1' );
FILE_NAME ('966747.step',
    '2021-10-13T12:57:36',
    ( '' ),
    ( '' ),
    'SwSTEP 2.0',
    'SolidWorks 2019',
    '' );
FILE_SCHEMA (( 'CONFIG_CONTROL_DESIGN' ));
ENDSEC;

DATA;
#1 = DATE_AND_TIME ( #143, #23 ) ;
#2 = DIRECTION ( 'NONE',  ( 0.0000000000000000000, -1.000000000000000000, 0.0000000000000000000 ) ) ;
#3 = CALENDAR_DATE ( 2021, 13, 10 ) ;
#4 = ORIENTED_EDGE ( 'NONE', *, *, #230, .T. ) ;
#5 = COORDINATED_UNIVERSAL_TIME_OFFSET ( 1, 0, .AHEAD. ) ;
#6 = EDGE_CURVE ( 'NONE', #107, #107, #251, .T. ) ;
#7 = PRODUCT ( '966747', '966747', '', ( #41 ) ) ;
#8 = LOCAL_TIME ( 14, 57, 36.00000000000000000, #160 ) ;
#9 = APPROVAL_ROLE ( '' ) ;
#10 = DESIGN_CONTEXT ( 'detailed design', #123, 'design' ) ;
#11 = VERTEX_POINT ( 'NONE', #85 ) ;
#12 = AXIS2_PLACEMENT_3D ( 'NONE', #240, #159, #2 ) ;
#13 = AXIS2_PLACEMENT_3D ( 'NONE', #217, #216, #33 ) ;
#14 = DIRECTION ( 'NONE',  ( -3.491481338843133355E-15, 1.224646799147353207E-16, -1.000000000000000000 ) ) ;
#15 = EDGE_LOOP ( 'NONE', ( #148 ) ) ;
#16 = FACE_OUTER_BOUND ( 'NONE', #197, .T. ) ;
#17 = EDGE_LOOP ( 'NONE', ( #243 ) ) ;
#18 = CLOSED_SHELL ( 'NONE', ( #259, #206, #57 ) ) ;
#19 = DIRECTION ( 'NONE',  ( 4.275831445896958607E-31, 1.000000000000000000, 1.224646799147353207E-16 ) ) ;
#20 = CARTESIAN_POINT ( 'NONE',  ( 3.533379114909250198E-13, -1.239342560737121245E-14, 101.1999999999999886 ) ) ;
#21 = APPROVAL_STATUS ( 'not_yet_approved' ) ;
#22 = SECURITY_CLASSIFICATION_LEVEL ( 'unclassified' ) ;
#23 = LOCAL_TIME ( 14, 57, 36.00000000000000000, #5 ) ;
#24 = APPLICATION_PROTOCOL_DEFINITION ( 'international standard', 'config_control_design', 1994, #123 ) ;
#25 = PERSON_AND_ORGANIZATION_ROLE ( 'design_owner' ) ;
#26 = CARTESIAN_POINT ( 'NONE',  ( 4.257164190796676122E-15, -3.350000000000008082, 1.219300284791796640 ) ) ;
#27 = MANIFOLD_SOLID_BREP ( 'Corps-Déplacer/Copier1[2]', #18 ) ;
#28 = PRODUCT_RELATED_PRODUCT_CATEGORY ( 'detail', '', ( #7 ) ) ;
#29 = AXIS2_PLACEMENT_3D ( 'NONE', #137, #37, #86 ) ;
#30 = DIRECTION ( 'NONE',  ( -3.491481338843133355E-15, 1.224646799147353207E-16, -1.000000000000000000 ) ) ;
#31 = ORIENTED_EDGE ( 'NONE', *, *, #6, .T. ) ;
#32 = AXIS2_PLACEMENT_3D ( 'NONE', #52, #239, #128 ) ;
#33 = DIRECTION ( 'NONE',  ( 4.275831445896958607E-31, 1.000000000000000000, 1.224646799147353207E-16 ) ) ;
#34 = ORIENTED_EDGE ( 'NONE', *, *, #81, .T. ) ;
#35 = DIRECTION ( 'NONE',  ( -3.491481338843133355E-15, 1.224646799147353207E-16, -1.000000000000000000 ) ) ;
#36 = ORIENTED_EDGE ( 'NONE', *, *, #131, .T. ) ;
#37 = DIRECTION ( 'NONE',  ( -3.491481338843133355E-15, 4.327174794786742882E-16, -1.000000000000000000 ) ) ;
#38 = EDGE_LOOP ( 'NONE', ( #192 ) ) ;
#39 = PERSON_AND_ORGANIZATION_ROLE ( 'creator' ) ;
#40 = DIRECTION ( 'NONE',  ( -3.491481338843133355E-15, 4.327174794786742882E-16, -1.000000000000000000 ) ) ;
#41 = MECHANICAL_CONTEXT ( 'NONE', #227, 'mechanical' ) ;
#42 = DATE_TIME_ROLE ( 'classification_date' ) ;
#43 = CARTESIAN_POINT ( 'NONE',  ( 3.561310965619995770E-13, 3.199999999999989964, 102.0000000000000000 ) ) ;
#44 = CC_DESIGN_PERSON_AND_ORGANIZATION_ASSIGNMENT ( #241, #25, ( #7 ) ) ;
#45 = CIRCLE ( 'NONE', #203, 3.200000000000002842 ) ;
#46 = PRODUCT_DEFINITION_FORMATION_WITH_SPECIFIED_SOURCE ( 'ANY', '', #7, .NOT_KNOWN. ) ;
#47 = FACE_OUTER_BOUND ( 'NONE', #169, .T. ) ;
#48 = ORIENTED_EDGE ( 'NONE', *, *, #230, .F. ) ;
#49 = CARTESIAN_POINT ( 'NONE',  ( 1.522285863735606143E-13, -3.350000000000027178, 43.60000000000000142 ) ) ;
#50 = CARTESIAN_POINT ( 'NONE',  ( 3.561310965619995770E-13, -1.249139735130300089E-14, 102.0000000000000000 ) ) ;
#51 = LOCAL_TIME ( 14, 57, 36.00000000000000000, #54 ) ;
#52 = CARTESIAN_POINT ( 'NONE',  ( 1.522285863735606143E-13, 2.999519565323704268E-32, 43.60000000000000142 ) ) ;
#53 = DIRECTION ( 'NONE',  ( -3.491481338843133355E-15, 1.224646799147353207E-16, -1.000000000000000000 ) ) ;
#54 = COORDINATED_UNIVERSAL_TIME_OFFSET ( 1, 0, .AHEAD. ) ;
#55 = DIRECTION ( 'NONE',  ( 3.491481338843133355E-15, -1.224646799147353207E-16, 1.000000000000000000 ) ) ;
#56 = PLANE ( 'NONE',  #188 ) ;
#57 = ADVANCED_FACE ( 'NONE', ( #138 ), #56, .T. ) ;
#58 = CALENDAR_DATE ( 2021, 13, 10 ) ;
#59 = PERSON_AND_ORGANIZATION ( #209, #126 ) ;
#60 = AXIS2_PLACEMENT_3D ( 'NONE', #155, #116, #220 ) ;
#61 = APPROVAL_ROLE ( '' ) ;
#62 = APPROVAL ( #124, 'UNSPECIFIED' ) ;
#63 = SHAPE_DEFINITION_REPRESENTATION ( #101, #165 ) ;
#64 = CONICAL_SURFACE ( 'NONE', #212, 3.999999999999989786, 1.221730476396026388 ) ;
#65 = EDGE_CURVE ( 'NONE', #11, #11, #132, .T. ) ;
#66 = PLANE ( 'NONE',  #32 ) ;
#67 = ORIENTED_EDGE ( 'NONE', *, *, #81, .F. ) ;
#68 = VERTEX_POINT ( 'NONE', #49 ) ;
#69 = DIRECTION ( 'NONE',  ( -3.491481338843133355E-15, 1.224646799147353207E-16, -1.000000000000000000 ) ) ;
#70 = APPROVAL ( #21, 'UNSPECIFIED' ) ;
#71 = CARTESIAN_POINT ( 'NONE',  ( 1.522285863735606143E-13, -1.886648210527019833E-14, 43.60000000000000142 ) ) ;
#72 = CARTESIAN_POINT ( 'NONE',  ( 0.0000000000000000000, 0.0000000000000000000, 0.0000000000000000000 ) ) ;
#73 = FACE_OUTER_BOUND ( 'NONE', #185, .T. ) ;
#74 = PERSON_AND_ORGANIZATION ( #209, #126 ) ;
#75 = FACE_OUTER_BOUND ( 'NONE', #211, .T. ) ;
#76 = DATE_AND_TIME ( #3, #83 ) ;
#77 = CARTESIAN_POINT ( 'NONE',  ( 1.804878759461015394E-13, -2.236880314581158045E-14, 51.69378221735085788 ) ) ;
#78 = PERSON_AND_ORGANIZATION_ROLE ( 'classification_officer' ) ;
#79 = VERTEX_POINT ( 'NONE', #43 ) ;
#80 =( NAMED_UNIT ( * ) PLANE_ANGLE_UNIT ( ) SI_UNIT ( $, .RADIAN. ) );
#81 = EDGE_CURVE ( 'NONE', #233, #233, #195, .T. ) ;
#82 = CALENDAR_DATE ( 2021, 13, 10 ) ;
#83 = LOCAL_TIME ( 14, 57, 36.00000000000000000, #178 ) ;
#84 = EDGE_LOOP ( 'NONE', ( #235 ) ) ;
#85 = CARTESIAN_POINT ( 'NONE',  ( 3.533379114909250198E-13, 3.999999999999989786, 101.1999999999999886 ) ) ;
#86 = DIRECTION ( 'NONE',  ( 1.510825004591027504E-30, 1.000000000000000000, 4.327174794786742389E-16 ) ) ;
#87 = ADVANCED_FACE ( 'NONE', ( #91, #175 ), #173, .T. ) ;
#88 = VERTEX_POINT ( 'NONE', #26 ) ;
#89 = ORIENTED_EDGE ( 'NONE', *, *, #253, .F. ) ;
#90 = DIRECTION ( 'NONE',  ( 0.0000000000000000000, 1.000000000000000000, 0.0000000000000000000 ) ) ;
#91 = FACE_BOUND ( 'NONE', #130, .T. ) ;
#92 = CARTESIAN_POINT ( 'NONE',  ( 0.0000000000000000000, 0.0000000000000000000, 0.0000000000000000000 ) ) ;
#93 = DIRECTION ( 'NONE',  ( 3.491481338843133355E-15, -4.327174794786742882E-16, 1.000000000000000000 ) ) ;
#94 = CC_DESIGN_DATE_AND_TIME_ASSIGNMENT ( #222, #42, ( #189 ) ) ;
#95 = APPROVAL_ROLE ( '' ) ;
#96 = DIRECTION ( 'NONE',  ( 0.0000000000000000000, 1.000000000000000000, 0.0000000000000000000 ) ) ;
#97 = PERSON_AND_ORGANIZATION ( #209, #126 ) ;
#98 = AXIS2_PLACEMENT_3D ( 'NONE', #258, #190, #154 ) ;
#99 = PERSON_AND_ORGANIZATION ( #209, #126 ) ;
#100 = APPROVAL_DATE_TIME ( #1, #164 ) ;
#101 = PRODUCT_DEFINITION_SHAPE ( 'NONE', 'NONE',  #213 ) ;
#102 = AXIS2_PLACEMENT_3D ( 'NONE', #77, #93, #177 ) ;
#103 = CONICAL_SURFACE ( 'NONE', #205, 3.200000000000002842, 0.7853981633974420618 ) ;
#104 = AXIS2_PLACEMENT_3D ( 'NONE', #71, #30, #109 ) ;
#105 = ADVANCED_FACE ( 'NONE', ( #75, #73 ), #156, .T. ) ;
#106 = EDGE_LOOP ( 'NONE', ( #36 ) ) ;
#107 = VERTEX_POINT ( 'NONE', #262 ) ;
#108 = EDGE_LOOP ( 'NONE', ( #89 ) ) ;
#109 = DIRECTION ( 'NONE',  ( 0.0000000000000000000, -1.000000000000000000, 0.0000000000000000000 ) ) ;
#110 = CC_DESIGN_SECURITY_CLASSIFICATION ( #189, ( #46 ) ) ;
#111 = ADVANCED_FACE ( 'NONE', ( #245, #232 ), #214, .T. ) ;
#112 = CARTESIAN_POINT ( 'NONE',  ( 3.561310965619995770E-13, -1.249139735130300089E-14, 102.0000000000000000 ) ) ;
#113 = FACE_OUTER_BOUND ( 'NONE', #146, .T. ) ;
#114 = EDGE_LOOP ( 'NONE', ( #255 ) ) ;
#115 = FACE_OUTER_BOUND ( 'NONE', #38, .T. ) ;
#116 = DIRECTION ( 'NONE',  ( -3.491481338843133355E-15, 4.327174794786742882E-16, -1.000000000000000000 ) ) ;
#117 = DATE_AND_TIME ( #139, #51 ) ;
#118 = ORIENTED_EDGE ( 'NONE', *, *, #153, .T. ) ;
#119 = CARTESIAN_POINT ( 'NONE',  ( 1.756215113438095888E-13, 3.349999999999993872, 50.29999999999999716 ) ) ;
#120 = CC_DESIGN_PERSON_AND_ORGANIZATION_ASSIGNMENT ( #74, #39, ( #213 ) ) ;
#121 = DIRECTION ( 'NONE',  ( 0.0000000000000000000, 0.0000000000000000000, 1.000000000000000000 ) ) ;
#122 = CC_DESIGN_APPROVAL ( #164, ( #213 ) ) ;
#123 = APPLICATION_CONTEXT ( 'configuration controlled 3d designs of mechanical parts and assemblies' ) ;
#124 = APPROVAL_STATUS ( 'not_yet_approved' ) ;
#125 = CLOSED_SHELL ( 'NONE', ( #111, #242, #204, #105, #87, #166, #161 ) ) ;
#126 = ORGANIZATION ( 'UNSPECIFIED', 'UNSPECIFIED', '' ) ;
#127 = ORIENTED_EDGE ( 'NONE', *, *, #153, .F. ) ;
#128 = DIRECTION ( 'NONE',  ( -4.275831445896958607E-31, -1.000000000000000000, -1.224646799147353207E-16 ) ) ;
#129 = VERTEX_POINT ( 'NONE', #210 ) ;
#130 = EDGE_LOOP ( 'NONE', ( #135 ) ) ;
#131 = EDGE_CURVE ( 'NONE', #68, #68, #248, .T. ) ;
#132 = CIRCLE ( 'NONE', #236, 4.000000000000001776 ) ;
#133 = DIRECTION ( 'NONE',  ( 0.0000000000000000000, 1.000000000000000000, 0.0000000000000000000 ) ) ;
#134 = APPROVAL_PERSON_ORGANIZATION ( #59, #164, #61 ) ;
#135 = ORIENTED_EDGE ( 'NONE', *, *, #6, .F. ) ;
#136 = FACE_OUTER_BOUND ( 'NONE', #108, .T. ) ;
#137 = CARTESIAN_POINT ( 'NONE',  ( 1.756215113438095888E-13, -2.168404344971008868E-14, 50.29999999999999716 ) ) ;
#138 = FACE_OUTER_BOUND ( 'NONE', #15, .T. ) ;
#139 = CALENDAR_DATE ( 2021, 13, 10 ) ;
#140 = CARTESIAN_POINT ( 'NONE',  ( 1.522285863735606143E-13, 2.999519565323704268E-32, 43.60000000000000142 ) ) ;
#141 =( LENGTH_UNIT ( ) NAMED_UNIT ( * ) SI_UNIT ( .MILLI., .METRE. ) );
#142 = CC_DESIGN_APPROVAL ( #62, ( #189 ) ) ;
#143 = CALENDAR_DATE ( 2021, 13, 10 ) ;
#144 = CC_DESIGN_PERSON_AND_ORGANIZATION_ASSIGNMENT ( #97, #78, ( #189 ) ) ;
#145 = DATE_AND_TIME ( #82, #231 ) ;
#146 = EDGE_LOOP ( 'NONE', ( #4 ) ) ;
#147 = FACE_OUTER_BOUND ( 'NONE', #114, .T. ) ;
#148 = ORIENTED_EDGE ( 'NONE', *, *, #131, .F. ) ;
#149 = CARTESIAN_POINT ( 'NONE',  ( 4.257164190796677700E-15, -1.493212190969730549E-16, 1.219300284791797084 ) ) ;
#150 = DIRECTION ( 'NONE',  ( -3.491481338843133355E-15, 4.327174794786742882E-16, -1.000000000000000000 ) ) ;
#151 = DIRECTION ( 'NONE',  ( -3.491481338843133355E-15, 4.327174794786742882E-16, -1.000000000000000000 ) ) ;
#152 = CIRCLE ( 'NONE', #167, 3.350000000000015632 ) ;
#153 = EDGE_CURVE ( 'NONE', #129, #129, #225, .T. ) ;
#154 = DIRECTION ( 'NONE',  ( 0.0000000000000000000, -1.000000000000000000, 0.0000000000000000000 ) ) ;
#155 = CARTESIAN_POINT ( 'NONE',  ( 0.0000000000000000000, 0.0000000000000000000, 0.0000000000000000000 ) ) ;
#156 = CYLINDRICAL_SURFACE ( 'NONE', #60, 3.350000000000008082 ) ;
#157 = APPROVAL_DATE_TIME ( #76, #70 ) ;
#158 = APPROVAL_PERSON_ORGANIZATION ( #99, #70, #95 ) ;
#159 = DIRECTION ( 'NONE',  ( 3.491481338843133355E-15, -4.327174794786742882E-16, 1.000000000000000000 ) ) ;
#160 = COORDINATED_UNIVERSAL_TIME_OFFSET ( 1, 0, .AHEAD. ) ;
#161 = ADVANCED_FACE ( 'NONE', ( #47 ), #66, .F. ) ;
#162 = AXIS2_PLACEMENT_3D ( 'NONE', #72, #170, #19 ) ;
#163 = AXIS2_PLACEMENT_3D ( 'NONE', #92, #151, #238 ) ;
#164 = APPROVAL ( #247, 'UNSPECIFIED' ) ;
#165 = ADVANCED_BREP_SHAPE_REPRESENTATION ( '966747', ( #193, #27, #228 ), #261 ) ;
#166 = ADVANCED_FACE ( 'NONE', ( #115, #208 ), #181, .F. ) ;
#167 = AXIS2_PLACEMENT_3D ( 'NONE', #187, #150, #234 ) ;
#168 = UNCERTAINTY_MEASURE_WITH_UNIT (LENGTH_MEASURE( 1.000000000000000082E-05 ), #141, 'distance_accuracy_value', 'NONE');
#169 = EDGE_LOOP ( 'NONE', ( #118 ) ) ;
#170 = DIRECTION ( 'NONE',  ( -3.491481338843133355E-15, 1.224646799147353207E-16, -1.000000000000000000 ) ) ;
#171 = FACE_BOUND ( 'NONE', #84, .T. ) ;
#172 = CYLINDRICAL_SURFACE ( 'NONE', #163, 3.350000000000008082 ) ;
#173 = CONICAL_SURFACE ( 'NONE', #12, 4.500000000000017764, 0.5235987755982987046 ) ;
#174 = DIRECTION ( 'NONE',  ( -3.851859888774481340E-31, -1.000000000000000000, -1.084202172485507146E-16 ) ) ;
#175 = FACE_OUTER_BOUND ( 'NONE', #215, .T. ) ;
#176 = DIRECTION ( 'NONE',  ( -4.599235688088910303E-31, -1.000000000000000000, -1.294569758191643951E-16 ) ) ;
#177 = DIRECTION ( 'NONE',  ( 0.0000000000000000000, -1.000000000000000000, 0.0000000000000000000 ) ) ;
#178 = COORDINATED_UNIVERSAL_TIME_OFFSET ( 1, 0, .AHEAD. ) ;
#179 = DIRECTION ( 'NONE',  ( -4.275831445896958607E-31, -1.000000000000000000, -1.224646799147353207E-16 ) ) ;
#180 =( NAMED_UNIT ( * ) SI_UNIT ( $, .STERADIAN. ) SOLID_ANGLE_UNIT ( ) );
#181 = TOROIDAL_SURFACE ( 'NONE', #29, 4.350000000000016520, 0.9999999999999995559 ) ;
#182 = APPLICATION_PROTOCOL_DEFINITION ( 'international standard', 'config_control_design', 1994, #227 ) ;
#183 = APPROVAL_DATE_TIME ( #145, #62 ) ;
#184 = AXIS2_PLACEMENT_3D ( 'NONE', #218, #40, #96 ) ;
#185 = EDGE_LOOP ( 'NONE', ( #127 ) ) ;
#186 = CC_DESIGN_DATE_AND_TIME_ASSIGNMENT ( #117, #198, ( #213 ) ) ;
#187 = CARTESIAN_POINT ( 'NONE',  ( 1.756215113438095888E-13, -2.176568921777731638E-14, 50.29999999999999716 ) ) ;
#188 = AXIS2_PLACEMENT_3D ( 'NONE', #140, #55, #179 ) ;
#189 = SECURITY_CLASSIFICATION ( '', '', #22 ) ;
#190 = DIRECTION ( 'NONE',  ( -3.491481338843133355E-15, 1.224646799147353207E-16, -1.000000000000000000 ) ) ;
#191 = CARTESIAN_POINT ( 'NONE',  ( 5.083181123339291296E-15, -1.782939929516087477E-16, 1.455880937064825131 ) ) ;
#192 = ORIENTED_EDGE ( 'NONE', *, *, #249, .F. ) ;
#193 = MANIFOLD_SOLID_BREP ( 'Corps-Déplacer/Copier1[1]', #125 ) ;
#194 = DIRECTION ( 'NONE',  ( 3.491481338843133355E-15, -1.224646799147353207E-16, 1.000000000000000000 ) ) ;
#195 = CIRCLE ( 'NONE', #102, 3.999999999999998224 ) ;
#196 = FACE_OUTER_BOUND ( 'NONE', #106, .T. ) ;
#197 = EDGE_LOOP ( 'NONE', ( #48 ) ) ;
#198 = DATE_TIME_ROLE ( 'creation_date' ) ;
#199 = EDGE_LOOP ( 'NONE', ( #34 ) ) ;
#200 = CC_DESIGN_PERSON_AND_ORGANIZATION_ASSIGNMENT ( #221, #201, ( #46 ) ) ;
#201 = PERSON_AND_ORGANIZATION_ROLE ( 'design_supplier' ) ;
#202 = CARTESIAN_POINT ( 'NONE',  ( 0.0000000000000000000, 0.0000000000000000000, 0.0000000000000000000 ) ) ;
#203 = AXIS2_PLACEMENT_3D ( 'NONE', #50, #35, #133 ) ;
#204 = ADVANCED_FACE ( 'NONE', ( #136 ), #260, .F. ) ;
#205 = AXIS2_PLACEMENT_3D ( 'NONE', #112, #69, #90 ) ;
#206 = ADVANCED_FACE ( 'NONE', ( #196, #16 ), #172, .T. ) ;
#207 = EDGE_LOOP ( 'NONE', ( #31 ) ) ;
#208 = FACE_OUTER_BOUND ( 'NONE', #207, .T. ) ;
#209 = PERSON ( 'UNSPECIFIED', 'UNSPECIFIED', 'UNSPECIFIED', ('UNSPECIFIED'), ('UNSPECIFIED'), ('UNSPECIFIED') ) ;
#210 = CARTESIAN_POINT ( 'NONE',  ( 1.522285863735606143E-13, -3.350000000000027178, 43.60000000000000142 ) ) ;
#211 = EDGE_LOOP ( 'NONE', ( #254 ) ) ;
#212 = AXIS2_PLACEMENT_3D ( 'NONE', #191, #194, #174 ) ;
#213 = PRODUCT_DEFINITION ( 'UNKNOWN', '', #46, #10 ) ;
#214 = CYLINDRICAL_SURFACE ( 'NONE', #162, 3.999999999999998224 ) ;
#215 = EDGE_LOOP ( 'NONE', ( #67 ) ) ;
#216 = DIRECTION ( 'NONE',  ( -3.491481338843133355E-15, 1.224646799147353207E-16, -1.000000000000000000 ) ) ;
#217 = CARTESIAN_POINT ( 'NONE',  ( 3.561310965619995770E-13, 2.399615652258955477E-32, 102.0000000000000000 ) ) ;
#218 = CARTESIAN_POINT ( 'NONE',  ( 1.773672520132311744E-13, -2.198204795751665510E-14, 50.79999999999999716 ) ) ;
#219 = DIRECTION ( 'NONE',  ( 1.000000000000000000, 0.0000000000000000000, 0.0000000000000000000 ) ) ;
#220 = DIRECTION ( 'NONE',  ( 1.510825004591027855E-30, 1.000000000000000000, 4.327174794786742882E-16 ) ) ;
#221 = PERSON_AND_ORGANIZATION ( #209, #126 ) ;
#222 = DATE_AND_TIME ( #58, #8 ) ;
#223 = VERTEX_POINT ( 'NONE', #119 ) ;
#224 = CC_DESIGN_PERSON_AND_ORGANIZATION_ASSIGNMENT ( #244, #246, ( #46 ) ) ;
#225 = CIRCLE ( 'NONE', #98, 3.350000000000008082 ) ;
#226 = APPROVAL_PERSON_ORGANIZATION ( #229, #62, #9 ) ;
#227 = APPLICATION_CONTEXT ( 'configuration controlled 3d designs of mechanical parts and assemblies' ) ;
#228 = AXIS2_PLACEMENT_3D ( 'NONE', #202, #121, #219 ) ;
#229 = PERSON_AND_ORGANIZATION ( #209, #126 ) ;
#230 = EDGE_CURVE ( 'NONE', #88, #88, #252, .T. ) ;
#231 = LOCAL_TIME ( 14, 57, 36.00000000000000000, #250 ) ;
#232 = FACE_OUTER_BOUND ( 'NONE', #17, .T. ) ;
#233 = VERTEX_POINT ( 'NONE', #257 ) ;
#234 = DIRECTION ( 'NONE',  ( 0.0000000000000000000, 1.000000000000000000, 0.0000000000000000000 ) ) ;
#235 = ORIENTED_EDGE ( 'NONE', *, *, #253, .T. ) ;
#236 = AXIS2_PLACEMENT_3D ( 'NONE', #20, #53, #263 ) ;
#237 = CC_DESIGN_APPROVAL ( #70, ( #46 ) ) ;
#238 = DIRECTION ( 'NONE',  ( 1.510825004591027855E-30, 1.000000000000000000, 4.327174794786742882E-16 ) ) ;
#239 = DIRECTION ( 'NONE',  ( 3.491481338843133355E-15, -1.224646799147353207E-16, 1.000000000000000000 ) ) ;
#240 = CARTESIAN_POINT ( 'NONE',  ( 1.835115874823790942E-13, -2.274354747570169712E-14, 52.55980762113532734 ) ) ;
#241 = PERSON_AND_ORGANIZATION ( #209, #126 ) ;
#242 = ADVANCED_FACE ( 'NONE', ( #147, #171 ), #103, .T. ) ;
#243 = ORIENTED_EDGE ( 'NONE', *, *, #65, .T. ) ;
#244 = PERSON_AND_ORGANIZATION ( #209, #126 ) ;
#245 = FACE_OUTER_BOUND ( 'NONE', #199, .T. ) ;
#246 = PERSON_AND_ORGANIZATION_ROLE ( 'creator' ) ;
#247 = APPROVAL_STATUS ( 'not_yet_approved' ) ;
#248 = CIRCLE ( 'NONE', #104, 3.350000000000008082 ) ;
#249 = EDGE_CURVE ( 'NONE', #223, #223, #152, .T. ) ;
#250 = COORDINATED_UNIVERSAL_TIME_OFFSET ( 1, 0, .AHEAD. ) ;
#251 = CIRCLE ( 'NONE', #184, 3.483974596215579034 ) ;
#252 = CIRCLE ( 'NONE', #256, 3.350000000000008082 ) ;
#253 = EDGE_CURVE ( 'NONE', #79, #79, #45, .T. ) ;
#254 = ORIENTED_EDGE ( 'NONE', *, *, #249, .T. ) ;
#255 = ORIENTED_EDGE ( 'NONE', *, *, #65, .F. ) ;
#256 = AXIS2_PLACEMENT_3D ( 'NONE', #149, #14, #176 ) ;
#257 = CARTESIAN_POINT ( 'NONE',  ( 1.804878759461015394E-13, -4.000000000000021316, 51.69378221735085788 ) ) ;
#258 = CARTESIAN_POINT ( 'NONE',  ( 1.522285863735606143E-13, -1.886648210527019833E-14, 43.60000000000000142 ) ) ;
#259 = ADVANCED_FACE ( 'NONE', ( #113 ), #64, .T. ) ;
#260 = PLANE ( 'NONE',  #13 ) ;
#261 =( GEOMETRIC_REPRESENTATION_CONTEXT ( 3 ) GLOBAL_UNCERTAINTY_ASSIGNED_CONTEXT ( ( #168 ) ) GLOBAL_UNIT_ASSIGNED_CONTEXT ( ( #141, #80, #180 ) ) REPRESENTATION_CONTEXT ( 'NONE', 'WORKASPACE' ) );
#262 = CARTESIAN_POINT ( 'NONE',  ( 1.773672520132311744E-13, 3.483974596215556829, 50.79999999999999716 ) ) ;
#263 = DIRECTION ( 'NONE',  ( 0.0000000000000000000, 1.000000000000000000, 0.0000000000000000000 ) ) ;
ENDSEC;
END-ISO-10303-21;
