ISO-10303-21;
HEADER;
FILE_DESCRIPTION (( 'STEP AP203' ),
    '1' );
FILE_NAME ('966745.step',
    '2021-10-13T12:57:35',
    ( '' ),
    ( '' ),
    'SwSTEP 2.0',
    'SolidWorks 2019',
    '' );
FILE_SCHEMA (( 'CONFIG_CONTROL_DESIGN' ));
ENDSEC;

DATA;
#1 = PLANE ( 'NONE',  #172 ) ;
#2 = CARTESIAN_POINT ( 'NONE',  ( 1.452456236958743476E-13, 2.999519565323704268E-32, 41.60000000000000142 ) ) ;
#3 = PRODUCT_DEFINITION_FORMATION_WITH_SPECIFIED_SOURCE ( 'ANY', '', #182, .NOT_KNOWN. ) ;
#4 = DIRECTION ( 'NONE',  ( 0.0000000000000000000, -1.000000000000000000, 0.0000000000000000000 ) ) ;
#5 = COORDINATED_UNIVERSAL_TIME_OFFSET ( 1, 0, .AHEAD. ) ;
#6 = CARTESIAN_POINT ( 'NONE',  ( 0.0000000000000000000, 0.0000000000000000000, 0.0000000000000000000 ) ) ;
#7 = AXIS2_PLACEMENT_3D ( 'NONE', #207, #22, #26 ) ;
#8 = DIRECTION ( 'NONE',  ( 0.0000000000000000000, 1.000000000000000000, 0.0000000000000000000 ) ) ;
#9 = DATE_AND_TIME ( #211, #21 ) ;
#10 = FACE_BOUND ( 'NONE', #221, .T. ) ;
#11 = CIRCLE ( 'NONE', #226, 3.999999999999998224 ) ;
#12 = DIRECTION ( 'NONE',  ( 0.0000000000000000000, 0.0000000000000000000, 1.000000000000000000 ) ) ;
#13 = APPROVAL_STATUS ( 'not_yet_approved' ) ;
#14 =( LENGTH_UNIT ( ) NAMED_UNIT ( * ) SI_UNIT ( .MILLI., .METRE. ) );
#15 = PRODUCT_RELATED_PRODUCT_CATEGORY ( 'detail', '', ( #182 ) ) ;
#16 = COORDINATED_UNIVERSAL_TIME_OFFSET ( 1, 0, .AHEAD. ) ;
#17 = AXIS2_PLACEMENT_3D ( 'NONE', #190, #148, #163 ) ;
#18 = LOCAL_TIME ( 14, 57, 35.00000000000000000, #16 ) ;
#19 = ORIENTED_EDGE ( 'NONE', *, *, #228, .T. ) ;
#20 = EDGE_LOOP ( 'NONE', ( #244 ) ) ;
#21 = LOCAL_TIME ( 14, 57, 35.00000000000000000, #47 ) ;
#22 = DIRECTION ( 'NONE',  ( -3.491481338843133355E-15, 4.327174794786742882E-16, -1.000000000000000000 ) ) ;
#23 = CLOSED_SHELL ( 'NONE', ( #199, #65, #252 ) ) ;
#24 = FACE_OUTER_BOUND ( 'NONE', #20, .T. ) ;
#25 = SECURITY_CLASSIFICATION_LEVEL ( 'unclassified' ) ;
#26 = DIRECTION ( 'NONE',  ( 0.0000000000000000000, 1.000000000000000000, 0.0000000000000000000 ) ) ;
#27 = CONICAL_SURFACE ( 'NONE', #230, 3.200000000000002842, 0.7853981633974420618 ) ;
#28 = DIRECTION ( 'NONE',  ( 0.0000000000000000000, -1.000000000000000000, 0.0000000000000000000 ) ) ;
#29 = DIRECTION ( 'NONE',  ( 0.0000000000000000000, 1.000000000000000000, 0.0000000000000000000 ) ) ;
#30 = ADVANCED_FACE ( 'NONE', ( #96 ), #1, .F. ) ;
#31 = UNCERTAINTY_MEASURE_WITH_UNIT (LENGTH_MEASURE( 1.000000000000000082E-05 ), #14, 'distance_accuracy_value', 'NONE');
#32 = CALENDAR_DATE ( 2021, 13, 10 ) ;
#33 = CARTESIAN_POINT ( 'NONE',  ( 1.452456236958743476E-13, 2.999519565323704268E-32, 41.60000000000000142 ) ) ;
#34 = PERSON_AND_ORGANIZATION ( #141, #95 ) ;
#35 = DIRECTION ( 'NONE',  ( 4.275831445896958607E-31, 1.000000000000000000, 1.224646799147353207E-16 ) ) ;
#36 = VERTEX_POINT ( 'NONE', #195 ) ;
#37 = CIRCLE ( 'NONE', #72, 3.333974596215576902 ) ;
#38 = EDGE_CURVE ( 'NONE', #255, #255, #157, .T. ) ;
#39 = ORIENTED_EDGE ( 'NONE', *, *, #241, .F. ) ;
#40 = EDGE_LOOP ( 'NONE', ( #202 ) ) ;
#41 = FACE_OUTER_BOUND ( 'NONE', #94, .T. ) ;
#42 = ORIENTED_EDGE ( 'NONE', *, *, #241, .T. ) ;
#43 = PERSON_AND_ORGANIZATION_ROLE ( 'creator' ) ;
#44 = DIRECTION ( 'NONE',  ( 1.510825004591027679E-30, 1.000000000000000000, 4.327174794786742389E-16 ) ) ;
#45 = PERSON_AND_ORGANIZATION_ROLE ( 'design_supplier' ) ;
#46 = DIRECTION ( 'NONE',  ( -3.491481338843133355E-15, 4.327174794786742882E-16, -1.000000000000000000 ) ) ;
#47 = COORDINATED_UNIVERSAL_TIME_OFFSET ( 1, 0, .AHEAD. ) ;
#48 = DIRECTION ( 'NONE',  ( -3.491481338843133355E-15, 1.224646799147353207E-16, -1.000000000000000000 ) ) ;
#49 = APPROVAL_PERSON_ORGANIZATION ( #260, #57, #69 ) ;
#50 = FACE_OUTER_BOUND ( 'NONE', #206, .T. ) ;
#51 = CARTESIAN_POINT ( 'NONE',  ( 1.733645823276455903E-13, -4.000000000000020428, 49.65358983848619800 ) ) ;
#52 = DIRECTION ( 'NONE',  ( 1.000000000000000000, 0.0000000000000000000, 0.0000000000000000000 ) ) ;
#53 = VERTEX_POINT ( 'NONE', #111 ) ;
#54 = EDGE_LOOP ( 'NONE', ( #225 ) ) ;
#55 = VERTEX_POINT ( 'NONE', #88 ) ;
#56 = ADVANCED_FACE ( 'NONE', ( #144, #24 ), #253, .T. ) ;
#57 = APPROVAL ( #259, 'UNSPECIFIED' ) ;
#58 = TOROIDAL_SURFACE ( 'NONE', #67, 4.200000000000014388, 0.9999999999999991118 ) ;
#59 = ADVANCED_FACE ( 'NONE', ( #10, #41 ), #165, .T. ) ;
#60 = DIRECTION ( 'NONE',  ( 0.0000000000000000000, -1.000000000000000000, 0.0000000000000000000 ) ) ;
#61 = DIRECTION ( 'NONE',  ( 0.0000000000000000000, 1.000000000000000000, 0.0000000000000000000 ) ) ;
#62 = LOCAL_TIME ( 14, 57, 35.00000000000000000, #5 ) ;
#63 = DIRECTION ( 'NONE',  ( 1.510825004591027679E-30, 1.000000000000000000, 4.327174794786742882E-16 ) ) ;
#64 = CARTESIAN_POINT ( 'NONE',  ( 1.763882938639231451E-13, -2.186072057186777557E-14, 50.51961524227066747 ) ) ;
#65 = ADVANCED_FACE ( 'NONE', ( #164, #147 ), #251, .T. ) ;
#66 = DIRECTION ( 'NONE',  ( -3.491481338843133355E-15, 1.224646799147353207E-16, -1.000000000000000000 ) ) ;
#67 = AXIS2_PLACEMENT_3D ( 'NONE', #214, #106, #44 ) ;
#68 = CARTESIAN_POINT ( 'NONE',  ( 3.533379114909250198E-13, 3.999999999999989786, 101.1999999999999886 ) ) ;
#69 = APPROVAL_ROLE ( '' ) ;
#70 = PERSON_AND_ORGANIZATION_ROLE ( 'creator' ) ;
#71 = APPLICATION_PROTOCOL_DEFINITION ( 'international standard', 'config_control_design', 1994, #109 ) ;
#72 = AXIS2_PLACEMENT_3D ( 'NONE', #167, #146, #29 ) ;
#73 = ORIENTED_EDGE ( 'NONE', *, *, #74, .T. ) ;
#74 = EDGE_CURVE ( 'NONE', #55, #55, #196, .T. ) ;
#75 = DATE_TIME_ROLE ( 'creation_date' ) ;
#76 = AXIS2_PLACEMENT_3D ( 'NONE', #204, #127, #60 ) ;
#77 = ORIENTED_EDGE ( 'NONE', *, *, #228, .F. ) ;
#78 = DIRECTION ( 'NONE',  ( 3.491481338843133355E-15, -1.224646799147353207E-16, 1.000000000000000000 ) ) ;
#79 = AXIS2_PLACEMENT_3D ( 'NONE', #209, #212, #119 ) ;
#80 = PLANE ( 'NONE',  #183 ) ;
#81 = ADVANCED_FACE ( 'NONE', ( #122, #83 ), #58, .F. ) ;
#82 = DIRECTION ( 'NONE',  ( -3.491481338843133355E-15, 1.224646799147353207E-16, -1.000000000000000000 ) ) ;
#83 = FACE_OUTER_BOUND ( 'NONE', #161, .T. ) ;
#84 = CALENDAR_DATE ( 2021, 13, 10 ) ;
#85 = FACE_OUTER_BOUND ( 'NONE', #54, .T. ) ;
#86 =( NAMED_UNIT ( * ) PLANE_ANGLE_UNIT ( ) SI_UNIT ( $, .RADIAN. ) );
#87 = APPROVAL_PERSON_ORGANIZATION ( #169, #262, #176 ) ;
#88 = CARTESIAN_POINT ( 'NONE',  ( 1.452456236958743476E-13, -3.200000000000025935, 41.60000000000000142 ) ) ;
#89 = PLANE ( 'NONE',  #91 ) ;
#90 = APPROVAL_DATE_TIME ( #152, #57 ) ;
#91 = AXIS2_PLACEMENT_3D ( 'NONE', #243, #237, #35 ) ;
#92 = CC_DESIGN_PERSON_AND_ORGANIZATION_ASSIGNMENT ( #203, #124, ( #139 ) ) ;
#93 = APPLICATION_CONTEXT ( 'configuration controlled 3d designs of mechanical parts and assemblies' ) ;
#94 = EDGE_LOOP ( 'NONE', ( #181 ) ) ;
#95 = ORGANIZATION ( 'UNSPECIFIED', 'UNSPECIFIED', '' ) ;
#96 = FACE_OUTER_BOUND ( 'NONE', #99, .T. ) ;
#97 = EDGE_LOOP ( 'NONE', ( #229 ) ) ;
#98 = APPROVAL_PERSON_ORGANIZATION ( #155, #168, #116 ) ;
#99 = EDGE_LOOP ( 'NONE', ( #73 ) ) ;
#100 = DIRECTION ( 'NONE',  ( -3.491481338843133355E-15, 1.224646799147353207E-16, -1.000000000000000000 ) ) ;
#101 = EDGE_LOOP ( 'NONE', ( #136 ) ) ;
#102 = DIRECTION ( 'NONE',  ( 0.0000000000000000000, -1.000000000000000000, 0.0000000000000000000 ) ) ;
#103 = ADVANCED_FACE ( 'NONE', ( #85, #107 ), #210, .T. ) ;
#104 = CARTESIAN_POINT ( 'NONE',  ( 1.733645823276455903E-13, -2.148597624197765891E-14, 49.65358983848619800 ) ) ;
#105 = CIRCLE ( 'NONE', #213, 3.200000000000007727 ) ;
#106 = DIRECTION ( 'NONE',  ( -3.491481338843133355E-15, 4.327174794786742882E-16, -1.000000000000000000 ) ) ;
#107 = FACE_OUTER_BOUND ( 'NONE', #40, .T. ) ;
#108 = CARTESIAN_POINT ( 'NONE',  ( 0.0000000000000000000, 0.0000000000000000000, 0.0000000000000000000 ) ) ;
#109 = APPLICATION_CONTEXT ( 'configuration controlled 3d designs of mechanical parts and assemblies' ) ;
#110 = APPROVAL_DATE_TIME ( #132, #262 ) ;
#111 = CARTESIAN_POINT ( 'NONE',  ( 1.675911042644704011E-13, 3.199999999999994404, 48.00000000000000000 ) ) ;
#112 = COORDINATED_UNIVERSAL_TIME_OFFSET ( 1, 0, .AHEAD. ) ;
#113 = EDGE_CURVE ( 'NONE', #53, #53, #142, .T. ) ;
#114 = LOCAL_TIME ( 14, 57, 35.00000000000000000, #112 ) ;
#115 = CC_DESIGN_PERSON_AND_ORGANIZATION_ASSIGNMENT ( #234, #45, ( #3 ) ) ;
#116 = APPROVAL_ROLE ( '' ) ;
#117 = EDGE_CURVE ( 'NONE', #36, #36, #250, .T. ) ;
#118 = EDGE_LOOP ( 'NONE', ( #42 ) ) ;
#119 = DIRECTION ( 'NONE',  ( 1.510825004591027679E-30, 1.000000000000000000, 4.327174794786742882E-16 ) ) ;
#120 = CC_DESIGN_APPROVAL ( #262, ( #139 ) ) ;
#121 = ORIENTED_EDGE ( 'NONE', *, *, #117, .T. ) ;
#122 = FACE_OUTER_BOUND ( 'NONE', #263, .T. ) ;
#123 = CC_DESIGN_PERSON_AND_ORGANIZATION_ASSIGNMENT ( #153, #70, ( #246 ) ) ;
#124 = PERSON_AND_ORGANIZATION_ROLE ( 'classification_officer' ) ;
#125 = DIRECTION ( 'NONE',  ( -3.491481338843133355E-15, 1.224646799147353207E-16, -1.000000000000000000 ) ) ;
#126 = DATE_AND_TIME ( #84, #62 ) ;
#127 = DIRECTION ( 'NONE',  ( -3.491481338843133355E-15, 1.224646799147353207E-16, -1.000000000000000000 ) ) ;
#128 =( GEOMETRIC_REPRESENTATION_CONTEXT ( 3 ) GLOBAL_UNCERTAINTY_ASSIGNED_CONTEXT ( ( #31 ) ) GLOBAL_UNIT_ASSIGNED_CONTEXT ( ( #14, #86, #131 ) ) REPRESENTATION_CONTEXT ( 'NONE', 'WORKASPACE' ) );
#129 = DIRECTION ( 'NONE',  ( 3.491481338843133355E-15, -4.327174794786742882E-16, 1.000000000000000000 ) ) ;
#130 = CC_DESIGN_DATE_AND_TIME_ASSIGNMENT ( #9, #174, ( #139 ) ) ;
#131 =( NAMED_UNIT ( * ) SI_UNIT ( $, .STERADIAN. ) SOLID_ANGLE_UNIT ( ) );
#132 = DATE_AND_TIME ( #32, #245 ) ;
#133 = AXIS2_PLACEMENT_3D ( 'NONE', #166, #82, #8 ) ;
#134 = CARTESIAN_POINT ( 'NONE',  ( 4.066544898671451654E-15, -3.200000000000007727, 1.164704749651865434 ) ) ;
#135 = CALENDAR_DATE ( 2021, 13, 10 ) ;
#136 = ORIENTED_EDGE ( 'NONE', *, *, #38, .T. ) ;
#137 = CARTESIAN_POINT ( 'NONE',  ( 1.693368449338919867E-13, 3.333974596215556030, 48.50000000000000000 ) ) ;
#138 = ORIENTED_EDGE ( 'NONE', *, *, #159, .T. ) ;
#139 = SECURITY_CLASSIFICATION ( '', '', #25 ) ;
#140 = CLOSED_SHELL ( 'NONE', ( #56, #215, #258, #103, #59, #81, #30 ) ) ;
#141 = PERSON ( 'UNSPECIFIED', 'UNSPECIFIED', 'UNSPECIFIED', ('UNSPECIFIED'), ('UNSPECIFIED'), ('UNSPECIFIED') ) ;
#142 = CIRCLE ( 'NONE', #7, 3.200000000000015277 ) ;
#143 = CC_DESIGN_PERSON_AND_ORGANIZATION_ASSIGNMENT ( #232, #43, ( #3 ) ) ;
#144 = FACE_OUTER_BOUND ( 'NONE', #201, .T. ) ;
#145 = EDGE_LOOP ( 'NONE', ( #121 ) ) ;
#146 = DIRECTION ( 'NONE',  ( -3.491481338843133355E-15, 4.327174794786742882E-16, -1.000000000000000000 ) ) ;
#147 = FACE_OUTER_BOUND ( 'NONE', #248, .T. ) ;
#148 = DIRECTION ( 'NONE',  ( 3.491481338843133355E-15, -1.224646799147353207E-16, 1.000000000000000000 ) ) ;
#149 = DIRECTION ( 'NONE',  ( -4.814824860968078247E-31, -1.000000000000000000, -1.355252715606877338E-16 ) ) ;
#150 = COORDINATED_UNIVERSAL_TIME_OFFSET ( 1, 0, .AHEAD. ) ;
#151 = DIRECTION ( 'NONE',  ( 3.491481338843133355E-15, -1.224646799147353207E-16, 1.000000000000000000 ) ) ;
#152 = DATE_AND_TIME ( #135, #18 ) ;
#153 = PERSON_AND_ORGANIZATION ( #141, #95 ) ;
#154 = CARTESIAN_POINT ( 'NONE',  ( 1.452456236958743476E-13, -3.200000000000025935, 41.60000000000000142 ) ) ;
#155 = PERSON_AND_ORGANIZATION ( #141, #95 ) ;
#156 = CC_DESIGN_SECURITY_CLASSIFICATION ( #139, ( #3 ) ) ;
#157 = CIRCLE ( 'NONE', #76, 3.200000000000007727 ) ;
#158 = APPROVAL_STATUS ( 'not_yet_approved' ) ;
#159 = EDGE_CURVE ( 'NONE', #238, #238, #11, .T. ) ;
#160 = DIRECTION ( 'NONE',  ( -4.275831445896958607E-31, -1.000000000000000000, -1.224646799147353207E-16 ) ) ;
#161 = EDGE_LOOP ( 'NONE', ( #19 ) ) ;
#162 = FACE_OUTER_BOUND ( 'NONE', #97, .T. ) ;
#163 = DIRECTION ( 'NONE',  ( -3.851859888774481340E-31, -1.000000000000000000, -1.084202172485507146E-16 ) ) ;
#164 = FACE_OUTER_BOUND ( 'NONE', #101, .T. ) ;
#165 = CONICAL_SURFACE ( 'NONE', #208, 4.500000000000016875, 0.5235987755982991487 ) ;
#166 = CARTESIAN_POINT ( 'NONE',  ( 3.533379114909250198E-13, -1.239342560737121245E-14, 101.1999999999999886 ) ) ;
#167 = CARTESIAN_POINT ( 'NONE',  ( 1.693368449338919867E-13, -2.098679775471570456E-14, 48.50000000000000000 ) ) ;
#168 = APPROVAL ( #158, 'UNSPECIFIED' ) ;
#169 = PERSON_AND_ORGANIZATION ( #141, #95 ) ;
#170 = VERTEX_POINT ( 'NONE', #137 ) ;
#171 = CC_DESIGN_APPROVAL ( #57, ( #246 ) ) ;
#172 = AXIS2_PLACEMENT_3D ( 'NONE', #2, #78, #160 ) ;
#173 = PERSON_AND_ORGANIZATION_ROLE ( 'design_owner' ) ;
#174 = DATE_TIME_ROLE ( 'classification_date' ) ;
#175 = MECHANICAL_CONTEXT ( 'NONE', #93, 'mechanical' ) ;
#176 = APPROVAL_ROLE ( '' ) ;
#177 = AXIS2_PLACEMENT_3D ( 'NONE', #6, #46, #63 ) ;
#178 = DIRECTION ( 'NONE',  ( -4.275831445896958607E-31, -1.000000000000000000, -1.224646799147353207E-16 ) ) ;
#179 = ORIENTED_EDGE ( 'NONE', *, *, #113, .F. ) ;
#180 = CC_DESIGN_DATE_AND_TIME_ASSIGNMENT ( #198, #75, ( #246 ) ) ;
#181 = ORIENTED_EDGE ( 'NONE', *, *, #159, .F. ) ;
#182 = PRODUCT ( '966745', '966745', '', ( #175 ) ) ;
#183 = AXIS2_PLACEMENT_3D ( 'NONE', #33, #151, #178 ) ;
#184 = EDGE_CURVE ( 'NONE', #193, #193, #218, .T. ) ;
#185 = DIRECTION ( 'NONE',  ( 0.0000000000000000000, 1.000000000000000000, 0.0000000000000000000 ) ) ;
#186 = CARTESIAN_POINT ( 'NONE',  ( 0.0000000000000000000, 0.0000000000000000000, 0.0000000000000000000 ) ) ;
#187 = DIRECTION ( 'NONE',  ( 3.491481338843133355E-15, -4.327174794786742882E-16, 1.000000000000000000 ) ) ;
#188 = AXIS2_PLACEMENT_3D ( 'NONE', #235, #192, #28 ) ;
#189 = APPROVAL_DATE_TIME ( #126, #168 ) ;
#190 = CARTESIAN_POINT ( 'NONE',  ( 5.083181123339291296E-15, -1.782939929516087477E-16, 1.455880937064825131 ) ) ;
#191 = CC_DESIGN_PERSON_AND_ORGANIZATION_ASSIGNMENT ( #34, #173, ( #182 ) ) ;
#192 = DIRECTION ( 'NONE',  ( -3.491481338843133355E-15, 1.224646799147353207E-16, -1.000000000000000000 ) ) ;
#193 = VERTEX_POINT ( 'NONE', #68 ) ;
#194 = ADVANCED_BREP_SHAPE_REPRESENTATION ( '966745', ( #217, #205, #236 ), #128 ) ;
#195 = CARTESIAN_POINT ( 'NONE',  ( 3.561310965619995770E-13, 3.199999999999989964, 102.0000000000000000 ) ) ;
#196 = CIRCLE ( 'NONE', #188, 3.200000000000007727 ) ;
#197 = ORIENTED_EDGE ( 'NONE', *, *, #38, .F. ) ;
#198 = DATE_AND_TIME ( #240, #114 ) ;
#199 = ADVANCED_FACE ( 'NONE', ( #247 ), #239, .T. ) ;
#200 = PRODUCT_DEFINITION_SHAPE ( 'NONE', 'NONE',  #246 ) ;
#201 = EDGE_LOOP ( 'NONE', ( #138 ) ) ;
#202 = ORIENTED_EDGE ( 'NONE', *, *, #74, .F. ) ;
#203 = PERSON_AND_ORGANIZATION ( #141, #95 ) ;
#204 = CARTESIAN_POINT ( 'NONE',  ( 1.452456236958743476E-13, -1.800104714631284976E-14, 41.60000000000000142 ) ) ;
#205 = MANIFOLD_SOLID_BREP ( 'Corps-Déplacer/Copier1[2]', #23 ) ;
#206 = EDGE_LOOP ( 'NONE', ( #197 ) ) ;
#207 = CARTESIAN_POINT ( 'NONE',  ( 1.675911042644704011E-13, -2.077043901497636583E-14, 48.00000000000000000 ) ) ;
#208 = AXIS2_PLACEMENT_3D ( 'NONE', #64, #129, #102 ) ;
#209 = CARTESIAN_POINT ( 'NONE',  ( 0.0000000000000000000, 0.0000000000000000000, 0.0000000000000000000 ) ) ;
#210 = CYLINDRICAL_SURFACE ( 'NONE', #79, 3.200000000000007727 ) ;
#211 = CALENDAR_DATE ( 2021, 13, 10 ) ;
#212 = DIRECTION ( 'NONE',  ( -3.491481338843133355E-15, 4.327174794786742882E-16, -1.000000000000000000 ) ) ;
#213 = AXIS2_PLACEMENT_3D ( 'NONE', #231, #66, #149 ) ;
#214 = CARTESIAN_POINT ( 'NONE',  ( 1.675911042644704011E-13, -2.081668171172168513E-14, 48.00000000000000000 ) ) ;
#215 = ADVANCED_FACE ( 'NONE', ( #162, #249 ), #27, .T. ) ;
#216 = FACE_OUTER_BOUND ( 'NONE', #242, .T. ) ;
#217 = MANIFOLD_SOLID_BREP ( 'Corps-Déplacer/Copier1[1]', #140 ) ;
#218 = CIRCLE ( 'NONE', #133, 4.000000000000001776 ) ;
#219 = AXIS2_PLACEMENT_3D ( 'NONE', #186, #125, #227 ) ;
#220 = APPLICATION_PROTOCOL_DEFINITION ( 'international standard', 'config_control_design', 1994, #93 ) ;
#221 = EDGE_LOOP ( 'NONE', ( #77 ) ) ;
#222 = VERTEX_POINT ( 'NONE', #134 ) ;
#223 = AXIS2_PLACEMENT_3D ( 'NONE', #254, #100, #185 ) ;
#224 = ORIENTED_EDGE ( 'NONE', *, *, #117, .F. ) ;
#225 = ORIENTED_EDGE ( 'NONE', *, *, #113, .T. ) ;
#226 = AXIS2_PLACEMENT_3D ( 'NONE', #104, #187, #4 ) ;
#227 = DIRECTION ( 'NONE',  ( 4.275831445896958607E-31, 1.000000000000000000, 1.224646799147353207E-16 ) ) ;
#228 = EDGE_CURVE ( 'NONE', #170, #170, #37, .T. ) ;
#229 = ORIENTED_EDGE ( 'NONE', *, *, #184, .F. ) ;
#230 = AXIS2_PLACEMENT_3D ( 'NONE', #233, #48, #61 ) ;
#231 = CARTESIAN_POINT ( 'NONE',  ( 4.066544898671453231E-15, -1.426351943612877130E-16, 1.164704749651865878 ) ) ;
#232 = PERSON_AND_ORGANIZATION ( #141, #95 ) ;
#233 = CARTESIAN_POINT ( 'NONE',  ( 3.561310965619995770E-13, -1.249139735130300089E-14, 102.0000000000000000 ) ) ;
#234 = PERSON_AND_ORGANIZATION ( #141, #95 ) ;
#235 = CARTESIAN_POINT ( 'NONE',  ( 1.452456236958743476E-13, -1.800104714631284976E-14, 41.60000000000000142 ) ) ;
#236 = AXIS2_PLACEMENT_3D ( 'NONE', #108, #12, #52 ) ;
#237 = DIRECTION ( 'NONE',  ( -3.491481338843133355E-15, 1.224646799147353207E-16, -1.000000000000000000 ) ) ;
#238 = VERTEX_POINT ( 'NONE', #51 ) ;
#239 = CONICAL_SURFACE ( 'NONE', #17, 3.999999999999989786, 1.221730476396026388 ) ;
#240 = CALENDAR_DATE ( 2021, 13, 10 ) ;
#241 = EDGE_CURVE ( 'NONE', #222, #222, #105, .T. ) ;
#242 = EDGE_LOOP ( 'NONE', ( #224 ) ) ;
#243 = CARTESIAN_POINT ( 'NONE',  ( 3.561310965619995770E-13, 2.399615652258955477E-32, 102.0000000000000000 ) ) ;
#244 = ORIENTED_EDGE ( 'NONE', *, *, #184, .T. ) ;
#245 = LOCAL_TIME ( 14, 57, 35.00000000000000000, #150 ) ;
#246 = PRODUCT_DEFINITION ( 'UNKNOWN', '', #3, #257 ) ;
#247 = FACE_OUTER_BOUND ( 'NONE', #118, .T. ) ;
#248 = EDGE_LOOP ( 'NONE', ( #39 ) ) ;
#249 = FACE_BOUND ( 'NONE', #145, .T. ) ;
#250 = CIRCLE ( 'NONE', #223, 3.200000000000002842 ) ;
#251 = CYLINDRICAL_SURFACE ( 'NONE', #177, 3.200000000000007727 ) ;
#252 = ADVANCED_FACE ( 'NONE', ( #50 ), #80, .T. ) ;
#253 = CYLINDRICAL_SURFACE ( 'NONE', #219, 3.999999999999998224 ) ;
#254 = CARTESIAN_POINT ( 'NONE',  ( 3.561310965619995770E-13, -1.249139735130300089E-14, 102.0000000000000000 ) ) ;
#255 = VERTEX_POINT ( 'NONE', #154 ) ;
#256 = CC_DESIGN_APPROVAL ( #168, ( #3 ) ) ;
#257 = DESIGN_CONTEXT ( 'detailed design', #109, 'design' ) ;
#258 = ADVANCED_FACE ( 'NONE', ( #216 ), #89, .F. ) ;
#259 = APPROVAL_STATUS ( 'not_yet_approved' ) ;
#260 = PERSON_AND_ORGANIZATION ( #141, #95 ) ;
#261 = SHAPE_DEFINITION_REPRESENTATION ( #200, #194 ) ;
#262 = APPROVAL ( #13, 'UNSPECIFIED' ) ;
#263 = EDGE_LOOP ( 'NONE', ( #179 ) ) ;
ENDSEC;
END-ISO-10303-21;
