ISO-10303-21;
HEADER;
FILE_DESCRIPTION (( 'STEP AP203' ),
    '1' );
FILE_NAME ('966744.step',
    '2021-10-13T12:57:34',
    ( '' ),
    ( '' ),
    'SwSTEP 2.0',
    'SolidWorks 2019',
    '' );
FILE_SCHEMA (( 'CONFIG_CONTROL_DESIGN' ));
ENDSEC;

DATA;
#1 = FACE_OUTER_BOUND ( 'NONE', #136, .T. ) ;
#2 = PRODUCT_DEFINITION_SHAPE ( 'NONE', 'NONE',  #60 ) ;
#3 = DIRECTION ( 'NONE',  ( -5.222860866134864287E-31, -1.000000000000000000, -1.470104640658307550E-16 ) ) ;
#4 = FACE_OUTER_BOUND ( 'NONE', #232, .T. ) ;
#5 = VERTEX_POINT ( 'NONE', #188 ) ;
#6 = ORGANIZATION ( 'UNSPECIFIED', 'UNSPECIFIED', '' ) ;
#7 = DIRECTION ( 'NONE',  ( 0.0000000000000000000, -1.000000000000000000, 0.0000000000000000000 ) ) ;
#8 = EDGE_LOOP ( 'NONE', ( #133 ) ) ;
#9 = DIRECTION ( 'NONE',  ( 0.0000000000000000000, 1.000000000000000000, 0.0000000000000000000 ) ) ;
#10 = PERSON_AND_ORGANIZATION ( #174, #6 ) ;
#11 = AXIS2_PLACEMENT_3D ( 'NONE', #137, #176, #161 ) ;
#12 = DIRECTION ( 'NONE',  ( 1.510825004591027679E-30, 1.000000000000000000, 4.327174794786742882E-16 ) ) ;
#13 = ORIENTED_EDGE ( 'NONE', *, *, #243, .T. ) ;
#14 = DATE_AND_TIME ( #46, #128 ) ;
#15 = CC_DESIGN_DATE_AND_TIME_ASSIGNMENT ( #100, #53, ( #60 ) ) ;
#16 = DIRECTION ( 'NONE',  ( -3.491481338843133355E-15, 4.327174794786742882E-16, -1.000000000000000000 ) ) ;
#17 = CC_DESIGN_APPROVAL ( #218, ( #60 ) ) ;
#18 = EDGE_CURVE ( 'NONE', #77, #77, #111, .T. ) ;
#19 = CC_DESIGN_SECURITY_CLASSIFICATION ( #116, ( #98 ) ) ;
#20 = CARTESIAN_POINT ( 'NONE',  ( 1.340728834115762956E-13, -1.661635121198109330E-14, 38.39999999999999858 ) ) ;
#21 = CARTESIAN_POINT ( 'NONE',  ( 1.546726233107508139E-13, 2.949999999999994849, 44.29999999999999716 ) ) ;
#22 = DIRECTION ( 'NONE',  ( 0.0000000000000000000, 1.000000000000000000, 0.0000000000000000000 ) ) ;
#23 = AXIS2_PLACEMENT_3D ( 'NONE', #109, #93, #224 ) ;
#24 = VERTEX_POINT ( 'NONE', #61 ) ;
#25 = DIRECTION ( 'NONE',  ( 0.0000000000000000000, 1.000000000000000000, 0.0000000000000000000 ) ) ;
#26 = PLANE ( 'NONE',  #211 ) ;
#27 = VERTEX_POINT ( 'NONE', #126 ) ;
#28 = CARTESIAN_POINT ( 'NONE',  ( 1.340728834115762956E-13, 2.249639673992777106E-32, 38.39999999999999858 ) ) ;
#29 = APPROVAL_ROLE ( '' ) ;
#30 = DIRECTION ( 'NONE',  ( -3.491481338843133355E-15, 1.224646799147353207E-16, -1.000000000000000000 ) ) ;
#31 = EDGE_LOOP ( 'NONE', ( #220 ) ) ;
#32 = APPROVAL_STATUS ( 'not_yet_approved' ) ;
#33 = ADVANCED_FACE ( 'NONE', ( #142, #58 ), #130, .T. ) ;
#34 = PERSON_AND_ORGANIZATION_ROLE ( 'design_owner' ) ;
#35 = CC_DESIGN_PERSON_AND_ORGANIZATION_ASSIGNMENT ( #80, #68, ( #116 ) ) ;
#36 = EDGE_LOOP ( 'NONE', ( #70 ) ) ;
#37 = EDGE_CURVE ( 'NONE', #5, #5, #43, .T. ) ;
#38 = LOCAL_TIME ( 14, 57, 34.00000000000000000, #160 ) ;
#39 = TOROIDAL_SURFACE ( 'NONE', #147, 3.950000000000014388, 1.000000000000003997 ) ;
#40 = CC_DESIGN_PERSON_AND_ORGANIZATION_ASSIGNMENT ( #216, #65, ( #98 ) ) ;
#41 = APPLICATION_PROTOCOL_DEFINITION ( 'international standard', 'config_control_design', 1994, #210 ) ;
#42 = DIRECTION ( 'NONE',  ( -3.491481338843133355E-15, 1.224646799147353207E-16, -1.000000000000000000 ) ) ;
#43 = CIRCLE ( 'NONE', #67, 2.999999999999999112 ) ;
#44 = CARTESIAN_POINT ( 'NONE',  ( 1.340728834115762956E-13, -2.950000000000023714, 38.39999999999999858 ) ) ;
#45 = CARTESIAN_POINT ( 'NONE',  ( 1.557628380093767326E-13, -1.921707422540567776E-14, 44.61224989991988821 ) ) ;
#46 = CALENDAR_DATE ( 2021, 13, 10 ) ;
#47 = CARTESIAN_POINT ( 'NONE',  ( 1.546726233107508139E-13, -1.908195823574487804E-14, 44.29999999999999716 ) ) ;
#48 = CIRCLE ( 'NONE', #177, 3.000000000000001332 ) ;
#49 = APPROVAL_STATUS ( 'not_yet_approved' ) ;
#50 = DATE_AND_TIME ( #99, #38 ) ;
#51 = EDGE_LOOP ( 'NONE', ( #13 ) ) ;
#52 = APPROVAL_ROLE ( '' ) ;
#53 = DATE_TIME_ROLE ( 'creation_date' ) ;
#54 = AXIS2_PLACEMENT_3D ( 'NONE', #28, #213, #113 ) ;
#55 =( GEOMETRIC_REPRESENTATION_CONTEXT ( 3 ) GLOBAL_UNCERTAINTY_ASSIGNED_CONTEXT ( ( #69 ) ) GLOBAL_UNIT_ASSIGNED_CONTEXT ( ( #214, #150, #226 ) ) REPRESENTATION_CONTEXT ( 'NONE', 'WORKASPACE' ) );
#56 = ORIENTED_EDGE ( 'NONE', *, *, #18, .F. ) ;
#57 = EDGE_CURVE ( 'NONE', #152, #152, #159, .T. ) ;
#58 = FACE_OUTER_BOUND ( 'NONE', #164, .T. ) ;
#59 = ADVANCED_FACE ( 'NONE', ( #62 ), #229, .F. ) ;
#60 = PRODUCT_DEFINITION ( 'UNKNOWN', '', #98, #88 ) ;
#61 = CARTESIAN_POINT ( 'NONE',  ( 3.082978022198486311E-13, 2.999999999999990674, 88.29999999999998295 ) ) ;
#62 = FACE_OUTER_BOUND ( 'NONE', #238, .T. ) ;
#63 = AXIS2_PLACEMENT_3D ( 'NONE', #95, #42, #208 ) ;
#64 = CYLINDRICAL_SURFACE ( 'NONE', #189, 2.950000000000007283 ) ;
#65 = PERSON_AND_ORGANIZATION_ROLE ( 'creator' ) ;
#66 = EDGE_LOOP ( 'NONE', ( #204 ) ) ;
#67 = AXIS2_PLACEMENT_3D ( 'NONE', #45, #108, #22 ) ;
#68 = PERSON_AND_ORGANIZATION_ROLE ( 'classification_officer' ) ;
#69 = UNCERTAINTY_MEASURE_WITH_UNIT (LENGTH_MEASURE( 1.000000000000000082E-05 ), #214, 'distance_accuracy_value', 'NONE');
#70 = ORIENTED_EDGE ( 'NONE', *, *, #167, .F. ) ;
#71 = CIRCLE ( 'NONE', #166, 2.950000000000007283 ) ;
#72 = EDGE_LOOP ( 'NONE', ( #158 ) ) ;
#73 = LOCAL_TIME ( 14, 57, 34.00000000000000000, #217 ) ;
#74 = CC_DESIGN_PERSON_AND_ORGANIZATION_ASSIGNMENT ( #235, #34, ( #236 ) ) ;
#75 = DIRECTION ( 'NONE',  ( -3.491481338843133355E-15, 1.224646799147353207E-16, -1.000000000000000000 ) ) ;
#76 = CARTESIAN_POINT ( 'NONE',  ( 1.340728834115762956E-13, -2.950000000000023714, 38.39999999999999858 ) ) ;
#77 = VERTEX_POINT ( 'NONE', #76 ) ;
#78 = CARTESIAN_POINT ( 'NONE',  ( 0.0000000000000000000, 0.0000000000000000000, 0.0000000000000000000 ) ) ;
#79 = APPROVAL_PERSON_ORGANIZATION ( #10, #141, #29 ) ;
#80 = PERSON_AND_ORGANIZATION ( #174, #6 ) ;
#81 = ADVANCED_FACE ( 'NONE', ( #112, #4 ), #64, .T. ) ;
#82 = EDGE_LOOP ( 'NONE', ( #119 ) ) ;
#83 = DIRECTION ( 'NONE',  ( 1.000000000000000000, 0.0000000000000000000, 0.0000000000000000000 ) ) ;
#84 = ORIENTED_EDGE ( 'NONE', *, *, #167, .T. ) ;
#85 = CALENDAR_DATE ( 2021, 13, 10 ) ;
#86 = PERSON_AND_ORGANIZATION_ROLE ( 'creator' ) ;
#87 = AXIS2_PLACEMENT_3D ( 'NONE', #20, #185, #206 ) ;
#88 = DESIGN_CONTEXT ( 'detailed design', #144, 'design' ) ;
#89 = PLANE ( 'NONE',  #110 ) ;
#90 = ADVANCED_FACE ( 'NONE', ( #187 ), #89, .T. ) ;
#91 = VERTEX_POINT ( 'NONE', #21 ) ;
#92 = CC_DESIGN_DATE_AND_TIME_ASSIGNMENT ( #50, #131, ( #116 ) ) ;
#93 = DIRECTION ( 'NONE',  ( 3.491481338843133355E-15, -1.224646799147353207E-16, 1.000000000000000000 ) ) ;
#94 = FACE_OUTER_BOUND ( 'NONE', #51, .T. ) ;
#95 = CARTESIAN_POINT ( 'NONE',  ( 0.0000000000000000000, 0.0000000000000000000, 0.0000000000000000000 ) ) ;
#96 = EDGE_CURVE ( 'NONE', #91, #91, #240, .T. ) ;
#97 = MANIFOLD_SOLID_BREP ( 'Corps-Déplacer/Copier1[2]', #202 ) ;
#98 = PRODUCT_DEFINITION_FORMATION_WITH_SPECIFIED_SOURCE ( 'ANY', '', #236, .NOT_KNOWN. ) ;
#99 = CALENDAR_DATE ( 2021, 13, 10 ) ;
#100 = DATE_AND_TIME ( #85, #73 ) ;
#101 = DIRECTION ( 'NONE',  ( -3.491481338843133355E-15, 1.224646799147353207E-16, -1.000000000000000000 ) ) ;
#102 = EDGE_LOOP ( 'NONE', ( #178 ) ) ;
#103 = CALENDAR_DATE ( 2021, 13, 10 ) ;
#104 = CARTESIAN_POINT ( 'NONE',  ( 1.340728834115762956E-13, 2.249639673992777106E-32, 38.39999999999999858 ) ) ;
#105 = APPROVAL_DATE_TIME ( #14, #218 ) ;
#106 = SECURITY_CLASSIFICATION_LEVEL ( 'unclassified' ) ;
#107 = CIRCLE ( 'NONE', #140, 2.950000000000007283 ) ;
#108 = DIRECTION ( 'NONE',  ( 3.491481338843133355E-15, -4.327174794786742882E-16, 1.000000000000000000 ) ) ;
#109 = CARTESIAN_POINT ( 'NONE',  ( 3.812385842504469655E-15, -1.337204947137065916E-16, 1.091910702798619237 ) ) ;
#110 = AXIS2_PLACEMENT_3D ( 'NONE', #104, #165, #230 ) ;
#111 = CIRCLE ( 'NONE', #87, 2.950000000000007283 ) ;
#112 = FACE_OUTER_BOUND ( 'NONE', #8, .T. ) ;
#113 = DIRECTION ( 'NONE',  ( -4.275831445896958607E-31, -1.000000000000000000, -1.224646799147353207E-16 ) ) ;
#114 = PERSON_AND_ORGANIZATION ( #174, #6 ) ;
#115 = CONICAL_SURFACE ( 'NONE', #173, 2.300000000000001155, 0.7853981633974439491 ) ;
#116 = SECURITY_CLASSIFICATION ( '', '', #106 ) ;
#117 = ADVANCED_FACE ( 'NONE', ( #118, #237 ), #115, .T. ) ;
#118 = FACE_OUTER_BOUND ( 'NONE', #36, .T. ) ;
#119 = ORIENTED_EDGE ( 'NONE', *, *, #96, .F. ) ;
#120 = APPLICATION_PROTOCOL_DEFINITION ( 'international standard', 'config_control_design', 1994, #144 ) ;
#121 = ORIENTED_EDGE ( 'NONE', *, *, #243, .F. ) ;
#122 = CC_DESIGN_APPROVAL ( #169, ( #98 ) ) ;
#123 = CALENDAR_DATE ( 2021, 13, 10 ) ;
#124 = ADVANCED_BREP_SHAPE_REPRESENTATION ( '966744', ( #182, #97, #145 ), #55 ) ;
#125 = LOCAL_TIME ( 14, 57, 34.00000000000000000, #154 ) ;
#126 = CARTESIAN_POINT ( 'NONE',  ( 3.748846078462743680E-15, -2.950000000000007283, 1.073712191085313350 ) ) ;
#127 = ADVANCED_FACE ( 'NONE', ( #139, #222 ), #39, .F. ) ;
#128 = LOCAL_TIME ( 14, 57, 34.00000000000000000, #221 ) ;
#129 = DIRECTION ( 'NONE',  ( -3.491481338843133355E-15, 4.327174794786742882E-16, -1.000000000000000000 ) ) ;
#130 = CYLINDRICAL_SURFACE ( 'NONE', #63, 2.999999999999999112 ) ;
#131 = DATE_TIME_ROLE ( 'classification_date' ) ;
#132 = CARTESIAN_POINT ( 'NONE',  ( 3.107418391570388560E-13, -1.089935651241144239E-14, 89.00000000000000000 ) ) ;
#133 = ORIENTED_EDGE ( 'NONE', *, *, #18, .T. ) ;
#134 = APPROVAL_DATE_TIME ( #180, #169 ) ;
#135 = FACE_OUTER_BOUND ( 'NONE', #162, .T. ) ;
#136 = EDGE_LOOP ( 'NONE', ( #197 ) ) ;
#137 = CARTESIAN_POINT ( 'NONE',  ( 1.546726233107508139E-13, -1.916938434090527065E-14, 44.29999999999999716 ) ) ;
#138 = PERSON_AND_ORGANIZATION ( #174, #6 ) ;
#139 = FACE_OUTER_BOUND ( 'NONE', #82, .T. ) ;
#140 = AXIS2_PLACEMENT_3D ( 'NONE', #191, #172, #3 ) ;
#141 = APPROVAL ( #194, 'UNSPECIFIED' ) ;
#142 = FACE_OUTER_BOUND ( 'NONE', #66, .T. ) ;
#143 = EDGE_CURVE ( 'NONE', #170, #170, #71, .T. ) ;
#144 = APPLICATION_CONTEXT ( 'configuration controlled 3d designs of mechanical parts and assemblies' ) ;
#145 = AXIS2_PLACEMENT_3D ( 'NONE', #200, #203, #83 ) ;
#146 = CC_DESIGN_PERSON_AND_ORGANIZATION_ASSIGNMENT ( #138, #181, ( #98 ) ) ;
#147 = AXIS2_PLACEMENT_3D ( 'NONE', #47, #16, #12 ) ;
#148 = APPROVAL_PERSON_ORGANIZATION ( #157, #218, #52 ) ;
#149 = PRODUCT_RELATED_PRODUCT_CATEGORY ( 'detail', '', ( #236 ) ) ;
#150 =( NAMED_UNIT ( * ) PLANE_ANGLE_UNIT ( ) SI_UNIT ( $, .RADIAN. ) );
#151 = CARTESIAN_POINT ( 'NONE',  ( 3.107418391570388560E-13, 2.299999999999990496, 89.00000000000000000 ) ) ;
#152 = VERTEX_POINT ( 'NONE', #151 ) ;
#153 = DIRECTION ( 'NONE',  ( 1.510825004591027855E-30, 1.000000000000000000, 4.327174794786743375E-16 ) ) ;
#154 = COORDINATED_UNIVERSAL_TIME_OFFSET ( 1, 0, .AHEAD. ) ;
#155 = DIRECTION ( 'NONE',  ( -3.491481338843133355E-15, 1.224646799147353207E-16, -1.000000000000000000 ) ) ;
#156 = CARTESIAN_POINT ( 'NONE',  ( 3.082978022198486311E-13, -1.081363123647112810E-14, 88.29999999999998295 ) ) ;
#157 = PERSON_AND_ORGANIZATION ( #174, #6 ) ;
#158 = ORIENTED_EDGE ( 'NONE', *, *, #37, .F. ) ;
#159 = CIRCLE ( 'NONE', #184, 2.300000000000001155 ) ;
#160 = COORDINATED_UNIVERSAL_TIME_OFFSET ( 1, 0, .AHEAD. ) ;
#161 = DIRECTION ( 'NONE',  ( 0.0000000000000000000, 1.000000000000000000, 0.0000000000000000000 ) ) ;
#162 = EDGE_LOOP ( 'NONE', ( #223 ) ) ;
#163 = APPROVAL_ROLE ( '' ) ;
#164 = EDGE_LOOP ( 'NONE', ( #84 ) ) ;
#165 = DIRECTION ( 'NONE',  ( 3.491481338843133355E-15, -1.224646799147353207E-16, 1.000000000000000000 ) ) ;
#166 = AXIS2_PLACEMENT_3D ( 'NONE', #183, #101, #7 ) ;
#167 = EDGE_CURVE ( 'NONE', #24, #24, #48, .T. ) ;
#168 = CLOSED_SHELL ( 'NONE', ( #33, #117, #207, #179, #127, #59 ) ) ;
#169 = APPROVAL ( #32, 'UNSPECIFIED' ) ;
#170 = VERTEX_POINT ( 'NONE', #44 ) ;
#171 = DIRECTION ( 'NONE',  ( 1.510825004591027855E-30, 1.000000000000000000, 4.327174794786743375E-16 ) ) ;
#172 = DIRECTION ( 'NONE',  ( -3.491481338843133355E-15, 1.224646799147353207E-16, -1.000000000000000000 ) ) ;
#173 = AXIS2_PLACEMENT_3D ( 'NONE', #132, #199, #196 ) ;
#174 = PERSON ( 'UNSPECIFIED', 'UNSPECIFIED', 'UNSPECIFIED', ('UNSPECIFIED'), ('UNSPECIFIED'), ('UNSPECIFIED') ) ;
#175 = APPROVAL_DATE_TIME ( #228, #141 ) ;
#176 = DIRECTION ( 'NONE',  ( -3.491481338843133355E-15, 4.327174794786742882E-16, -1.000000000000000000 ) ) ;
#177 = AXIS2_PLACEMENT_3D ( 'NONE', #156, #30, #9 ) ;
#178 = ORIENTED_EDGE ( 'NONE', *, *, #57, .T. ) ;
#179 = ADVANCED_FACE ( 'NONE', ( #135, #201 ), #241, .T. ) ;
#180 = DATE_AND_TIME ( #123, #212 ) ;
#181 = PERSON_AND_ORGANIZATION_ROLE ( 'design_supplier' ) ;
#182 = MANIFOLD_SOLID_BREP ( 'Corps-Déplacer/Copier1[1]', #168 ) ;
#183 = CARTESIAN_POINT ( 'NONE',  ( 1.340728834115762956E-13, -1.661635121198109330E-14, 38.39999999999999858 ) ) ;
#184 = AXIS2_PLACEMENT_3D ( 'NONE', #190, #155, #25 ) ;
#185 = DIRECTION ( 'NONE',  ( -3.491481338843133355E-15, 1.224646799147353207E-16, -1.000000000000000000 ) ) ;
#186 = EDGE_LOOP ( 'NONE', ( #56 ) ) ;
#187 = FACE_OUTER_BOUND ( 'NONE', #186, .T. ) ;
#188 = CARTESIAN_POINT ( 'NONE',  ( 1.557628380093767326E-13, 2.999999999999980016, 44.61224989991988821 ) ) ;
#189 = AXIS2_PLACEMENT_3D ( 'NONE', #78, #192, #153 ) ;
#190 = CARTESIAN_POINT ( 'NONE',  ( 3.107418391570388560E-13, -1.089935651241144239E-14, 89.00000000000000000 ) ) ;
#191 = CARTESIAN_POINT ( 'NONE',  ( 3.748846078462745257E-15, -1.314918198018120692E-16, 1.073712191085313794 ) ) ;
#192 = DIRECTION ( 'NONE',  ( -3.491481338843133355E-15, 4.327174794786742882E-16, -1.000000000000000000 ) ) ;
#193 = AXIS2_PLACEMENT_3D ( 'NONE', #209, #129, #171 ) ;
#194 = APPROVAL_STATUS ( 'not_yet_approved' ) ;
#195 = COORDINATED_UNIVERSAL_TIME_OFFSET ( 1, 0, .AHEAD. ) ;
#196 = DIRECTION ( 'NONE',  ( 0.0000000000000000000, 1.000000000000000000, 0.0000000000000000000 ) ) ;
#197 = ORIENTED_EDGE ( 'NONE', *, *, #57, .F. ) ;
#198 = PERSON_AND_ORGANIZATION ( #174, #6 ) ;
#199 = DIRECTION ( 'NONE',  ( -3.491481338843133355E-15, 1.224646799147353207E-16, -1.000000000000000000 ) ) ;
#200 = CARTESIAN_POINT ( 'NONE',  ( 0.0000000000000000000, 0.0000000000000000000, 0.0000000000000000000 ) ) ;
#201 = FACE_OUTER_BOUND ( 'NONE', #31, .T. ) ;
#202 = CLOSED_SHELL ( 'NONE', ( #215, #81, #90 ) ) ;
#203 = DIRECTION ( 'NONE',  ( 0.0000000000000000000, 0.0000000000000000000, 1.000000000000000000 ) ) ;
#204 = ORIENTED_EDGE ( 'NONE', *, *, #37, .T. ) ;
#205 = CC_DESIGN_APPROVAL ( #141, ( #116 ) ) ;
#206 = DIRECTION ( 'NONE',  ( 0.0000000000000000000, -1.000000000000000000, 0.0000000000000000000 ) ) ;
#207 = ADVANCED_FACE ( 'NONE', ( #1 ), #26, .F. ) ;
#208 = DIRECTION ( 'NONE',  ( 4.275831445896958607E-31, 1.000000000000000000, 1.224646799147353207E-16 ) ) ;
#209 = CARTESIAN_POINT ( 'NONE',  ( 0.0000000000000000000, 0.0000000000000000000, 0.0000000000000000000 ) ) ;
#210 = APPLICATION_CONTEXT ( 'configuration controlled 3d designs of mechanical parts and assemblies' ) ;
#211 = AXIS2_PLACEMENT_3D ( 'NONE', #225, #75, #242 ) ;
#212 = LOCAL_TIME ( 14, 57, 34.00000000000000000, #195 ) ;
#213 = DIRECTION ( 'NONE',  ( 3.491481338843133355E-15, -1.224646799147353207E-16, 1.000000000000000000 ) ) ;
#214 =( LENGTH_UNIT ( ) NAMED_UNIT ( * ) SI_UNIT ( .MILLI., .METRE. ) );
#215 = ADVANCED_FACE ( 'NONE', ( #94 ), #231, .T. ) ;
#216 = PERSON_AND_ORGANIZATION ( #174, #6 ) ;
#217 = COORDINATED_UNIVERSAL_TIME_OFFSET ( 1, 0, .AHEAD. ) ;
#218 = APPROVAL ( #49, 'UNSPECIFIED' ) ;
#219 = MECHANICAL_CONTEXT ( 'NONE', #210, 'mechanical' ) ;
#220 = ORIENTED_EDGE ( 'NONE', *, *, #143, .F. ) ;
#221 = COORDINATED_UNIVERSAL_TIME_OFFSET ( 1, 0, .AHEAD. ) ;
#222 = FACE_OUTER_BOUND ( 'NONE', #72, .T. ) ;
#223 = ORIENTED_EDGE ( 'NONE', *, *, #96, .T. ) ;
#224 = DIRECTION ( 'NONE',  ( -5.135813185032639159E-31, -1.000000000000000000, -1.445602896647342121E-16 ) ) ;
#225 = CARTESIAN_POINT ( 'NONE',  ( 3.107418391570388560E-13, 1.724723750061120922E-32, 89.00000000000000000 ) ) ;
#226 =( NAMED_UNIT ( * ) SI_UNIT ( $, .STERADIAN. ) SOLID_ANGLE_UNIT ( ) );
#227 = CC_DESIGN_PERSON_AND_ORGANIZATION_ASSIGNMENT ( #114, #86, ( #60 ) ) ;
#228 = DATE_AND_TIME ( #103, #125 ) ;
#229 = PLANE ( 'NONE',  #54 ) ;
#230 = DIRECTION ( 'NONE',  ( -4.275831445896958607E-31, -1.000000000000000000, -1.224646799147353207E-16 ) ) ;
#231 = CONICAL_SURFACE ( 'NONE', #23, 2.999999999999993783, 1.221730476396026388 ) ;
#232 = EDGE_LOOP ( 'NONE', ( #121 ) ) ;
#233 = SHAPE_DEFINITION_REPRESENTATION ( #2, #124 ) ;
#234 = ORIENTED_EDGE ( 'NONE', *, *, #143, .T. ) ;
#235 = PERSON_AND_ORGANIZATION ( #174, #6 ) ;
#236 = PRODUCT ( '966744', '966744', '', ( #219 ) ) ;
#237 = FACE_BOUND ( 'NONE', #102, .T. ) ;
#238 = EDGE_LOOP ( 'NONE', ( #234 ) ) ;
#239 = APPROVAL_PERSON_ORGANIZATION ( #198, #169, #163 ) ;
#240 = CIRCLE ( 'NONE', #11, 2.950000000000013944 ) ;
#241 = CYLINDRICAL_SURFACE ( 'NONE', #193, 2.950000000000007283 ) ;
#242 = DIRECTION ( 'NONE',  ( 4.275831445896958607E-31, 1.000000000000000000, 1.224646799147353207E-16 ) ) ;
#243 = EDGE_CURVE ( 'NONE', #27, #27, #107, .T. ) ;
ENDSEC;
END-ISO-10303-21;
