ISO-10303-21;
HEADER;
FILE_DESCRIPTION (( 'STEP AP203' ),
    '1' );
FILE_NAME ('966743.step',
    '2021-10-13T12:57:34',
    ( '' ),
    ( '' ),
    'SwSTEP 2.0',
    'SolidWorks 2019',
    '' );
FILE_SCHEMA (( 'CONFIG_CONTROL_DESIGN' ));
ENDSEC;

DATA;
#1 = CIRCLE ( 'NONE', #250, 2.999999999999999112 ) ;
#2 = ADVANCED_FACE ( 'NONE', ( #214, #33 ), #215, .T. ) ;
#3 =( LENGTH_UNIT ( ) NAMED_UNIT ( * ) SI_UNIT ( .MILLI., .METRE. ) );
#4 = TOROIDAL_SURFACE ( 'NONE', #86, 3.850000000000013856, 0.9999999999999991118 ) ;
#5 = EDGE_LOOP ( 'NONE', ( #210 ) ) ;
#6 = DIRECTION ( 'NONE',  ( -3.491481338843133355E-15, 1.224646799147353207E-16, -1.000000000000000000 ) ) ;
#7 = APPLICATION_PROTOCOL_DEFINITION ( 'international standard', 'config_control_design', 1994, #207 ) ;
#8 = ADVANCED_FACE ( 'NONE', ( #181 ), #183, .F. ) ;
#9 = CARTESIAN_POINT ( 'NONE',  ( 1.511811419719076680E-13, 2.983974596215558162, 43.29999999999999716 ) ) ;
#10 = DIRECTION ( 'NONE',  ( -3.491481338843133355E-15, 1.224646799147353207E-16, -1.000000000000000000 ) ) ;
#11 = CARTESIAN_POINT ( 'NONE',  ( 3.107418391570388560E-13, -1.089935651241144239E-14, 89.00000000000000000 ) ) ;
#12 = DIRECTION ( 'NONE',  ( 0.0000000000000000000, -1.000000000000000000, 0.0000000000000000000 ) ) ;
#13 = FACE_OUTER_BOUND ( 'NONE', #138, .T. ) ;
#14 = DIRECTION ( 'NONE',  ( 0.0000000000000000000, 1.000000000000000000, 0.0000000000000000000 ) ) ;
#15 = APPROVAL_ROLE ( '' ) ;
#16 = PERSON_AND_ORGANIZATION_ROLE ( 'creator' ) ;
#17 = ADVANCED_FACE ( 'NONE', ( #50, #47 ), #154, .T. ) ;
#18 = AXIS2_PLACEMENT_3D ( 'NONE', #202, #67, #130 ) ;
#19 = PRODUCT_RELATED_PRODUCT_CATEGORY ( 'detail', '', ( #193 ) ) ;
#20 = PERSON_AND_ORGANIZATION ( #218, #75 ) ;
#21 = EDGE_LOOP ( 'NONE', ( #176 ) ) ;
#22 = ORIENTED_EDGE ( 'NONE', *, *, #151, .T. ) ;
#23 = APPLICATION_CONTEXT ( 'configuration controlled 3d designs of mechanical parts and assemblies' ) ;
#24 = EDGE_CURVE ( 'NONE', #126, #126, #192, .T. ) ;
#25 = SHAPE_DEFINITION_REPRESENTATION ( #74, #31 ) ;
#26 = CIRCLE ( 'NONE', #111, 2.850000000000007194 ) ;
#27 = ORIENTED_EDGE ( 'NONE', *, *, #208, .T. ) ;
#28 = MANIFOLD_SOLID_BREP ( 'Corps-Déplacer/Copier1[2]', #90 ) ;
#29 = ORIENTED_EDGE ( 'NONE', *, *, #99, .F. ) ;
#30 = CALENDAR_DATE ( 2021, 13, 10 ) ;
#31 = ADVANCED_BREP_SHAPE_REPRESENTATION ( '966743', ( #123, #28, #101 ), #140 ) ;
#32 = LOCAL_TIME ( 14, 57, 34.00000000000000000, #92 ) ;
#33 = FACE_BOUND ( 'NONE', #21, .T. ) ;
#34 = DIRECTION ( 'NONE',  ( -3.491481338843133355E-15, 1.224646799147353207E-16, -1.000000000000000000 ) ) ;
#35 = EDGE_LOOP ( 'NONE', ( #252 ) ) ;
#36 = LOCAL_TIME ( 14, 57, 34.00000000000000000, #189 ) ;
#37 = CARTESIAN_POINT ( 'NONE',  ( 0.0000000000000000000, 0.0000000000000000000, 0.0000000000000000000 ) ) ;
#38 = DIRECTION ( 'NONE',  ( 0.0000000000000000000, 1.000000000000000000, 0.0000000000000000000 ) ) ;
#39 = UNCERTAINTY_MEASURE_WITH_UNIT (LENGTH_MEASURE( 1.000000000000000082E-05 ), #3, 'distance_accuracy_value', 'NONE');
#40 = FACE_OUTER_BOUND ( 'NONE', #190, .T. ) ;
#41 = CC_DESIGN_DATE_AND_TIME_ASSIGNMENT ( #191, #186, ( #224 ) ) ;
#42 = VERTEX_POINT ( 'NONE', #143 ) ;
#43 = CARTESIAN_POINT ( 'NONE',  ( 1.295339576710802538E-13, 2.249639673992777654E-32, 37.10000000000000142 ) ) ;
#44 = SECURITY_CLASSIFICATION_LEVEL ( 'unclassified' ) ;
#45 = EDGE_LOOP ( 'NONE', ( #211 ) ) ;
#46 = PERSON_AND_ORGANIZATION_ROLE ( 'design_supplier' ) ;
#47 = FACE_OUTER_BOUND ( 'NONE', #52, .T. ) ;
#48 = EDGE_CURVE ( 'NONE', #58, #58, #136, .T. ) ;
#49 = EDGE_LOOP ( 'NONE', ( #22 ) ) ;
#50 = FACE_OUTER_BOUND ( 'NONE', #70, .T. ) ;
#51 = PERSON_AND_ORGANIZATION ( #218, #75 ) ;
#52 = EDGE_LOOP ( 'NONE', ( #209 ) ) ;
#53 = AXIS2_PLACEMENT_3D ( 'NONE', #11, #107, #66 ) ;
#54 = CALENDAR_DATE ( 2021, 13, 10 ) ;
#55 = AXIS2_PLACEMENT_3D ( 'NONE', #220, #226, #38 ) ;
#56 = EDGE_LOOP ( 'NONE', ( #212 ) ) ;
#57 = DIRECTION ( 'NONE',  ( 0.0000000000000000000, 1.000000000000000000, 0.0000000000000000000 ) ) ;
#58 = VERTEX_POINT ( 'NONE', #102 ) ;
#59 = FACE_OUTER_BOUND ( 'NONE', #89, .T. ) ;
#60 = CARTESIAN_POINT ( 'NONE',  ( 1.511811419719076680E-13, -1.873666686142659636E-14, 43.29999999999999716 ) ) ;
#61 = PERSON_AND_ORGANIZATION ( #218, #75 ) ;
#62 = CC_DESIGN_PERSON_AND_ORGANIZATION_ASSIGNMENT ( #94, #116, ( #224 ) ) ;
#63 = DIRECTION ( 'NONE',  ( -5.406119142139595783E-31, -1.000000000000000000, -1.521687259628774317E-16 ) ) ;
#64 = CARTESIAN_POINT ( 'NONE',  ( 1.295339576710802538E-13, -2.850000000000023181, 37.10000000000000142 ) ) ;
#65 = CIRCLE ( 'NONE', #55, 2.300000000000001155 ) ;
#66 = DIRECTION ( 'NONE',  ( 0.0000000000000000000, 1.000000000000000000, 0.0000000000000000000 ) ) ;
#67 = DIRECTION ( 'NONE',  ( 3.491481338843133355E-15, -1.224646799147353207E-16, 1.000000000000000000 ) ) ;
#68 = CC_DESIGN_DATE_AND_TIME_ASSIGNMENT ( #77, #253, ( #203 ) ) ;
#69 = CALENDAR_DATE ( 2021, 13, 10 ) ;
#70 = EDGE_LOOP ( 'NONE', ( #27 ) ) ;
#71 = AXIS2_PLACEMENT_3D ( 'NONE', #43, #225, #175 ) ;
#72 = APPROVAL_STATUS ( 'not_yet_approved' ) ;
#73 = VERTEX_POINT ( 'NONE', #156 ) ;
#74 = PRODUCT_DEFINITION_SHAPE ( 'NONE', 'NONE',  #203 ) ;
#75 = ORGANIZATION ( 'UNSPECIFIED', 'UNSPECIFIED', '' ) ;
#76 = EDGE_LOOP ( 'NONE', ( #121 ) ) ;
#77 = DATE_AND_TIME ( #30, #125 ) ;
#78 = DIRECTION ( 'NONE',  ( 0.0000000000000000000, 1.000000000000000000, 0.0000000000000000000 ) ) ;
#79 = FACE_OUTER_BOUND ( 'NONE', #98, .T. ) ;
#80 = CARTESIAN_POINT ( 'NONE',  ( 1.512780543685006043E-13, -1.874867771983141767E-14, 43.32775681356642394 ) ) ;
#81 =( NAMED_UNIT ( * ) PLANE_ANGLE_UNIT ( ) SI_UNIT ( $, .RADIAN. ) );
#82 = FACE_OUTER_BOUND ( 'NONE', #5, .T. ) ;
#83 = DIRECTION ( 'NONE',  ( 3.491481338843133355E-15, -1.224646799147353207E-16, 1.000000000000000000 ) ) ;
#84 = DIRECTION ( 'NONE',  ( 3.491481338843133355E-15, -4.327174794786742882E-16, 1.000000000000000000 ) ) ;
#85 = AXIS2_PLACEMENT_3D ( 'NONE', #164, #6, #57 ) ;
#86 = AXIS2_PLACEMENT_3D ( 'NONE', #258, #182, #241 ) ;
#87 = CALENDAR_DATE ( 2021, 13, 10 ) ;
#88 = EDGE_CURVE ( 'NONE', #169, #169, #197, .T. ) ;
#89 = EDGE_LOOP ( 'NONE', ( #160 ) ) ;
#90 = CLOSED_SHELL ( 'NONE', ( #246, #195, #244 ) ) ;
#91 = CC_DESIGN_SECURITY_CLASSIFICATION ( #224, ( #262 ) ) ;
#92 = COORDINATED_UNIVERSAL_TIME_OFFSET ( 1, 0, .AHEAD. ) ;
#93 = VERTEX_POINT ( 'NONE', #112 ) ;
#94 = PERSON_AND_ORGANIZATION ( #218, #75 ) ;
#95 = CARTESIAN_POINT ( 'NONE',  ( 0.0000000000000000000, 0.0000000000000000000, 0.0000000000000000000 ) ) ;
#96 = ADVANCED_FACE ( 'NONE', ( #141 ), #122, .F. ) ;
#97 = APPROVAL_PERSON_ORGANIZATION ( #194, #228, #113 ) ;
#98 = EDGE_LOOP ( 'NONE', ( #166 ) ) ;
#99 = EDGE_CURVE ( 'NONE', #243, #243, #124, .T. ) ;
#100 = AXIS2_PLACEMENT_3D ( 'NONE', #60, #161, #78 ) ;
#101 = AXIS2_PLACEMENT_3D ( 'NONE', #37, #199, #257 ) ;
#102 = CARTESIAN_POINT ( 'NONE',  ( 1.295339576710802538E-13, -2.850000000000023181, 37.10000000000000142 ) ) ;
#103 = DIRECTION ( 'NONE',  ( 4.275831445896958607E-31, 1.000000000000000000, 1.224646799147353207E-16 ) ) ;
#104 = APPROVAL_PERSON_ORGANIZATION ( #61, #149, #155 ) ;
#105 = DIRECTION ( 'NONE',  ( -3.491481338843133355E-15, 4.327174794786742882E-16, -1.000000000000000000 ) ) ;
#106 = APPROVAL_STATUS ( 'not_yet_approved' ) ;
#107 = DIRECTION ( 'NONE',  ( -3.491481338843133355E-15, 1.224646799147353207E-16, -1.000000000000000000 ) ) ;
#108 = PERSON_AND_ORGANIZATION_ROLE ( 'design_owner' ) ;
#109 = DIRECTION ( 'NONE',  ( -3.491481338843133355E-15, 1.224646799147353207E-16, -1.000000000000000000 ) ) ;
#110 = APPROVAL_DATE_TIME ( #172, #228 ) ;
#111 = AXIS2_PLACEMENT_3D ( 'NONE', #201, #259, #63 ) ;
#112 = CARTESIAN_POINT ( 'NONE',  ( 3.107418391570388560E-13, 2.299999999999990496, 89.00000000000000000 ) ) ;
#113 = APPROVAL_ROLE ( '' ) ;
#114 = CC_DESIGN_PERSON_AND_ORGANIZATION_ASSIGNMENT ( #133, #46, ( #262 ) ) ;
#115 = PERSON_AND_ORGANIZATION_ROLE ( 'creator' ) ;
#116 = PERSON_AND_ORGANIZATION_ROLE ( 'classification_officer' ) ;
#117 = ADVANCED_FACE ( 'NONE', ( #59, #242 ), #4, .F. ) ;
#118 = ORIENTED_EDGE ( 'NONE', *, *, #139, .T. ) ;
#119 = APPROVAL ( #106, 'UNSPECIFIED' ) ;
#120 = DIRECTION ( 'NONE',  ( 0.0000000000000000000, -1.000000000000000000, 0.0000000000000000000 ) ) ;
#121 = ORIENTED_EDGE ( 'NONE', *, *, #239, .F. ) ;
#122 = PLANE ( 'NONE',  #232 ) ;
#123 = MANIFOLD_SOLID_BREP ( 'Corps-Déplacer/Copier1[1]', #236 ) ;
#124 = CIRCLE ( 'NONE', #147, 2.850000000000007194 ) ;
#125 = LOCAL_TIME ( 14, 57, 34.00000000000000000, #223 ) ;
#126 = VERTEX_POINT ( 'NONE', #9 ) ;
#127 = CYLINDRICAL_SURFACE ( 'NONE', #204, 2.850000000000007194 ) ;
#128 = DESIGN_CONTEXT ( 'detailed design', #23, 'design' ) ;
#129 = PLANE ( 'NONE',  #18 ) ;
#130 = DIRECTION ( 'NONE',  ( -4.275831445896958607E-31, -1.000000000000000000, -1.224646799147353207E-16 ) ) ;
#131 = VERTEX_POINT ( 'NONE', #217 ) ;
#132 = APPROVAL_PERSON_ORGANIZATION ( #221, #119, #15 ) ;
#133 = PERSON_AND_ORGANIZATION ( #218, #75 ) ;
#134 = ORIENTED_EDGE ( 'NONE', *, *, #139, .F. ) ;
#135 = EDGE_LOOP ( 'NONE', ( #213 ) ) ;
#136 = CIRCLE ( 'NONE', #170, 2.850000000000007194 ) ;
#137 = AXIS2_PLACEMENT_3D ( 'NONE', #184, #83, #227 ) ;
#138 = EDGE_LOOP ( 'NONE', ( #118 ) ) ;
#139 = EDGE_CURVE ( 'NONE', #42, #42, #26, .T. ) ;
#140 =( GEOMETRIC_REPRESENTATION_CONTEXT ( 3 ) GLOBAL_UNCERTAINTY_ASSIGNED_CONTEXT ( ( #39 ) ) GLOBAL_UNIT_ASSIGNED_CONTEXT ( ( #3, #81, #219 ) ) REPRESENTATION_CONTEXT ( 'NONE', 'WORKASPACE' ) );
#141 = FACE_OUTER_BOUND ( 'NONE', #76, .T. ) ;
#142 = CONICAL_SURFACE ( 'NONE', #178, 3.500000000000018208, 0.5235987755982959291 ) ;
#143 = CARTESIAN_POINT ( 'NONE',  ( 3.621766550379260963E-15, -2.850000000000007194, 1.037315167658692472 ) ) ;
#144 = DIRECTION ( 'NONE',  ( 1.510825004591028030E-30, 1.000000000000000000, 4.327174794786742389E-16 ) ) ;
#145 = APPLICATION_PROTOCOL_DEFINITION ( 'international standard', 'config_control_design', 1994, #23 ) ;
#146 = CARTESIAN_POINT ( 'NONE',  ( 1.494354013024861076E-13, -1.852030812168725764E-14, 42.79999999999999716 ) ) ;
#147 = AXIS2_PLACEMENT_3D ( 'NONE', #206, #10, #180 ) ;
#148 = FACE_OUTER_BOUND ( 'NONE', #49, .T. ) ;
#149 = APPROVAL ( #72, 'UNSPECIFIED' ) ;
#150 = CYLINDRICAL_SURFACE ( 'NONE', #187, 2.850000000000007194 ) ;
#151 = EDGE_CURVE ( 'NONE', #131, #131, #229, .T. ) ;
#152 = DIRECTION ( 'NONE',  ( -3.491481338843133355E-15, 1.224646799147353207E-16, -1.000000000000000000 ) ) ;
#153 = DATE_AND_TIME ( #69, #174 ) ;
#154 = CYLINDRICAL_SURFACE ( 'NONE', #254, 2.999999999999999112 ) ;
#155 = APPROVAL_ROLE ( '' ) ;
#156 = CARTESIAN_POINT ( 'NONE',  ( 1.512780543685006043E-13, -3.000000000000017764, 43.32775681356642394 ) ) ;
#157 = PERSON_AND_ORGANIZATION ( #218, #75 ) ;
#158 = ORIENTED_EDGE ( 'NONE', *, *, #24, .T. ) ;
#159 = AXIS2_PLACEMENT_3D ( 'NONE', #146, #105, #14 ) ;
#160 = ORIENTED_EDGE ( 'NONE', *, *, #151, .F. ) ;
#161 = DIRECTION ( 'NONE',  ( -3.491481338843133355E-15, 4.327174794786742882E-16, -1.000000000000000000 ) ) ;
#162 = CC_DESIGN_PERSON_AND_ORGANIZATION_ASSIGNMENT ( #51, #115, ( #203 ) ) ;
#163 = CARTESIAN_POINT ( 'NONE',  ( 1.295339576710802538E-13, -1.605381848865881704E-14, 37.10000000000000142 ) ) ;
#164 = CARTESIAN_POINT ( 'NONE',  ( 3.082978022198486311E-13, -1.081363123647112810E-14, 88.29999999999998295 ) ) ;
#165 = DIRECTION ( 'NONE',  ( 3.491481338843133355E-15, -4.327174794786742882E-16, 1.000000000000000000 ) ) ;
#166 = ORIENTED_EDGE ( 'NONE', *, *, #208, .F. ) ;
#167 = CARTESIAN_POINT ( 'NONE',  ( 1.543017659047781844E-13, -1.912342204972153749E-14, 44.19378221735090051 ) ) ;
#168 = FACE_OUTER_BOUND ( 'NONE', #251, .T. ) ;
#169 = VERTEX_POINT ( 'NONE', #240 ) ;
#170 = AXIS2_PLACEMENT_3D ( 'NONE', #163, #34, #120 ) ;
#171 = FACE_BOUND ( 'NONE', #45, .T. ) ;
#172 = DATE_AND_TIME ( #87, #36 ) ;
#173 = DIRECTION ( 'NONE',  ( 4.275831445896958607E-31, 1.000000000000000000, 1.224646799147353207E-16 ) ) ;
#174 = LOCAL_TIME ( 14, 57, 34.00000000000000000, #231 ) ;
#175 = DIRECTION ( 'NONE',  ( -4.275831445896958607E-31, -1.000000000000000000, -1.224646799147353207E-16 ) ) ;
#176 = ORIENTED_EDGE ( 'NONE', *, *, #239, .T. ) ;
#177 = CC_DESIGN_APPROVAL ( #149, ( #262 ) ) ;
#178 = AXIS2_PLACEMENT_3D ( 'NONE', #167, #165, #245 ) ;
#179 = EDGE_LOOP ( 'NONE', ( #158 ) ) ;
#180 = DIRECTION ( 'NONE',  ( 0.0000000000000000000, -1.000000000000000000, 0.0000000000000000000 ) ) ;
#181 = FACE_OUTER_BOUND ( 'NONE', #56, .T. ) ;
#182 = DIRECTION ( 'NONE',  ( -3.491481338843133355E-15, 4.327174794786742882E-16, -1.000000000000000000 ) ) ;
#183 = PLANE ( 'NONE',  #71 ) ;
#184 = CARTESIAN_POINT ( 'NONE',  ( 3.812385842504469655E-15, -1.337204947137065916E-16, 1.091910702798619237 ) ) ;
#185 = DIRECTION ( 'NONE',  ( -3.491481338843133355E-15, 4.327174794786742882E-16, -1.000000000000000000 ) ) ;
#186 = DATE_TIME_ROLE ( 'classification_date' ) ;
#187 = AXIS2_PLACEMENT_3D ( 'NONE', #255, #185, #144 ) ;
#188 = ADVANCED_FACE ( 'NONE', ( #148, #82 ), #127, .T. ) ;
#189 = COORDINATED_UNIVERSAL_TIME_OFFSET ( 1, 0, .AHEAD. ) ;
#190 = EDGE_LOOP ( 'NONE', ( #29 ) ) ;
#191 = DATE_AND_TIME ( #54, #32 ) ;
#192 = CIRCLE ( 'NONE', #100, 2.983974596215576813 ) ;
#193 = PRODUCT ( '966743', '966743', '', ( #233 ) ) ;
#194 = PERSON_AND_ORGANIZATION ( #218, #75 ) ;
#195 = ADVANCED_FACE ( 'NONE', ( #256, #168 ), #150, .T. ) ;
#196 = APPROVAL_DATE_TIME ( #238, #119 ) ;
#197 = CIRCLE ( 'NONE', #85, 3.000000000000001332 ) ;
#198 = CONICAL_SURFACE ( 'NONE', #137, 2.999999999999993783, 1.221730476396026388 ) ;
#199 = DIRECTION ( 'NONE',  ( 0.0000000000000000000, 0.0000000000000000000, 1.000000000000000000 ) ) ;
#200 = DIRECTION ( 'NONE',  ( 1.510825004591028030E-30, 1.000000000000000000, 4.327174794786742389E-16 ) ) ;
#201 = CARTESIAN_POINT ( 'NONE',  ( 3.621766550379262541E-15, -1.270344699780218413E-16, 1.037315167658692916 ) ) ;
#202 = CARTESIAN_POINT ( 'NONE',  ( 1.295339576710802538E-13, 2.249639673992777654E-32, 37.10000000000000142 ) ) ;
#203 = PRODUCT_DEFINITION ( 'UNKNOWN', '', #262, #128 ) ;
#204 = AXIS2_PLACEMENT_3D ( 'NONE', #222, #205, #200 ) ;
#205 = DIRECTION ( 'NONE',  ( -3.491481338843133355E-15, 4.327174794786742882E-16, -1.000000000000000000 ) ) ;
#206 = CARTESIAN_POINT ( 'NONE',  ( 1.295339576710802538E-13, -1.605381848865881704E-14, 37.10000000000000142 ) ) ;
#207 = APPLICATION_CONTEXT ( 'configuration controlled 3d designs of mechanical parts and assemblies' ) ;
#208 = EDGE_CURVE ( 'NONE', #73, #73, #1, .T. ) ;
#209 = ORIENTED_EDGE ( 'NONE', *, *, #88, .T. ) ;
#210 = ORIENTED_EDGE ( 'NONE', *, *, #48, .F. ) ;
#211 = ORIENTED_EDGE ( 'NONE', *, *, #24, .F. ) ;
#212 = ORIENTED_EDGE ( 'NONE', *, *, #48, .T. ) ;
#213 = ORIENTED_EDGE ( 'NONE', *, *, #99, .T. ) ;
#214 = FACE_OUTER_BOUND ( 'NONE', #35, .T. ) ;
#215 = CONICAL_SURFACE ( 'NONE', #53, 2.300000000000001155, 0.7853981633974439491 ) ;
#216 = CC_DESIGN_APPROVAL ( #119, ( #203 ) ) ;
#217 = CARTESIAN_POINT ( 'NONE',  ( 1.494354013024861076E-13, 2.849999999999994760, 42.79999999999999716 ) ) ;
#218 = PERSON ( 'UNSPECIFIED', 'UNSPECIFIED', 'UNSPECIFIED', ('UNSPECIFIED'), ('UNSPECIFIED'), ('UNSPECIFIED') ) ;
#219 =( NAMED_UNIT ( * ) SI_UNIT ( $, .STERADIAN. ) SOLID_ANGLE_UNIT ( ) );
#220 = CARTESIAN_POINT ( 'NONE',  ( 3.107418391570388560E-13, -1.089935651241144239E-14, 89.00000000000000000 ) ) ;
#221 = PERSON_AND_ORGANIZATION ( #218, #75 ) ;
#222 = CARTESIAN_POINT ( 'NONE',  ( 0.0000000000000000000, 0.0000000000000000000, 0.0000000000000000000 ) ) ;
#223 = COORDINATED_UNIVERSAL_TIME_OFFSET ( 1, 0, .AHEAD. ) ;
#224 = SECURITY_CLASSIFICATION ( '', '', #44 ) ;
#225 = DIRECTION ( 'NONE',  ( 3.491481338843133355E-15, -1.224646799147353207E-16, 1.000000000000000000 ) ) ;
#226 = DIRECTION ( 'NONE',  ( -3.491481338843133355E-15, 1.224646799147353207E-16, -1.000000000000000000 ) ) ;
#227 = DIRECTION ( 'NONE',  ( -5.135813185032639159E-31, -1.000000000000000000, -1.445602896647342121E-16 ) ) ;
#228 = APPROVAL ( #249, 'UNSPECIFIED' ) ;
#229 = CIRCLE ( 'NONE', #159, 2.850000000000013411 ) ;
#230 = CC_DESIGN_PERSON_AND_ORGANIZATION_ASSIGNMENT ( #20, #108, ( #193 ) ) ;
#231 = COORDINATED_UNIVERSAL_TIME_OFFSET ( 1, 0, .AHEAD. ) ;
#232 = AXIS2_PLACEMENT_3D ( 'NONE', #261, #109, #103 ) ;
#233 = MECHANICAL_CONTEXT ( 'NONE', #207, 'mechanical' ) ;
#234 = LOCAL_TIME ( 14, 57, 34.00000000000000000, #263 ) ;
#235 = ADVANCED_FACE ( 'NONE', ( #171, #79 ), #142, .T. ) ;
#236 = CLOSED_SHELL ( 'NONE', ( #17, #2, #96, #188, #235, #117, #8 ) ) ;
#237 = CALENDAR_DATE ( 2021, 13, 10 ) ;
#238 = DATE_AND_TIME ( #237, #234 ) ;
#239 = EDGE_CURVE ( 'NONE', #93, #93, #65, .T. ) ;
#240 = CARTESIAN_POINT ( 'NONE',  ( 3.082978022198486311E-13, 2.999999999999990674, 88.29999999999998295 ) ) ;
#241 = DIRECTION ( 'NONE',  ( 1.510825004591028030E-30, 1.000000000000000000, 4.327174794786743375E-16 ) ) ;
#242 = FACE_OUTER_BOUND ( 'NONE', #179, .T. ) ;
#243 = VERTEX_POINT ( 'NONE', #64 ) ;
#244 = ADVANCED_FACE ( 'NONE', ( #40 ), #129, .T. ) ;
#245 = DIRECTION ( 'NONE',  ( 0.0000000000000000000, -1.000000000000000000, 0.0000000000000000000 ) ) ;
#246 = ADVANCED_FACE ( 'NONE', ( #13 ), #198, .T. ) ;
#247 = APPROVAL_DATE_TIME ( #153, #149 ) ;
#248 = CC_DESIGN_APPROVAL ( #228, ( #224 ) ) ;
#249 = APPROVAL_STATUS ( 'not_yet_approved' ) ;
#250 = AXIS2_PLACEMENT_3D ( 'NONE', #80, #84, #12 ) ;
#251 = EDGE_LOOP ( 'NONE', ( #134 ) ) ;
#252 = ORIENTED_EDGE ( 'NONE', *, *, #88, .F. ) ;
#253 = DATE_TIME_ROLE ( 'creation_date' ) ;
#254 = AXIS2_PLACEMENT_3D ( 'NONE', #95, #152, #173 ) ;
#255 = CARTESIAN_POINT ( 'NONE',  ( 0.0000000000000000000, 0.0000000000000000000, 0.0000000000000000000 ) ) ;
#256 = FACE_OUTER_BOUND ( 'NONE', #135, .T. ) ;
#257 = DIRECTION ( 'NONE',  ( 1.000000000000000000, 0.0000000000000000000, 0.0000000000000000000 ) ) ;
#258 = CARTESIAN_POINT ( 'NONE',  ( 1.494354013024861076E-13, -1.864827736675067626E-14, 42.79999999999999716 ) ) ;
#259 = DIRECTION ( 'NONE',  ( -3.491481338843133355E-15, 1.224646799147353207E-16, -1.000000000000000000 ) ) ;
#260 = CC_DESIGN_PERSON_AND_ORGANIZATION_ASSIGNMENT ( #157, #16, ( #262 ) ) ;
#261 = CARTESIAN_POINT ( 'NONE',  ( 3.107418391570388560E-13, 1.724723750061120922E-32, 89.00000000000000000 ) ) ;
#262 = PRODUCT_DEFINITION_FORMATION_WITH_SPECIFIED_SOURCE ( 'ANY', '', #193, .NOT_KNOWN. ) ;
#263 = COORDINATED_UNIVERSAL_TIME_OFFSET ( 1, 0, .AHEAD. ) ;
ENDSEC;
END-ISO-10303-21;
