ISO-10303-21;
HEADER;
FILE_DESCRIPTION (( 'STEP AP203' ),
    '1' );
FILE_NAME ('966742.step',
    '2021-10-13T12:57:33',
    ( '' ),
    ( '' ),
    'SwSTEP 2.0',
    'SolidWorks 2019',
    '' );
FILE_SCHEMA (( 'CONFIG_CONTROL_DESIGN' ));
ENDSEC;

DATA;
#1 = CARTESIAN_POINT ( 'NONE',  ( 1.225509949933939871E-13, -1.518838352970146531E-14, 35.10000000000000142 ) ) ;
#2 = DIRECTION ( 'NONE',  ( 1.510825004591027855E-30, 1.000000000000000000, 4.327174794786742389E-16 ) ) ;
#3 = AXIS2_PLACEMENT_3D ( 'NONE', #194, #215, #261 ) ;
#4 = DIRECTION ( 'NONE',  ( -3.491481338843133355E-15, 1.224646799147353207E-16, -1.000000000000000000 ) ) ;
#5 = ADVANCED_FACE ( 'NONE', ( #14, #17 ), #76, .T. ) ;
#6 = CIRCLE ( 'NONE', #152, 2.999999999999999112 ) ;
#7 = CC_DESIGN_PERSON_AND_ORGANIZATION_ASSIGNMENT ( #13, #73, ( #227 ) ) ;
#8 = ORIENTED_EDGE ( 'NONE', *, *, #197, .T. ) ;
#9 = ORIENTED_EDGE ( 'NONE', *, *, #116, .F. ) ;
#10 = EDGE_LOOP ( 'NONE', ( #234 ) ) ;
#11 = DIRECTION ( 'NONE',  ( 0.0000000000000000000, -1.000000000000000000, 0.0000000000000000000 ) ) ;
#12 = DIRECTION ( 'NONE',  ( 0.0000000000000000000, 1.000000000000000000, 0.0000000000000000000 ) ) ;
#13 = PERSON_AND_ORGANIZATION ( #123, #59 ) ;
#14 = FACE_OUTER_BOUND ( 'NONE', #252, .T. ) ;
#15 = PERSON_AND_ORGANIZATION_ROLE ( 'creator' ) ;
#16 = APPROVAL ( #139, 'UNSPECIFIED' ) ;
#17 = FACE_OUTER_BOUND ( 'NONE', #133, .T. ) ;
#18 = APPROVAL_DATE_TIME ( #45, #16 ) ;
#19 = APPROVAL_PERSON_ORGANIZATION ( #138, #16, #156 ) ;
#20 = DIRECTION ( 'NONE',  ( 0.0000000000000000000, 1.000000000000000000, 0.0000000000000000000 ) ) ;
#21 = APPROVAL_STATUS ( 'not_yet_approved' ) ;
#22 = CARTESIAN_POINT ( 'NONE',  ( 3.107418391570388560E-13, 2.299999999999990496, 89.00000000000000000 ) ) ;
#23 = AXIS2_PLACEMENT_3D ( 'NONE', #117, #132, #149 ) ;
#24 = VERTEX_POINT ( 'NONE', #64 ) ;
#25 = VERTEX_POINT ( 'NONE', #182 ) ;
#26 = CARTESIAN_POINT ( 'NONE',  ( 1.431507348925684549E-13, 2.833974596215553809, 40.99999999999999289 ) ) ;
#27 = AXIS2_PLACEMENT_3D ( 'NONE', #150, #193, #74 ) ;
#28 = CALENDAR_DATE ( 2021, 13, 10 ) ;
#29 = ORIENTED_EDGE ( 'NONE', *, *, #137, .T. ) ;
#30 = DIRECTION ( 'NONE',  ( 3.491481338843133355E-15, -4.327174794786742882E-16, 1.000000000000000000 ) ) ;
#31 = AXIS2_PLACEMENT_3D ( 'NONE', #1, #109, #11 ) ;
#32 = MECHANICAL_CONTEXT ( 'NONE', #87, 'mechanical' ) ;
#33 = FACE_OUTER_BOUND ( 'NONE', #191, .T. ) ;
#34 = CARTESIAN_POINT ( 'NONE',  ( 1.471784722863221848E-13, -1.824059514588761910E-14, 42.15358983848623353 ) ) ;
#35 = EDGE_LOOP ( 'NONE', ( #196 ) ) ;
#36 = CONICAL_SURFACE ( 'NONE', #218, 2.999999999999993783, 1.221730476396026388 ) ;
#37 = ADVANCED_FACE ( 'NONE', ( #201, #96 ), #217, .F. ) ;
#38 = DATE_AND_TIME ( #28, #195 ) ;
#39 = PERSON_AND_ORGANIZATION ( #123, #59 ) ;
#40 = ADVANCED_FACE ( 'NONE', ( #169, #33 ), #112, .T. ) ;
#41 = CARTESIAN_POINT ( 'NONE',  ( 0.0000000000000000000, 0.0000000000000000000, 0.0000000000000000000 ) ) ;
#42 = EDGE_CURVE ( 'NONE', #80, #80, #89, .T. ) ;
#43 = CALENDAR_DATE ( 2021, 13, 10 ) ;
#44 = DIRECTION ( 'NONE',  ( -3.491481338843133355E-15, 4.327174794786742882E-16, -1.000000000000000000 ) ) ;
#45 = DATE_AND_TIME ( #43, #184 ) ;
#46 = CARTESIAN_POINT ( 'NONE',  ( 3.082978022198486311E-13, -1.081363123647112810E-14, 88.29999999999998295 ) ) ;
#47 = AXIS2_PLACEMENT_3D ( 'NONE', #246, #44, #2 ) ;
#48 = CYLINDRICAL_SURFACE ( 'NONE', #47, 2.700000000000006839 ) ;
#49 = ORIENTED_EDGE ( 'NONE', *, *, #42, .F. ) ;
#50 = VERTEX_POINT ( 'NONE', #86 ) ;
#51 = AXIS2_PLACEMENT_3D ( 'NONE', #204, #188, #206 ) ;
#52 = CC_DESIGN_PERSON_AND_ORGANIZATION_ASSIGNMENT ( #39, #214, ( #177 ) ) ;
#53 = DIRECTION ( 'NONE',  ( -3.491481338843133355E-15, 4.327174794786742882E-16, -1.000000000000000000 ) ) ;
#54 = AXIS2_PLACEMENT_3D ( 'NONE', #34, #144, #119 ) ;
#55 = FACE_OUTER_BOUND ( 'NONE', #148, .T. ) ;
#56 = DATE_AND_TIME ( #172, #90 ) ;
#57 = ORIENTED_EDGE ( 'NONE', *, *, #190, .F. ) ;
#58 = FACE_OUTER_BOUND ( 'NONE', #232, .T. ) ;
#59 = ORGANIZATION ( 'UNSPECIFIED', 'UNSPECIFIED', '' ) ;
#60 = APPROVAL_DATE_TIME ( #38, #168 ) ;
#61 =( NAMED_UNIT ( * ) PLANE_ANGLE_UNIT ( ) SI_UNIT ( $, .RADIAN. ) );
#62 = AXIS2_PLACEMENT_3D ( 'NONE', #155, #258, #179 ) ;
#63 = CC_DESIGN_DATE_AND_TIME_ASSIGNMENT ( #56, #260, ( #227 ) ) ;
#64 = CARTESIAN_POINT ( 'NONE',  ( 1.414049942231469198E-13, 2.699999999999995737, 40.50000000000000000 ) ) ;
#65 =( LENGTH_UNIT ( ) NAMED_UNIT ( * ) SI_UNIT ( .MILLI., .METRE. ) );
#66 = FACE_OUTER_BOUND ( 'NONE', #255, .T. ) ;
#67 = CONICAL_SURFACE ( 'NONE', #54, 3.500000000000017764, 0.5235987755982995928 ) ;
#68 = EDGE_LOOP ( 'NONE', ( #146 ) ) ;
#69 = PRODUCT ( '966742', '966742', '', ( #32 ) ) ;
#70 = ORIENTED_EDGE ( 'NONE', *, *, #221, .F. ) ;
#71 = CIRCLE ( 'NONE', #147, 2.700000000000006839 ) ;
#72 = FACE_OUTER_BOUND ( 'NONE', #165, .T. ) ;
#73 = PERSON_AND_ORGANIZATION_ROLE ( 'classification_officer' ) ;
#74 = DIRECTION ( 'NONE',  ( -4.275831445896958607E-31, -1.000000000000000000, -1.224646799147353207E-16 ) ) ;
#75 = AXIS2_PLACEMENT_3D ( 'NONE', #94, #53, #12 ) ;
#76 = CYLINDRICAL_SURFACE ( 'NONE', #102, 2.999999999999999112 ) ;
#77 = COORDINATED_UNIVERSAL_TIME_OFFSET ( 1, 0, .AHEAD. ) ;
#78 = FACE_OUTER_BOUND ( 'NONE', #10, .T. ) ;
#79 = EDGE_LOOP ( 'NONE', ( #9 ) ) ;
#80 = VERTEX_POINT ( 'NONE', #22 ) ;
#81 = CC_DESIGN_APPROVAL ( #16, ( #177 ) ) ;
#82 = VERTEX_POINT ( 'NONE', #26 ) ;
#83 = COORDINATED_UNIVERSAL_TIME_OFFSET ( 1, 0, .AHEAD. ) ;
#84 = CARTESIAN_POINT ( 'NONE',  ( 1.414049942231469198E-13, -1.752505791888631025E-14, 40.50000000000000000 ) ) ;
#85 = DIRECTION ( 'NONE',  ( 3.491481338843133355E-15, -1.224646799147353207E-16, 1.000000000000000000 ) ) ;
#86 = CARTESIAN_POINT ( 'NONE',  ( 1.441547607500446300E-13, -3.000000000000016875, 41.28756443470175697 ) ) ;
#87 = APPLICATION_CONTEXT ( 'configuration controlled 3d designs of mechanical parts and assemblies' ) ;
#88 = APPLICATION_PROTOCOL_DEFINITION ( 'international standard', 'config_control_design', 1994, #247 ) ;
#89 = CIRCLE ( 'NONE', #211, 2.300000000000001155 ) ;
#90 = LOCAL_TIME ( 14, 57, 33.00000000000000000, #77 ) ;
#91 = EDGE_LOOP ( 'NONE', ( #8 ) ) ;
#92 = CARTESIAN_POINT ( 'NONE',  ( 1.225509949933939871E-13, -1.518838352970146531E-14, 35.10000000000000142 ) ) ;
#93 = PRODUCT_RELATED_PRODUCT_CATEGORY ( 'detail', '', ( #69 ) ) ;
#94 = CARTESIAN_POINT ( 'NONE',  ( 1.431507348925684549E-13, -1.774141665862564582E-14, 40.99999999999999289 ) ) ;
#95 = ADVANCED_FACE ( 'NONE', ( #78 ), #173, .F. ) ;
#96 = FACE_OUTER_BOUND ( 'NONE', #253, .T. ) ;
#97 = PERSON_AND_ORGANIZATION ( #123, #59 ) ;
#98 = CC_DESIGN_APPROVAL ( #168, ( #111 ) ) ;
#99 = PERSON_AND_ORGANIZATION_ROLE ( 'design_supplier' ) ;
#100 = FACE_BOUND ( 'NONE', #68, .T. ) ;
#101 = CARTESIAN_POINT ( 'NONE',  ( 1.225509949933939871E-13, -2.700000000000021938, 35.10000000000000142 ) ) ;
#102 = AXIS2_PLACEMENT_3D ( 'NONE', #216, #213, #219 ) ;
#103 = DIRECTION ( 'NONE',  ( -5.135813185032639159E-31, -1.000000000000000000, -1.445602896647342121E-16 ) ) ;
#104 = AXIS2_PLACEMENT_3D ( 'NONE', #175, #242, #192 ) ;
#105 = CC_DESIGN_PERSON_AND_ORGANIZATION_ASSIGNMENT ( #199, #99, ( #177 ) ) ;
#106 = PERSON_AND_ORGANIZATION ( #123, #59 ) ;
#107 = ADVANCED_BREP_SHAPE_REPRESENTATION ( '966742', ( #131, #135, #238 ), #140 ) ;
#108 = EDGE_LOOP ( 'NONE', ( #70 ) ) ;
#109 = DIRECTION ( 'NONE',  ( -3.491481338843133355E-15, 1.224646799147353207E-16, -1.000000000000000000 ) ) ;
#110 = CONICAL_SURFACE ( 'NONE', #62, 2.300000000000001155, 0.7853981633974439491 ) ;
#111 = PRODUCT_DEFINITION ( 'UNKNOWN', '', #177, #163 ) ;
#112 = CYLINDRICAL_SURFACE ( 'NONE', #237, 2.700000000000006839 ) ;
#113 = FACE_BOUND ( 'NONE', #143, .T. ) ;
#114 = ORIENTED_EDGE ( 'NONE', *, *, #190, .T. ) ;
#115 = CC_DESIGN_APPROVAL ( #120, ( #227 ) ) ;
#116 = EDGE_CURVE ( 'NONE', #223, #223, #244, .T. ) ;
#117 = CARTESIAN_POINT ( 'NONE',  ( 1.414049942231469198E-13, -1.734723475976807094E-14, 40.50000000000000000 ) ) ;
#118 = DIRECTION ( 'NONE',  ( 0.0000000000000000000, 0.0000000000000000000, 1.000000000000000000 ) ) ;
#119 = DIRECTION ( 'NONE',  ( 0.0000000000000000000, -1.000000000000000000, 0.0000000000000000000 ) ) ;
#120 = APPROVAL ( #154, 'UNSPECIFIED' ) ;
#121 = CARTESIAN_POINT ( 'NONE',  ( 3.431147258254037283E-15, -2.700000000000006839, 0.9827196325187612658 ) ) ;
#122 = APPROVAL_PERSON_ORGANIZATION ( #254, #168, #208 ) ;
#123 = PERSON ( 'UNSPECIFIED', 'UNSPECIFIED', 'UNSPECIFIED', ('UNSPECIFIED'), ('UNSPECIFIED'), ('UNSPECIFIED') ) ;
#124 = PLANE ( 'NONE',  #51 ) ;
#125 = ORIENTED_EDGE ( 'NONE', *, *, #257, .F. ) ;
#126 = APPLICATION_PROTOCOL_DEFINITION ( 'international standard', 'config_control_design', 1994, #87 ) ;
#127 = EDGE_LOOP ( 'NONE', ( #49 ) ) ;
#128 = CIRCLE ( 'NONE', #75, 2.833974596215571573 ) ;
#129 = DIRECTION ( 'NONE',  ( 1.510825004591027855E-30, 1.000000000000000000, 4.327174794786742389E-16 ) ) ;
#130 = DIRECTION ( 'NONE',  ( 0.0000000000000000000, -1.000000000000000000, 0.0000000000000000000 ) ) ;
#131 = MANIFOLD_SOLID_BREP ( 'Corps-Déplacer/Copier1[1]', #134 ) ;
#132 = DIRECTION ( 'NONE',  ( -3.491481338843133355E-15, 4.327174794786742882E-16, -1.000000000000000000 ) ) ;
#133 = EDGE_LOOP ( 'NONE', ( #167 ) ) ;
#134 = CLOSED_SHELL ( 'NONE', ( #5, #160, #245, #40, #200, #37, #95 ) ) ;
#135 = MANIFOLD_SOLID_BREP ( 'Corps-Déplacer/Copier1[2]', #183 ) ;
#136 = CC_DESIGN_SECURITY_CLASSIFICATION ( #227, ( #177 ) ) ;
#137 = EDGE_CURVE ( 'NONE', #50, #50, #6, .T. ) ;
#138 = PERSON_AND_ORGANIZATION ( #123, #59 ) ;
#139 = APPROVAL_STATUS ( 'not_yet_approved' ) ;
#140 =( GEOMETRIC_REPRESENTATION_CONTEXT ( 3 ) GLOBAL_UNCERTAINTY_ASSIGNED_CONTEXT ( ( #180 ) ) GLOBAL_UNIT_ASSIGNED_CONTEXT ( ( #65, #61, #226 ) ) REPRESENTATION_CONTEXT ( 'NONE', 'WORKASPACE' ) );
#141 = DIRECTION ( 'NONE',  ( 0.0000000000000000000, 1.000000000000000000, 0.0000000000000000000 ) ) ;
#142 = FACE_OUTER_BOUND ( 'NONE', #127, .T. ) ;
#143 = EDGE_LOOP ( 'NONE', ( #57 ) ) ;
#144 = DIRECTION ( 'NONE',  ( 3.491481338843133355E-15, -4.327174794786742882E-16, 1.000000000000000000 ) ) ;
#145 = CC_DESIGN_PERSON_AND_ORGANIZATION_ASSIGNMENT ( #106, #233, ( #69 ) ) ;
#146 = ORIENTED_EDGE ( 'NONE', *, *, #42, .T. ) ;
#147 = AXIS2_PLACEMENT_3D ( 'NONE', #92, #259, #239 ) ;
#148 = EDGE_LOOP ( 'NONE', ( #164 ) ) ;
#149 = DIRECTION ( 'NONE',  ( 1.510825004591028030E-30, 1.000000000000000000, 4.327174794786743375E-16 ) ) ;
#150 = CARTESIAN_POINT ( 'NONE',  ( 1.225509949933939871E-13, 2.249639673992777654E-32, 35.10000000000000142 ) ) ;
#151 = CARTESIAN_POINT ( 'NONE',  ( 1.441547607500446300E-13, -1.786585081599750244E-14, 41.28756443470175697 ) ) ;
#152 = AXIS2_PLACEMENT_3D ( 'NONE', #151, #30, #130 ) ;
#153 = SHAPE_DEFINITION_REPRESENTATION ( #263, #107 ) ;
#154 = APPROVAL_STATUS ( 'not_yet_approved' ) ;
#155 = CARTESIAN_POINT ( 'NONE',  ( 3.107418391570388560E-13, -1.089935651241144239E-14, 89.00000000000000000 ) ) ;
#156 = APPROVAL_ROLE ( '' ) ;
#157 = AXIS2_PLACEMENT_3D ( 'NONE', #84, #225, #141 ) ;
#158 = DIRECTION ( 'NONE',  ( 1.000000000000000000, 0.0000000000000000000, 0.0000000000000000000 ) ) ;
#159 = DATE_TIME_ROLE ( 'creation_date' ) ;
#160 = ADVANCED_FACE ( 'NONE', ( #58, #100 ), #110, .T. ) ;
#161 = CARTESIAN_POINT ( 'NONE',  ( 1.225509949933939871E-13, -2.700000000000021938, 35.10000000000000142 ) ) ;
#162 = LOCAL_TIME ( 14, 57, 33.00000000000000000, #174 ) ;
#163 = DESIGN_CONTEXT ( 'detailed design', #247, 'design' ) ;
#164 = ORIENTED_EDGE ( 'NONE', *, *, #137, .F. ) ;
#165 = EDGE_LOOP ( 'NONE', ( #230 ) ) ;
#166 = EDGE_CURVE ( 'NONE', #231, #231, #189, .T. ) ;
#167 = ORIENTED_EDGE ( 'NONE', *, *, #257, .T. ) ;
#168 = APPROVAL ( #21, 'UNSPECIFIED' ) ;
#169 = FACE_OUTER_BOUND ( 'NONE', #35, .T. ) ;
#170 = ADVANCED_FACE ( 'NONE', ( #72 ), #236, .T. ) ;
#171 = DIRECTION ( 'NONE',  ( -3.491481338843133355E-15, 1.224646799147353207E-16, -1.000000000000000000 ) ) ;
#172 = CALENDAR_DATE ( 2021, 13, 10 ) ;
#173 = PLANE ( 'NONE',  #27 ) ;
#174 = COORDINATED_UNIVERSAL_TIME_OFFSET ( 1, 0, .AHEAD. ) ;
#175 = CARTESIAN_POINT ( 'NONE',  ( 3.431147258254038467E-15, -1.203484452423364748E-16, 0.9827196325187617099 ) ) ;
#176 = CALENDAR_DATE ( 2021, 13, 10 ) ;
#177 = PRODUCT_DEFINITION_FORMATION_WITH_SPECIFIED_SOURCE ( 'ANY', '', #69, .NOT_KNOWN. ) ;
#178 = SECURITY_CLASSIFICATION_LEVEL ( 'unclassified' ) ;
#179 = DIRECTION ( 'NONE',  ( 0.0000000000000000000, 1.000000000000000000, 0.0000000000000000000 ) ) ;
#180 = UNCERTAINTY_MEASURE_WITH_UNIT (LENGTH_MEASURE( 1.000000000000000082E-05 ), #65, 'distance_accuracy_value', 'NONE');
#181 = COORDINATED_UNIVERSAL_TIME_OFFSET ( 1, 0, .AHEAD. ) ;
#182 = CARTESIAN_POINT ( 'NONE',  ( 3.082978022198486311E-13, 2.999999999999990674, 88.29999999999998295 ) ) ;
#183 = CLOSED_SHELL ( 'NONE', ( #251, #240, #170 ) ) ;
#184 = LOCAL_TIME ( 14, 57, 33.00000000000000000, #83 ) ;
#185 = PERSON_AND_ORGANIZATION ( #123, #59 ) ;
#186 = FACE_OUTER_BOUND ( 'NONE', #91, .T. ) ;
#187 = CARTESIAN_POINT ( 'NONE',  ( 3.812385842504469655E-15, -1.337204947137065916E-16, 1.091910702798619237 ) ) ;
#188 = DIRECTION ( 'NONE',  ( -3.491481338843133355E-15, 1.224646799147353207E-16, -1.000000000000000000 ) ) ;
#189 = CIRCLE ( 'NONE', #31, 2.700000000000006839 ) ;
#190 = EDGE_CURVE ( 'NONE', #82, #82, #128, .T. ) ;
#191 = EDGE_LOOP ( 'NONE', ( #207 ) ) ;
#192 = DIRECTION ( 'NONE',  ( -4.279844320860513511E-31, -1.000000000000000000, -1.606225440719261683E-16 ) ) ;
#193 = DIRECTION ( 'NONE',  ( 3.491481338843133355E-15, -1.224646799147353207E-16, 1.000000000000000000 ) ) ;
#194 = CARTESIAN_POINT ( 'NONE',  ( 1.225509949933939871E-13, 2.249639673992777654E-32, 35.10000000000000142 ) ) ;
#195 = LOCAL_TIME ( 14, 57, 33.00000000000000000, #210 ) ;
#196 = ORIENTED_EDGE ( 'NONE', *, *, #221, .T. ) ;
#197 = EDGE_CURVE ( 'NONE', #203, #203, #71, .T. ) ;
#198 = CC_DESIGN_PERSON_AND_ORGANIZATION_ASSIGNMENT ( #97, #15, ( #111 ) ) ;
#199 = PERSON_AND_ORGANIZATION ( #123, #59 ) ;
#200 = ADVANCED_FACE ( 'NONE', ( #113, #55 ), #67, .T. ) ;
#201 = FACE_OUTER_BOUND ( 'NONE', #108, .T. ) ;
#202 = DATE_AND_TIME ( #224, #250 ) ;
#203 = VERTEX_POINT ( 'NONE', #161 ) ;
#204 = CARTESIAN_POINT ( 'NONE',  ( 3.107418391570388560E-13, 1.724723750061120922E-32, 89.00000000000000000 ) ) ;
#205 = CIRCLE ( 'NONE', #157, 2.700000000000013056 ) ;
#206 = DIRECTION ( 'NONE',  ( 4.275831445896958607E-31, 1.000000000000000000, 1.224646799147353207E-16 ) ) ;
#207 = ORIENTED_EDGE ( 'NONE', *, *, #166, .F. ) ;
#208 = APPROVAL_ROLE ( '' ) ;
#209 = CC_DESIGN_DATE_AND_TIME_ASSIGNMENT ( #220, #159, ( #111 ) ) ;
#210 = COORDINATED_UNIVERSAL_TIME_OFFSET ( 1, 0, .AHEAD. ) ;
#211 = AXIS2_PLACEMENT_3D ( 'NONE', #241, #171, #20 ) ;
#212 = DIRECTION ( 'NONE',  ( -3.491481338843133355E-15, 4.327174794786742882E-16, -1.000000000000000000 ) ) ;
#213 = DIRECTION ( 'NONE',  ( -3.491481338843133355E-15, 1.224646799147353207E-16, -1.000000000000000000 ) ) ;
#214 = PERSON_AND_ORGANIZATION_ROLE ( 'creator' ) ;
#215 = DIRECTION ( 'NONE',  ( 3.491481338843133355E-15, -1.224646799147353207E-16, 1.000000000000000000 ) ) ;
#216 = CARTESIAN_POINT ( 'NONE',  ( 0.0000000000000000000, 0.0000000000000000000, 0.0000000000000000000 ) ) ;
#217 = TOROIDAL_SURFACE ( 'NONE', #23, 3.700000000000012168, 0.9999999999999986677 ) ;
#218 = AXIS2_PLACEMENT_3D ( 'NONE', #187, #85, #103 ) ;
#219 = DIRECTION ( 'NONE',  ( 4.275831445896958607E-31, 1.000000000000000000, 1.224646799147353207E-16 ) ) ;
#220 = DATE_AND_TIME ( #176, #162 ) ;
#221 = EDGE_CURVE ( 'NONE', #24, #24, #205, .T. ) ;
#222 = CIRCLE ( 'NONE', #256, 3.000000000000001332 ) ;
#223 = VERTEX_POINT ( 'NONE', #121 ) ;
#224 = CALENDAR_DATE ( 2021, 13, 10 ) ;
#225 = DIRECTION ( 'NONE',  ( -3.491481338843133355E-15, 4.327174794786742882E-16, -1.000000000000000000 ) ) ;
#226 =( NAMED_UNIT ( * ) SI_UNIT ( $, .STERADIAN. ) SOLID_ANGLE_UNIT ( ) );
#227 = SECURITY_CLASSIFICATION ( '', '', #178 ) ;
#228 = APPROVAL_ROLE ( '' ) ;
#229 = DIRECTION ( 'NONE',  ( 0.0000000000000000000, 1.000000000000000000, 0.0000000000000000000 ) ) ;
#230 = ORIENTED_EDGE ( 'NONE', *, *, #197, .F. ) ;
#231 = VERTEX_POINT ( 'NONE', #101 ) ;
#232 = EDGE_LOOP ( 'NONE', ( #125 ) ) ;
#233 = PERSON_AND_ORGANIZATION_ROLE ( 'design_owner' ) ;
#234 = ORIENTED_EDGE ( 'NONE', *, *, #166, .T. ) ;
#235 = APPROVAL_PERSON_ORGANIZATION ( #185, #120, #228 ) ;
#236 = PLANE ( 'NONE',  #3 ) ;
#237 = AXIS2_PLACEMENT_3D ( 'NONE', #262, #212, #129 ) ;
#238 = AXIS2_PLACEMENT_3D ( 'NONE', #41, #118, #158 ) ;
#239 = DIRECTION ( 'NONE',  ( 0.0000000000000000000, -1.000000000000000000, 0.0000000000000000000 ) ) ;
#240 = ADVANCED_FACE ( 'NONE', ( #186, #248 ), #48, .T. ) ;
#241 = CARTESIAN_POINT ( 'NONE',  ( 3.107418391570388560E-13, -1.089935651241144239E-14, 89.00000000000000000 ) ) ;
#242 = DIRECTION ( 'NONE',  ( -3.491481338843133355E-15, 1.224646799147353207E-16, -1.000000000000000000 ) ) ;
#243 = APPROVAL_DATE_TIME ( #202, #120 ) ;
#244 = CIRCLE ( 'NONE', #104, 2.700000000000006839 ) ;
#245 = ADVANCED_FACE ( 'NONE', ( #142 ), #124, .F. ) ;
#246 = CARTESIAN_POINT ( 'NONE',  ( 0.0000000000000000000, 0.0000000000000000000, 0.0000000000000000000 ) ) ;
#247 = APPLICATION_CONTEXT ( 'configuration controlled 3d designs of mechanical parts and assemblies' ) ;
#248 = FACE_OUTER_BOUND ( 'NONE', #79, .T. ) ;
#249 = ORIENTED_EDGE ( 'NONE', *, *, #116, .T. ) ;
#250 = LOCAL_TIME ( 14, 57, 33.00000000000000000, #181 ) ;
#251 = ADVANCED_FACE ( 'NONE', ( #66 ), #36, .T. ) ;
#252 = EDGE_LOOP ( 'NONE', ( #29 ) ) ;
#253 = EDGE_LOOP ( 'NONE', ( #114 ) ) ;
#254 = PERSON_AND_ORGANIZATION ( #123, #59 ) ;
#255 = EDGE_LOOP ( 'NONE', ( #249 ) ) ;
#256 = AXIS2_PLACEMENT_3D ( 'NONE', #46, #4, #229 ) ;
#257 = EDGE_CURVE ( 'NONE', #25, #25, #222, .T. ) ;
#258 = DIRECTION ( 'NONE',  ( -3.491481338843133355E-15, 1.224646799147353207E-16, -1.000000000000000000 ) ) ;
#259 = DIRECTION ( 'NONE',  ( -3.491481338843133355E-15, 1.224646799147353207E-16, -1.000000000000000000 ) ) ;
#260 = DATE_TIME_ROLE ( 'classification_date' ) ;
#261 = DIRECTION ( 'NONE',  ( -4.275831445896958607E-31, -1.000000000000000000, -1.224646799147353207E-16 ) ) ;
#262 = CARTESIAN_POINT ( 'NONE',  ( 0.0000000000000000000, 0.0000000000000000000, 0.0000000000000000000 ) ) ;
#263 = PRODUCT_DEFINITION_SHAPE ( 'NONE', 'NONE',  #111 ) ;
ENDSEC;
END-ISO-10303-21;
