ISO-10303-21;
HEADER;
FILE_DESCRIPTION (( 'STEP AP203' ),
    '1' );
FILE_NAME ('966741.step',
    '2021-10-13T12:57:33',
    ( '' ),
    ( '' ),
    'SwSTEP 2.0',
    'SolidWorks 2019',
    '' );
FILE_SCHEMA (( 'CONFIG_CONTROL_DESIGN' ));
ENDSEC;

DATA;
#1 = DATE_TIME_ROLE ( 'classification_date' ) ;
#2 = CC_DESIGN_APPROVAL ( #19, ( #117 ) ) ;
#3 =( NAMED_UNIT ( * ) PLANE_ANGLE_UNIT ( ) SI_UNIT ( $, .RADIAN. ) );
#4 = APPROVAL ( #167, 'UNSPECIFIED' ) ;
#5 = PRODUCT_DEFINITION_SHAPE ( 'NONE', 'NONE',  #24 ) ;
#6 = CIRCLE ( 'NONE', #242, 1.800000000000004263 ) ;
#7 = ADVANCED_FACE ( 'NONE', ( #189, #254 ), #252, .T. ) ;
#8 = EDGE_LOOP ( 'NONE', ( #214 ) ) ;
#9 = FACE_OUTER_BOUND ( 'NONE', #70, .T. ) ;
#10 = EDGE_LOOP ( 'NONE', ( #32 ) ) ;
#11 = DIRECTION ( 'NONE',  ( 1.510825004591027855E-30, 1.000000000000000000, 4.327174794786742882E-16 ) ) ;
#12 = DIRECTION ( 'NONE',  ( -3.491481338843133355E-15, 1.224646799147353207E-16, -1.000000000000000000 ) ) ;
#13 = FACE_OUTER_BOUND ( 'NONE', #147, .T. ) ;
#14 = ADVANCED_FACE ( 'NONE', ( #9, #71 ), #114, .T. ) ;
#15 = AXIS2_PLACEMENT_3D ( 'NONE', #219, #233, #181 ) ;
#16 = CARTESIAN_POINT ( 'NONE',  ( 1.024624434409617807E-13, -3.000000000000012434, 29.34641016151375226 ) ) ;
#17 = DIRECTION ( 'NONE',  ( 0.0000000000000000000, 1.000000000000000000, 0.0000000000000000000 ) ) ;
#18 = FACE_OUTER_BOUND ( 'NONE', #142, .T. ) ;
#19 = APPROVAL ( #124, 'UNSPECIFIED' ) ;
#20 = CARTESIAN_POINT ( 'NONE',  ( 8.170066332892930789E-14, -1.800000000000014477, 23.39999999999999858 ) ) ;
#21 = AXIS2_PLACEMENT_3D ( 'NONE', #88, #113, #253 ) ;
#22 = PERSON_AND_ORGANIZATION_ROLE ( 'creator' ) ;
#23 = PERSON_AND_ORGANIZATION ( #102, #60 ) ;
#24 = PRODUCT_DEFINITION ( 'UNKNOWN', '', #117, #36 ) ;
#25 = PERSON_AND_ORGANIZATION ( #102, #60 ) ;
#26 = CC_DESIGN_SECURITY_CLASSIFICATION ( #232, ( #117 ) ) ;
#27 = APPROVAL_DATE_TIME ( #207, #19 ) ;
#28 = ADVANCED_FACE ( 'NONE', ( #171, #151 ), #75, .T. ) ;
#29 = EDGE_LOOP ( 'NONE', ( #211 ) ) ;
#30 = CIRCLE ( 'NONE', #73, 2.300000000000003375 ) ;
#31 = EDGE_LOOP ( 'NONE', ( #46 ) ) ;
#32 = ORIENTED_EDGE ( 'NONE', *, *, #177, .F. ) ;
#33 = FACE_OUTER_BOUND ( 'NONE', #31, .T. ) ;
#34 = CIRCLE ( 'NONE', #55, 1.800000000000004263 ) ;
#35 = CARTESIAN_POINT ( 'NONE',  ( 8.170066332892930789E-14, -1.012558901980097740E-14, 23.39999999999999858 ) ) ;
#36 = DESIGN_CONTEXT ( 'detailed design', #149, 'design' ) ;
#37 = DIRECTION ( 'NONE',  ( -3.491481338843133355E-15, 1.224646799147353207E-16, -1.000000000000000000 ) ) ;
#38 = DIRECTION ( 'NONE',  ( 0.0000000000000000000, -1.000000000000000000, 0.0000000000000000000 ) ) ;
#39 = CIRCLE ( 'NONE', #179, 1.800000000000008482 ) ;
#40 = DATE_AND_TIME ( #145, #54 ) ;
#41 = EDGE_CURVE ( 'NONE', #76, #76, #6, .T. ) ;
#42 = APPROVAL ( #243, 'UNSPECIFIED' ) ;
#43 = APPROVAL_DATE_TIME ( #245, #4 ) ;
#44 = CALENDAR_DATE ( 2021, 13, 10 ) ;
#45 = PRODUCT ( '966741', '966741', '', ( #201 ) ) ;
#46 = ORIENTED_EDGE ( 'NONE', *, *, #64, .F. ) ;
#47 = MANIFOLD_SOLID_BREP ( 'Corps-Déplacer/Copier1[1]', #59 ) ;
#48 = ORIENTED_EDGE ( 'NONE', *, *, #257, .T. ) ;
#49 = EDGE_LOOP ( 'NONE', ( #190 ) ) ;
#50 = ADVANCED_FACE ( 'NONE', ( #192, #230 ), #209, .T. ) ;
#51 = DIRECTION ( 'NONE',  ( 0.0000000000000000000, -1.000000000000000000, 0.0000000000000000000 ) ) ;
#52 = DIRECTION ( 'NONE',  ( -3.491481338843133355E-15, 1.224646799147353207E-16, -1.000000000000000000 ) ) ;
#53 = AXIS2_PLACEMENT_3D ( 'NONE', #109, #146, #11 ) ;
#54 = LOCAL_TIME ( 14, 57, 33.00000000000000000, #69 ) ;
#55 = AXIS2_PLACEMENT_3D ( 'NONE', #259, #95, #38 ) ;
#56 = CC_DESIGN_PERSON_AND_ORGANIZATION_ASSIGNMENT ( #163, #221, ( #45 ) ) ;
#57 = DIRECTION ( 'NONE',  ( -4.275831445896958607E-31, -1.000000000000000000, -1.224646799147353207E-16 ) ) ;
#58 = DIRECTION ( 'NONE',  ( -3.491481338843133355E-15, 1.224646799147353207E-16, -1.000000000000000000 ) ) ;
#59 = CLOSED_SHELL ( 'NONE', ( #14, #110, #239, #28, #50, #155, #103 ) ) ;
#60 = ORGANIZATION ( 'UNSPECIFIED', 'UNSPECIFIED', '' ) ;
#61 = DIRECTION ( 'NONE',  ( -3.491481338843133355E-15, 1.224646799147353207E-16, -1.000000000000000000 ) ) ;
#62 = CLOSED_SHELL ( 'NONE', ( #68, #7, #169 ) ) ;
#63 = COORDINATED_UNIVERSAL_TIME_OFFSET ( 1, 0, .AHEAD. ) ;
#64 = EDGE_CURVE ( 'NONE', #194, #194, #148, .T. ) ;
#65 = CALENDAR_DATE ( 2021, 13, 10 ) ;
#66 = ORIENTED_EDGE ( 'NONE', *, *, #166, .T. ) ;
#67 = DIRECTION ( 'NONE',  ( 1.000000000000000000, 0.0000000000000000000, 0.0000000000000000000 ) ) ;
#68 = ADVANCED_FACE ( 'NONE', ( #208 ), #222, .T. ) ;
#69 = COORDINATED_UNIVERSAL_TIME_OFFSET ( 1, 0, .AHEAD. ) ;
#70 = EDGE_LOOP ( 'NONE', ( #244 ) ) ;
#71 = FACE_OUTER_BOUND ( 'NONE', #94, .T. ) ;
#72 = EDGE_CURVE ( 'NONE', #156, #156, #173, .T. ) ;
#73 = AXIS2_PLACEMENT_3D ( 'NONE', #236, #61, #98 ) ;
#74 = DIRECTION ( 'NONE',  ( 1.510825004591027855E-30, 1.000000000000000000, 4.327174794786742882E-16 ) ) ;
#75 = CYLINDRICAL_SURFACE ( 'NONE', #77, 1.800000000000004263 ) ;
#76 = VERTEX_POINT ( 'NONE', #159 ) ;
#77 = AXIS2_PLACEMENT_3D ( 'NONE', #152, #172, #74 ) ;
#78 = CARTESIAN_POINT ( 'NONE',  ( 1.024624434409617807E-13, -1.269870463683758777E-14, 29.34641016151375226 ) ) ;
#79 = VERTEX_POINT ( 'NONE', #215 ) ;
#80 = DIRECTION ( 'NONE',  ( -4.275831445896958607E-31, -1.000000000000000000, -1.224646799147353207E-16 ) ) ;
#81 = DIRECTION ( 'NONE',  ( 0.0000000000000000000, -1.000000000000000000, 0.0000000000000000000 ) ) ;
#82 = PERSON_AND_ORGANIZATION_ROLE ( 'classification_officer' ) ;
#83 = CC_DESIGN_PERSON_AND_ORGANIZATION_ASSIGNMENT ( #25, #22, ( #117 ) ) ;
#84 = PERSON_AND_ORGANIZATION ( #102, #60 ) ;
#85 = CARTESIAN_POINT ( 'NONE',  ( 0.0000000000000000000, 0.0000000000000000000, 0.0000000000000000000 ) ) ;
#86 = LOCAL_TIME ( 14, 57, 33.00000000000000000, #126 ) ;
#87 = DIRECTION ( 'NONE',  ( 3.491481338843133355E-15, -1.224646799147353207E-16, 1.000000000000000000 ) ) ;
#88 = CARTESIAN_POINT ( 'NONE',  ( 0.0000000000000000000, 0.0000000000000000000, 0.0000000000000000000 ) ) ;
#89 = CC_DESIGN_PERSON_AND_ORGANIZATION_ASSIGNMENT ( #263, #82, ( #232 ) ) ;
#90 = ORIENTED_EDGE ( 'NONE', *, *, #72, .F. ) ;
#91 = AXIS2_PLACEMENT_3D ( 'NONE', #212, #87, #249 ) ;
#92 = ORIENTED_EDGE ( 'NONE', *, *, #262, .F. ) ;
#93 = EDGE_CURVE ( 'NONE', #97, #97, #30, .T. ) ;
#94 = EDGE_LOOP ( 'NONE', ( #127 ) ) ;
#95 = DIRECTION ( 'NONE',  ( -3.491481338843133355E-15, 1.224646799147353207E-16, -1.000000000000000000 ) ) ;
#96 =( GEOMETRIC_REPRESENTATION_CONTEXT ( 3 ) GLOBAL_UNCERTAINTY_ASSIGNED_CONTEXT ( ( #132 ) ) GLOBAL_UNIT_ASSIGNED_CONTEXT ( ( #143, #3, #241 ) ) REPRESENTATION_CONTEXT ( 'NONE', 'WORKASPACE' ) );
#97 = VERTEX_POINT ( 'NONE', #157 ) ;
#98 = DIRECTION ( 'NONE',  ( 0.0000000000000000000, 1.000000000000000000, 0.0000000000000000000 ) ) ;
#99 = FACE_OUTER_BOUND ( 'NONE', #210, .T. ) ;
#100 = AXIS2_PLACEMENT_3D ( 'NONE', #130, #226, #51 ) ;
#101 = VERTEX_POINT ( 'NONE', #183 ) ;
#102 = PERSON ( 'UNSPECIFIED', 'UNSPECIFIED', 'UNSPECIFIED', ('UNSPECIFIED'), ('UNSPECIFIED'), ('UNSPECIFIED') ) ;
#103 = ADVANCED_FACE ( 'NONE', ( #115 ), #118, .F. ) ;
#104 = PERSON_AND_ORGANIZATION_ROLE ( 'design_supplier' ) ;
#105 = EDGE_LOOP ( 'NONE', ( #174 ) ) ;
#106 = CALENDAR_DATE ( 2021, 13, 10 ) ;
#107 = APPLICATION_PROTOCOL_DEFINITION ( 'international standard', 'config_control_design', 1994, #135 ) ;
#108 = PERSON_AND_ORGANIZATION ( #102, #60 ) ;
#109 = CARTESIAN_POINT ( 'NONE',  ( 0.0000000000000000000, 0.0000000000000000000, 0.0000000000000000000 ) ) ;
#110 = ADVANCED_FACE ( 'NONE', ( #33, #197 ), #237, .T. ) ;
#111 = ORIENTED_EDGE ( 'NONE', *, *, #262, .T. ) ;
#112 = DIRECTION ( 'NONE',  ( 0.0000000000000000000, 1.000000000000000000, 0.0000000000000000000 ) ) ;
#113 = DIRECTION ( 'NONE',  ( -3.491481338843133355E-15, 1.224646799147353207E-16, -1.000000000000000000 ) ) ;
#114 = CYLINDRICAL_SURFACE ( 'NONE', #21, 3.000000000000000000 ) ;
#115 = FACE_OUTER_BOUND ( 'NONE', #105, .T. ) ;
#116 = DIRECTION ( 'NONE',  ( 0.0000000000000000000, 1.000000000000000000, 0.0000000000000000000 ) ) ;
#117 = PRODUCT_DEFINITION_FORMATION_WITH_SPECIFIED_SOURCE ( 'ANY', '', #45, .NOT_KNOWN. ) ;
#118 = PLANE ( 'NONE',  #154 ) ;
#119 = CARTESIAN_POINT ( 'NONE',  ( 9.426999614876461321E-14, -1.170938346284344789E-14, 27.00000000000000355 ) ) ;
#120 = VERTEX_POINT ( 'NONE', #20 ) ;
#121 = CIRCLE ( 'NONE', #224, 1.800000000000004263 ) ;
#122 = DATE_TIME_ROLE ( 'creation_date' ) ;
#123 = CALENDAR_DATE ( 2021, 13, 10 ) ;
#124 = APPROVAL_STATUS ( 'not_yet_approved' ) ;
#125 = APPROVAL_ROLE ( '' ) ;
#126 = COORDINATED_UNIVERSAL_TIME_OFFSET ( 1, 0, .AHEAD. ) ;
#127 = ORIENTED_EDGE ( 'NONE', *, *, #64, .T. ) ;
#128 = ORIENTED_EDGE ( 'NONE', *, *, #41, .F. ) ;
#129 = DIRECTION ( 'NONE',  ( -4.279844320860514387E-31, -1.000000000000000000, -1.204669080539446632E-16 ) ) ;
#130 = CARTESIAN_POINT ( 'NONE',  ( 1.054861549772392976E-13, -1.307344896672769813E-14, 30.21243556529821106 ) ) ;
#131 = DIRECTION ( 'NONE',  ( 3.491481338843133355E-15, -1.224646799147353207E-16, 1.000000000000000000 ) ) ;
#132 = UNCERTAINTY_MEASURE_WITH_UNIT (LENGTH_MEASURE( 1.000000000000000082E-05 ), #143, 'distance_accuracy_value', 'NONE');
#133 = MANIFOLD_SOLID_BREP ( 'Corps-Déplacer/Copier1[2]', #62 ) ;
#134 = CARTESIAN_POINT ( 'NONE',  ( 2.758270257686075477E-13, -9.674709713264090904E-15, 79.00000000000000000 ) ) ;
#135 = APPLICATION_CONTEXT ( 'configuration controlled 3d designs of mechanical parts and assemblies' ) ;
#136 = CC_DESIGN_APPROVAL ( #42, ( #232 ) ) ;
#137 = CARTESIAN_POINT ( 'NONE',  ( 8.170066332892930789E-14, 2.249639673992779843E-32, 23.39999999999999858 ) ) ;
#138 = APPLICATION_PROTOCOL_DEFINITION ( 'international standard', 'config_control_design', 1994, #149 ) ;
#139 = AXIS2_PLACEMENT_3D ( 'NONE', #193, #217, #57 ) ;
#140 = PERSON_AND_ORGANIZATION_ROLE ( 'creator' ) ;
#141 = DATE_AND_TIME ( #65, #251 ) ;
#142 = EDGE_LOOP ( 'NONE', ( #48 ) ) ;
#143 =( LENGTH_UNIT ( ) NAMED_UNIT ( * ) SI_UNIT ( .MILLI., .METRE. ) );
#144 = AXIS2_PLACEMENT_3D ( 'NONE', #78, #161, #81 ) ;
#145 = CALENDAR_DATE ( 2021, 13, 10 ) ;
#146 = DIRECTION ( 'NONE',  ( -3.491481338843133355E-15, 4.327174794786742882E-16, -1.000000000000000000 ) ) ;
#147 = EDGE_LOOP ( 'NONE', ( #250 ) ) ;
#148 = CIRCLE ( 'NONE', #195, 3.000000000000003553 ) ;
#149 = APPLICATION_CONTEXT ( 'configuration controlled 3d designs of mechanical parts and assemblies' ) ;
#150 = SHAPE_DEFINITION_REPRESENTATION ( #5, #158 ) ;
#151 = FACE_OUTER_BOUND ( 'NONE', #10, .T. ) ;
#152 = CARTESIAN_POINT ( 'NONE',  ( 0.0000000000000000000, 0.0000000000000000000, 0.0000000000000000000 ) ) ;
#153 = DIRECTION ( 'NONE',  ( 0.0000000000000000000, 1.000000000000000000, 0.0000000000000000000 ) ) ;
#154 = AXIS2_PLACEMENT_3D ( 'NONE', #137, #131, #80 ) ;
#155 = ADVANCED_FACE ( 'NONE', ( #180, #18 ), #170, .F. ) ;
#156 = VERTEX_POINT ( 'NONE', #16 ) ;
#157 = CARTESIAN_POINT ( 'NONE',  ( 2.758270257686075477E-13, 2.299999999999994049, 79.00000000000000000 ) ) ;
#158 = ADVANCED_BREP_SHAPE_REPRESENTATION ( '966741', ( #47, #133, #164 ), #96 ) ;
#159 = CARTESIAN_POINT ( 'NONE',  ( 2.287431505502690470E-15, -1.800000000000004263, 0.6551464216791741402 ) ) ;
#160 = CC_DESIGN_DATE_AND_TIME_ASSIGNMENT ( #40, #122, ( #24 ) ) ;
#161 = DIRECTION ( 'NONE',  ( 3.491481338843133355E-15, -4.327174794786742882E-16, 1.000000000000000000 ) ) ;
#162 = PERSON_AND_ORGANIZATION ( #102, #60 ) ;
#163 = PERSON_AND_ORGANIZATION ( #102, #60 ) ;
#164 = AXIS2_PLACEMENT_3D ( 'NONE', #85, #168, #67 ) ;
#165 = COORDINATED_UNIVERSAL_TIME_OFFSET ( 1, 0, .AHEAD. ) ;
#166 = EDGE_CURVE ( 'NONE', #258, #258, #39, .T. ) ;
#167 = APPROVAL_STATUS ( 'not_yet_approved' ) ;
#168 = DIRECTION ( 'NONE',  ( 0.0000000000000000000, 0.0000000000000000000, 1.000000000000000000 ) ) ;
#169 = ADVANCED_FACE ( 'NONE', ( #99 ), #216, .T. ) ;
#170 = TOROIDAL_SURFACE ( 'NONE', #255, 2.800000000000008704, 0.9999999999999997780 ) ;
#171 = FACE_OUTER_BOUND ( 'NONE', #191, .T. ) ;
#172 = DIRECTION ( 'NONE',  ( -3.491481338843133355E-15, 4.327174794786742882E-16, -1.000000000000000000 ) ) ;
#173 = CIRCLE ( 'NONE', #144, 3.000000000000000000 ) ;
#174 = ORIENTED_EDGE ( 'NONE', *, *, #177, .T. ) ;
#175 = EDGE_LOOP ( 'NONE', ( #248 ) ) ;
#176 = EDGE_LOOP ( 'NONE', ( #90 ) ) ;
#177 = EDGE_CURVE ( 'NONE', #120, #120, #121, .T. ) ;
#178 = DIRECTION ( 'NONE',  ( -3.491481338843133355E-15, 4.327174794786742882E-16, -1.000000000000000000 ) ) ;
#179 = AXIS2_PLACEMENT_3D ( 'NONE', #238, #178, #17 ) ;
#180 = FACE_OUTER_BOUND ( 'NONE', #49, .T. ) ;
#181 = DIRECTION ( 'NONE',  ( 4.275831445896958607E-31, 1.000000000000000000, 1.224646799147353207E-16 ) ) ;
#182 = PLANE ( 'NONE',  #15 ) ;
#183 = CARTESIAN_POINT ( 'NONE',  ( 9.601573681818618620E-14, 1.933974596215558783, 27.50000000000000355 ) ) ;
#184 = DATE_AND_TIME ( #106, #185 ) ;
#185 = LOCAL_TIME ( 14, 57, 33.00000000000000000, #240 ) ;
#186 = APPROVAL_DATE_TIME ( #141, #42 ) ;
#187 = CC_DESIGN_APPROVAL ( #4, ( #24 ) ) ;
#188 = CARTESIAN_POINT ( 'NONE',  ( 2.733829888314173228E-13, -9.588984437323775038E-15, 78.29999999999999716 ) ) ;
#189 = FACE_OUTER_BOUND ( 'NONE', #204, .T. ) ;
#190 = ORIENTED_EDGE ( 'NONE', *, *, #166, .F. ) ;
#191 = EDGE_LOOP ( 'NONE', ( #66 ) ) ;
#192 = FACE_BOUND ( 'NONE', #29, .T. ) ;
#193 = CARTESIAN_POINT ( 'NONE',  ( 8.170066332892930789E-14, 2.249639673992779843E-32, 23.39999999999999858 ) ) ;
#194 = VERTEX_POINT ( 'NONE', #196 ) ;
#195 = AXIS2_PLACEMENT_3D ( 'NONE', #188, #12, #112 ) ;
#196 = CARTESIAN_POINT ( 'NONE',  ( 2.733829888314173228E-13, 2.999999999999993783, 78.29999999999999716 ) ) ;
#197 = FACE_BOUND ( 'NONE', #175, .T. ) ;
#198 = CARTESIAN_POINT ( 'NONE',  ( 9.601573681818618620E-14, -1.189973068566354450E-14, 27.50000000000000355 ) ) ;
#199 = APPROVAL_PERSON_ORGANIZATION ( #23, #19, #225 ) ;
#200 = APPROVAL_PERSON_ORGANIZATION ( #162, #4, #125 ) ;
#201 = MECHANICAL_CONTEXT ( 'NONE', #135, 'mechanical' ) ;
#202 = PRODUCT_RELATED_PRODUCT_CATEGORY ( 'detail', '', ( #45 ) ) ;
#203 = SECURITY_CLASSIFICATION_LEVEL ( 'unclassified' ) ;
#204 = EDGE_LOOP ( 'NONE', ( #111 ) ) ;
#205 = PERSON_AND_ORGANIZATION ( #102, #60 ) ;
#206 = CC_DESIGN_PERSON_AND_ORGANIZATION_ASSIGNMENT ( #205, #140, ( #24 ) ) ;
#207 = DATE_AND_TIME ( #123, #86 ) ;
#208 = FACE_OUTER_BOUND ( 'NONE', #8, .T. ) ;
#209 = CONICAL_SURFACE ( 'NONE', #100, 3.500000000000012434, 0.5235987755983008141 ) ;
#210 = EDGE_LOOP ( 'NONE', ( #92 ) ) ;
#211 = ORIENTED_EDGE ( 'NONE', *, *, #257, .F. ) ;
#212 = CARTESIAN_POINT ( 'NONE',  ( 3.812385842504469655E-15, -1.337204947137065916E-16, 1.091910702798619237 ) ) ;
#213 = AXIS2_PLACEMENT_3D ( 'NONE', #198, #260, #116 ) ;
#214 = ORIENTED_EDGE ( 'NONE', *, *, #41, .T. ) ;
#215 = CARTESIAN_POINT ( 'NONE',  ( 8.170066332892930789E-14, -1.800000000000014477, 23.39999999999999858 ) ) ;
#216 = PLANE ( 'NONE',  #139 ) ;
#217 = DIRECTION ( 'NONE',  ( 3.491481338843133355E-15, -1.224646799147353207E-16, 1.000000000000000000 ) ) ;
#218 = APPROVAL_PERSON_ORGANIZATION ( #84, #42, #223 ) ;
#219 = CARTESIAN_POINT ( 'NONE',  ( 2.758270257686075477E-13, 1.724723750061124754E-32, 79.00000000000000000 ) ) ;
#220 = DIRECTION ( 'NONE',  ( 0.0000000000000000000, -1.000000000000000000, 0.0000000000000000000 ) ) ;
#221 = PERSON_AND_ORGANIZATION_ROLE ( 'design_owner' ) ;
#222 = CONICAL_SURFACE ( 'NONE', #91, 2.999999999999993783, 1.221730476396026388 ) ;
#223 = APPROVAL_ROLE ( '' ) ;
#224 = AXIS2_PLACEMENT_3D ( 'NONE', #35, #58, #220 ) ;
#225 = APPROVAL_ROLE ( '' ) ;
#226 = DIRECTION ( 'NONE',  ( 3.491481338843133355E-15, -4.327174794786742882E-16, 1.000000000000000000 ) ) ;
#227 = LOCAL_TIME ( 14, 57, 33.00000000000000000, #63 ) ;
#228 = CC_DESIGN_DATE_AND_TIME_ASSIGNMENT ( #184, #1, ( #232 ) ) ;
#229 = CARTESIAN_POINT ( 'NONE',  ( 2.287431505502691259E-15, -8.023229682822428774E-17, 0.6551464216791743622 ) ) ;
#230 = FACE_OUTER_BOUND ( 'NONE', #176, .T. ) ;
#231 = CC_DESIGN_PERSON_AND_ORGANIZATION_ASSIGNMENT ( #108, #104, ( #117 ) ) ;
#232 = SECURITY_CLASSIFICATION ( '', '', #203 ) ;
#233 = DIRECTION ( 'NONE',  ( -3.491481338843133355E-15, 1.224646799147353207E-16, -1.000000000000000000 ) ) ;
#234 = DIRECTION ( 'NONE',  ( -3.491481338843133355E-15, 4.327174794786742882E-16, -1.000000000000000000 ) ) ;
#235 = CARTESIAN_POINT ( 'NONE',  ( 9.426999614876460059E-14, 1.799999999999996714, 27.00000000000000000 ) ) ;
#236 = CARTESIAN_POINT ( 'NONE',  ( 2.758270257686075477E-13, -9.674709713264090904E-15, 79.00000000000000000 ) ) ;
#237 = CONICAL_SURFACE ( 'NONE', #247, 2.300000000000003375, 0.7853981633974439491 ) ;
#238 = CARTESIAN_POINT ( 'NONE',  ( 9.426999614876460059E-14, -1.168337194592420578E-14, 27.00000000000000000 ) ) ;
#239 = ADVANCED_FACE ( 'NONE', ( #13 ), #182, .F. ) ;
#240 = COORDINATED_UNIVERSAL_TIME_OFFSET ( 1, 0, .AHEAD. ) ;
#241 =( NAMED_UNIT ( * ) SI_UNIT ( $, .STERADIAN. ) SOLID_ANGLE_UNIT ( ) );
#242 = AXIS2_PLACEMENT_3D ( 'NONE', #229, #52, #129 ) ;
#243 = APPROVAL_STATUS ( 'not_yet_approved' ) ;
#244 = ORIENTED_EDGE ( 'NONE', *, *, #72, .T. ) ;
#245 = DATE_AND_TIME ( #44, #227 ) ;
#246 = EDGE_LOOP ( 'NONE', ( #128 ) ) ;
#247 = AXIS2_PLACEMENT_3D ( 'NONE', #134, #37, #153 ) ;
#248 = ORIENTED_EDGE ( 'NONE', *, *, #93, .T. ) ;
#249 = DIRECTION ( 'NONE',  ( -5.135813185032639159E-31, -1.000000000000000000, -1.445602896647342121E-16 ) ) ;
#250 = ORIENTED_EDGE ( 'NONE', *, *, #93, .F. ) ;
#251 = LOCAL_TIME ( 14, 57, 33.00000000000000000, #165 ) ;
#252 = CYLINDRICAL_SURFACE ( 'NONE', #53, 1.800000000000004263 ) ;
#253 = DIRECTION ( 'NONE',  ( 4.275831445896959482E-31, 1.000000000000000000, 1.224646799147353207E-16 ) ) ;
#254 = FACE_OUTER_BOUND ( 'NONE', #246, .T. ) ;
#255 = AXIS2_PLACEMENT_3D ( 'NONE', #119, #234, #256 ) ;
#256 = DIRECTION ( 'NONE',  ( 1.510825004591027855E-30, 1.000000000000000000, 4.327174794786742882E-16 ) ) ;
#257 = EDGE_CURVE ( 'NONE', #101, #101, #261, .T. ) ;
#258 = VERTEX_POINT ( 'NONE', #235 ) ;
#259 = CARTESIAN_POINT ( 'NONE',  ( 8.170066332892930789E-14, -1.012558901980097740E-14, 23.39999999999999858 ) ) ;
#260 = DIRECTION ( 'NONE',  ( -3.491481338843133355E-15, 4.327174794786742882E-16, -1.000000000000000000 ) ) ;
#261 = CIRCLE ( 'NONE', #213, 1.933974596215570774 ) ;
#262 = EDGE_CURVE ( 'NONE', #79, #79, #34, .T. ) ;
#263 = PERSON_AND_ORGANIZATION ( #102, #60 ) ;
ENDSEC;
END-ISO-10303-21;
