ISO-10303-21;
HEADER;
FILE_DESCRIPTION (( 'STEP AP203' ),
    '1' );
FILE_NAME ('966653.step',
    '2023-09-28T06:23:30',
    ( '' ),
    ( '' ),
    'SwSTEP 2.0',
    'SolidWorks 2022',
    '' );
FILE_SCHEMA (( 'CONFIG_CONTROL_DESIGN' ));
ENDSEC;

DATA;
#1 = EDGE_LOOP ( 'NONE', ( #295 ) ) ;
#2 = EDGE_LOOP ( 'NONE', ( #384 ) ) ;
#3 = ADVANCED_FACE ( 'NONE', ( #86, #21 ), #390, .T. ) ;
#4 = DATE_AND_TIME ( #280, #112 ) ;
#5 = AXIS2_PLACEMENT_3D ( 'NONE', #266, #212, #206 ) ;
#6 = APPROVAL_DATE_TIME ( #258, #25 ) ;
#7 = DIRECTION ( 'NONE',  ( 3.491481338843133355E-15, -0.000000000000000000, 1.000000000000000000 ) ) ;
#8 = MANIFOLD_SOLID_BREP ( 'Corps-Déplacer/Copier1', #236 ) ;
#9 = ORIENTED_EDGE ( 'NONE', *, *, #70, .F. ) ;
#10 = APPROVAL_STATUS ( 'not_yet_approved' ) ;
#11 = ORIENTED_EDGE ( 'NONE', *, *, #179, .T. ) ;
#12 = APPLICATION_PROTOCOL_DEFINITION ( 'international standard', 'config_control_design', 1994, #135 ) ;
#13 = CARTESIAN_POINT ( 'NONE',  ( 1.500000000000035083, 0.000000000000000000, 10.08762635361050641 ) ) ;
#14 = PERSON_AND_ORGANIZATION ( #229, #319 ) ;
#15 = CARTESIAN_POINT ( 'NONE',  ( 6.671800567627430381E-16, 0.000000000000000000, 0.1910879629629658183 ) ) ;
#16 = EDGE_LOOP ( 'NONE', ( #80 ) ) ;
#17 = ADVANCED_FACE ( 'NONE', ( #131 ), #351, .F. ) ;
#18 = AXIS2_PLACEMENT_3D ( 'NONE', #216, #7, #165 ) ;
#19 = CARTESIAN_POINT ( 'NONE',  ( 2.185254989917141649E-14, 0.000000000000000000, 6.258819045102510970 ) ) ;
#20 = DIRECTION ( 'NONE',  ( 3.491481338843133355E-15, -0.000000000000000000, 1.000000000000000000 ) ) ;
#21 = FACE_OUTER_BOUND ( 'NONE', #163, .T. ) ;
#22 = FACE_OUTER_BOUND ( 'NONE', #1, .T. ) ;
#23 = AXIS2_PLACEMENT_3D ( 'NONE', #85, #20, #144 ) ;
#24 = CARTESIAN_POINT ( 'NONE',  ( 5.645369711069196157E-16, 0.000000000000000000, 0.1616898148148124270 ) ) ;
#25 = APPROVAL ( #10, 'UNSPECIFIED' ) ;
#26 = DIRECTION ( 'NONE',  ( 3.491481338843133355E-15, -0.000000000000000000, 1.000000000000000000 ) ) ;
#27 = ORIENTED_EDGE ( 'NONE', *, *, #247, .F. ) ;
#28 = CONICAL_SURFACE ( 'NONE', #201, 0.4740741737109291920, 0.2617993877991425244 ) ;
#29 = EDGE_LOOP ( 'NONE', ( #269 ) ) ;
#30 = CC_DESIGN_PERSON_AND_ORGANIZATION_ASSIGNMENT ( #128, #217, ( #294 ) ) ;
#31 = CARTESIAN_POINT ( 'NONE',  ( 0.7200000000000017497, 0.000000000000000000, 0.5144675925925882298 ) ) ;
#32 = VERTEX_POINT ( 'NONE', #35 ) ;
#33 = VERTEX_POINT ( 'NONE', #31 ) ;
#34 = SECURITY_CLASSIFICATION_LEVEL ( 'unclassified' ) ;
#35 = CARTESIAN_POINT ( 'NONE',  ( 0.4399450256743362431, 0.000000000000000000, -1.536059847258808129E-15 ) ) ;
#36 = CALENDAR_DATE ( 2023, 28, 9 ) ;
#37 = CIRCLE ( 'NONE', #18, 0.4740741737109291920 ) ;
#38 = CARTESIAN_POINT ( 'NONE',  ( 1.326762908760390423E-13, 1.199999999999993960, 38.00000000000000000 ) ) ;
#39 = COORDINATED_UNIVERSAL_TIME_OFFSET ( 1, 0, .AHEAD. ) ;
#40 = EDGE_LOOP ( 'NONE', ( #349 ) ) ;
#41 = CARTESIAN_POINT ( 'NONE',  ( 2.309469427255626412E-15, 0.000000000000000000, 0.6614583333333368120 ) ) ;
#42 = DIRECTION ( 'NONE',  ( -3.491481338843133355E-15, 0.000000000000000000, -1.000000000000000000 ) ) ;
#43 = DIRECTION ( 'NONE',  ( 1.000000000000000000, 0.000000000000000000, -4.625929269271490844E-15 ) ) ;
#44 = CARTESIAN_POINT ( 'NONE',  ( 1.326762908760390423E-13, 0.000000000000000000, 38.00000000000000000 ) ) ;
#45 = CALENDAR_DATE ( 2023, 28, 9 ) ;
#46 = AXIS2_PLACEMENT_3D ( 'NONE', #309, #358, #392 ) ;
#47 = EDGE_CURVE ( 'NONE', #315, #315, #282, .T. ) ;
#48 = DIRECTION ( 'NONE',  ( 1.000000000000000000, 0.000000000000000000, 0.000000000000000000 ) ) ;
#49 = CC_DESIGN_APPROVAL ( #125, ( #339 ) ) ;
#50 = EDGE_LOOP ( 'NONE', ( #100 ) ) ;
#51 = CARTESIAN_POINT ( 'NONE',  ( 2.372621076199574426E-33, 0.000000000000000000, 6.795456844646112091E-19 ) ) ;
#52 = DIRECTION ( 'NONE',  ( 1.000000000000000000, 0.000000000000000000, -3.491481338843133355E-15 ) ) ;
#53 = DIRECTION ( 'NONE',  ( -3.491481338843133355E-15, 0.000000000000000000, -1.000000000000000000 ) ) ;
#54 = DIRECTION ( 'NONE',  ( 3.491481338843133355E-15, -0.000000000000000000, 1.000000000000000000 ) ) ;
#55 = DIRECTION ( 'NONE',  ( 1.000000000000000000, 0.000000000000000000, -4.625929269271495577E-15 ) ) ;
#56 = CIRCLE ( 'NONE', #254, 0.5163236550358808463 ) ;
#57 = DIRECTION ( 'NONE',  ( 3.491481338843133355E-15, -0.000000000000000000, 1.000000000000000000 ) ) ;
#58 = DIRECTION ( 'NONE',  ( 3.491481338843133355E-15, -0.000000000000000000, 1.000000000000000000 ) ) ;
#59 = FACE_OUTER_BOUND ( 'NONE', #320, .T. ) ;
#60 = ADVANCED_FACE ( 'NONE', ( #178, #305 ), #116, .T. ) ;
#61 = TOROIDAL_SURFACE ( 'NONE', #111, 1.439999999999999503, 1.000000000000000000 ) ;
#62 = CYLINDRICAL_SURFACE ( 'NONE', #368, 0.7199999999999999734 ) ;
#63 = DIRECTION ( 'NONE',  ( 1.000000000000000000, 0.000000000000000000, -3.491481338843133355E-15 ) ) ;
#64 = CC_DESIGN_PERSON_AND_ORGANIZATION_ASSIGNMENT ( #81, #200, ( #339 ) ) ;
#65 = EDGE_LOOP ( 'NONE', ( #235 ) ) ;
#66 = AXIS2_PLACEMENT_3D ( 'NONE', #297, #54, #63 ) ;
#67 = CARTESIAN_POINT ( 'NONE',  ( 1.500000000000128120, 0.000000000000000000, 37.69999999999998863 ) ) ;
#68 = PERSON_AND_ORGANIZATION_ROLE ( 'design_owner' ) ;
#69 = ORIENTED_EDGE ( 'NONE', *, *, #278, .F. ) ;
#70 = EDGE_CURVE ( 'NONE', #32, #32, #102, .T. ) ;
#71 = VERTEX_POINT ( 'NONE', #75 ) ;
#72 = DATE_TIME_ROLE ( 'creation_date' ) ;
#73 = AXIS2_PLACEMENT_3D ( 'NONE', #41, #330, #110 ) ;
#74 = DIRECTION ( 'NONE',  ( 1.000000000000000000, 0.000000000000000000, 0.000000000000000000 ) ) ;
#75 = CARTESIAN_POINT ( 'NONE',  ( 0.5163236550358833998, 0.000000000000000000, 0.7055555555555546032 ) ) ;
#76 = DIRECTION ( 'NONE',  ( -3.491481338843133355E-15, 0.000000000000000000, -1.000000000000000000 ) ) ;
#77 = PERSON_AND_ORGANIZATION ( #229, #319 ) ;
#78 = CC_DESIGN_PERSON_AND_ORGANIZATION_ASSIGNMENT ( #77, #68, ( #162 ) ) ;
#79 = FACE_OUTER_BOUND ( 'NONE', #95, .T. ) ;
#80 = ORIENTED_EDGE ( 'NONE', *, *, #316, .T. ) ;
#81 = PERSON_AND_ORGANIZATION ( #229, #319 ) ;
#82 = CONICAL_SURFACE ( 'NONE', #355, 0.7199999999999999734, 1.047197551196599630 ) ;
#83 = FACE_OUTER_BOUND ( 'NONE', #287, .T. ) ;
#84 = DIRECTION ( 'NONE',  ( 3.491481338843133355E-15, -0.000000000000000000, 1.000000000000000000 ) ) ;
#85 = CARTESIAN_POINT ( 'NONE',  ( 2.463434055739325110E-15, 0.000000000000000000, 0.7055555555555564906 ) ) ;
#86 = FACE_OUTER_BOUND ( 'NONE', #40, .T. ) ;
#87 = CIRCLE ( 'NONE', #182, 1.499999999999996669 ) ;
#88 = FACE_OUTER_BOUND ( 'NONE', #103, .T. ) ;
#89 = CARTESIAN_POINT ( 'NONE',  ( 1.898897084632405692E-15, 0.000000000000000000, 0.5438657407407441191 ) ) ;
#90 = EDGE_CURVE ( 'NONE', #133, #133, #167, .T. ) ;
#91 = DIRECTION ( 'NONE',  ( 3.491481338843133355E-15, -0.000000000000000000, 1.000000000000000000 ) ) ;
#92 = ORIENTED_EDGE ( 'NONE', *, *, #47, .T. ) ;
#93 = AXIS2_PLACEMENT_3D ( 'NONE', #89, #389, #393 ) ;
#94 = DESIGN_CONTEXT ( 'detailed design', #135, 'design' ) ;
#95 = EDGE_LOOP ( 'NONE', ( #251 ) ) ;
#96 = ORIENTED_EDGE ( 'NONE', *, *, #285, .F. ) ;
#97 = DIRECTION ( 'NONE',  ( 1.000000000000000000, 0.000000000000000000, -3.464752325703078711E-15 ) ) ;
#98 = CC_DESIGN_DATE_AND_TIME_ASSIGNMENT ( #326, #72, ( #234 ) ) ;
#99 = COORDINATED_UNIVERSAL_TIME_OFFSET ( 1, 0, .AHEAD. ) ;
#100 = ORIENTED_EDGE ( 'NONE', *, *, #179, .F. ) ;
#101 =( NAMED_UNIT ( * ) PLANE_ANGLE_UNIT ( ) SI_UNIT ( $, .RADIAN. ) );
#102 = CIRCLE ( 'NONE', #329, 0.4399450256743362431 ) ;
#103 = EDGE_LOOP ( 'NONE', ( #311 ) ) ;
#104 = CARTESIAN_POINT ( 'NONE',  ( 0.000000000000000000, 0.000000000000000000, 0.000000000000000000 ) ) ;
#105 = EDGE_CURVE ( 'NONE', #157, #157, #338, .T. ) ;
#106 = DIRECTION ( 'NONE',  ( 3.491481338843133355E-15, -0.000000000000000000, 1.000000000000000000 ) ) ;
#107 = EDGE_LOOP ( 'NONE', ( #375 ) ) ;
#108 = PERSON_AND_ORGANIZATION ( #229, #319 ) ;
#109 = ORIENTED_EDGE ( 'NONE', *, *, #316, .F. ) ;
#110 = DIRECTION ( 'NONE',  ( 1.000000000000000000, 0.000000000000000000, -3.569744820421353704E-15 ) ) ;
#111 = AXIS2_PLACEMENT_3D ( 'NONE', #335, #211, #243 ) ;
#112 = LOCAL_TIME ( 8, 23, 30.00000000000000000, #284 ) ;
#113 = FACE_BOUND ( 'NONE', #50, .T. ) ;
#114 = DIRECTION ( 'NONE',  ( 1.000000000000000000, 0.000000000000000000, -3.659181563082931671E-15 ) ) ;
#115 = DIRECTION ( 'NONE',  ( 3.491481338843133355E-15, -0.000000000000000000, 1.000000000000000000 ) ) ;
#116 = CYLINDRICAL_SURFACE ( 'NONE', #134, 0.5163236550358808463 ) ;
#117 = AXIS2_PLACEMENT_3D ( 'NONE', #204, #230, #321 ) ;
#118 = DIRECTION ( 'NONE',  ( 1.000000000000000000, 0.000000000000000000, 0.000000000000000000 ) ) ;
#119 = FACE_OUTER_BOUND ( 'NONE', #394, .T. ) ;
#120 = AXIS2_PLACEMENT_3D ( 'NONE', #24, #115, #363 ) ;
#121 = LOCAL_TIME ( 8, 23, 30.00000000000000000, #255 ) ;
#122 = VERTEX_POINT ( 'NONE', #252 ) ;
#123 = CARTESIAN_POINT ( 'NONE',  ( 0.000000000000000000, 0.000000000000000000, 0.000000000000000000 ) ) ;
#124 = APPROVAL_ROLE ( '' ) ;
#125 = APPROVAL ( #374, 'UNSPECIFIED' ) ;
#126 = DATE_AND_TIME ( #137, #238 ) ;
#127 = EDGE_LOOP ( 'NONE', ( #354 ) ) ;
#128 = PERSON_AND_ORGANIZATION ( #229, #319 ) ;
#129 = DIRECTION ( 'NONE',  ( 1.000000000000000000, 0.000000000000000000, -3.491481338843133355E-15 ) ) ;
#130 = CC_DESIGN_PERSON_AND_ORGANIZATION_ASSIGNMENT ( #164, #290, ( #234 ) ) ;
#131 = FACE_OUTER_BOUND ( 'NONE', #257, .T. ) ;
#132 = CARTESIAN_POINT ( 'NONE',  ( 1.385681656353361253E-15, 0.000000000000000000, 0.3968749999999979239 ) ) ;
#133 = VERTEX_POINT ( 'NONE', #228 ) ;
#134 = AXIS2_PLACEMENT_3D ( 'NONE', #191, #160, #74 ) ;
#135 = APPLICATION_CONTEXT ( 'configuration controlled 3d designs of mechanical parts and assemblies' ) ;
#136 = FACE_OUTER_BOUND ( 'NONE', #226, .T. ) ;
#137 = CALENDAR_DATE ( 2023, 28, 9 ) ;
#138 = ORIENTED_EDGE ( 'NONE', *, *, #307, .T. ) ;
#139 = CARTESIAN_POINT ( 'NONE',  ( 0.4400000000000203193, 0.000000000000000000, 5.999999999999996447 ) ) ;
#140 = ADVANCED_FACE ( 'NONE', ( #327, #233 ), #356, .T. ) ;
#141 = CIRCLE ( 'NONE', #174, 0.4399999999999993916 ) ;
#142 = DIRECTION ( 'NONE',  ( 3.491481338843133355E-15, -0.000000000000000000, 1.000000000000000000 ) ) ;
#143 = FACE_BOUND ( 'NONE', #29, .T. ) ;
#144 = DIRECTION ( 'NONE',  ( 1.000000000000000000, 0.000000000000000000, -3.569744820421353704E-15 ) ) ;
#145 = EDGE_LOOP ( 'NONE', ( #27 ) ) ;
#146 = EDGE_CURVE ( 'NONE', #205, #205, #56, .T. ) ;
#147 = VERTEX_POINT ( 'NONE', #270 ) ;
#148 = DIRECTION ( 'NONE',  ( -3.491481338843133355E-15, 0.000000000000000000, -1.000000000000000000 ) ) ;
#149 = AXIS2_PLACEMENT_3D ( 'NONE', #175, #57, #365 ) ;
#150 = APPLICATION_CONTEXT ( 'configuration controlled 3d designs of mechanical parts and assemblies' ) ;
#151 = DIRECTION ( 'NONE',  ( 3.491481338843133355E-15, -0.000000000000000000, 1.000000000000000000 ) ) ;
#152 = CARTESIAN_POINT ( 'NONE',  ( 0.7200000000000006395, 0.000000000000000000, 0.1910879629629632925 ) ) ;
#153 = UNCERTAINTY_MEASURE_WITH_UNIT (LENGTH_MEASURE( 1.000000000000000082E-05 ), #159, 'distance_accuracy_value', 'NONE');
#154 = ORIENTED_EDGE ( 'NONE', *, *, #388, .F. ) ;
#155 = ADVANCED_FACE ( 'NONE', ( #227 ), #199, .F. ) ;
#156 = APPROVAL_STATUS ( 'not_yet_approved' ) ;
#157 = VERTEX_POINT ( 'NONE', #281 ) ;
#158 = VERTEX_POINT ( 'NONE', #152 ) ;
#159 =( LENGTH_UNIT ( ) NAMED_UNIT ( * ) SI_UNIT ( .MILLI., .METRE. ) );
#160 = DIRECTION ( 'NONE',  ( 3.491481338843133355E-15, -0.000000000000000000, 1.000000000000000000 ) ) ;
#161 = DATE_TIME_ROLE ( 'classification_date' ) ;
#162 = PRODUCT ( '966653', '966653', '', ( #323 ) ) ;
#163 = EDGE_LOOP ( 'NONE', ( #279 ) ) ;
#164 = PERSON_AND_ORGANIZATION ( #229, #319 ) ;
#165 = DIRECTION ( 'NONE',  ( 1.000000000000000000, 0.000000000000000000, -3.659181563082931671E-15 ) ) ;
#166 = DIRECTION ( 'NONE',  ( 3.491481338843133355E-15, -0.000000000000000000, 1.000000000000000000 ) ) ;
#167 = CIRCLE ( 'NONE', #373, 0.5163236550358808463 ) ;
#168 = LOCAL_TIME ( 8, 23, 30.00000000000000000, #380 ) ;
#169 = CARTESIAN_POINT ( 'NONE',  ( 1.898897084632405692E-15, 0.000000000000000000, 0.5438657407407441191 ) ) ;
#170 = EDGE_LOOP ( 'NONE', ( #378 ) ) ;
#171 = ADVANCED_FACE ( 'NONE', ( #296, #136 ), #195, .T. ) ;
#172 = DIRECTION ( 'NONE',  ( -1.000000000000000000, 0.000000000000000000, 3.501069515317774866E-15 ) ) ;
#173 = CARTESIAN_POINT ( 'NONE',  ( 0.5163236550358822896, 0.000000000000000000, 0.3968749999999961475 ) ) ;
#174 = AXIS2_PLACEMENT_3D ( 'NONE', #337, #91, #340 ) ;
#175 = CARTESIAN_POINT ( 'NONE',  ( 1.326762908760390423E-13, 0.000000000000000000, 38.00000000000000000 ) ) ;
#176 = CC_DESIGN_APPROVAL ( #324, ( #234 ) ) ;
#177 = FACE_OUTER_BOUND ( 'NONE', #276, .T. ) ;
#178 = FACE_OUTER_BOUND ( 'NONE', #367, .T. ) ;
#179 = EDGE_CURVE ( 'NONE', #207, #207, #183, .T. ) ;
#180 = FACE_BOUND ( 'NONE', #346, .T. ) ;
#181 = FACE_BOUND ( 'NONE', #198, .T. ) ;
#182 = AXIS2_PLACEMENT_3D ( 'NONE', #240, #151, #55 ) ;
#183 = CIRCLE ( 'NONE', #117, 0.4400000000000000022 ) ;
#184 = CARTESIAN_POINT ( 'NONE',  ( 1.326762908760390423E-13, 0.000000000000000000, 38.00000000000000000 ) ) ;
#185 = EDGE_LOOP ( 'NONE', ( #341 ) ) ;
#186 = ADVANCED_FACE ( 'NONE', ( #298, #83 ), #82, .T. ) ;
#187 = ORIENTED_EDGE ( 'NONE', *, *, #105, .F. ) ;
#188 = ORIENTED_EDGE ( 'NONE', *, *, #247, .T. ) ;
#189 = AXIS2_PLACEMENT_3D ( 'NONE', #310, #272, #118 ) ;
#190 = CALENDAR_DATE ( 2023, 28, 9 ) ;
#191 = CARTESIAN_POINT ( 'NONE',  ( 1.326762908760390423E-13, 0.000000000000000000, 38.00000000000000000 ) ) ;
#192 = CONICAL_SURFACE ( 'NONE', #46, 0.5163236550358808463, 1.047197551196599630 ) ;
#193 = APPROVAL_ROLE ( '' ) ;
#194 = DIRECTION ( 'NONE',  ( 1.000000000000000000, 0.000000000000000000, 0.000000000000000000 ) ) ;
#195 = CYLINDRICAL_SURFACE ( 'NONE', #248, 1.499999999999998224 ) ;
#196 = APPROVAL_ROLE ( '' ) ;
#197 = CYLINDRICAL_SURFACE ( 'NONE', #308, 0.7199999999999999734 ) ;
#198 = EDGE_LOOP ( 'NONE', ( #96 ) ) ;
#199 = PLANE ( 'NONE',  #391 ) ;
#200 = PERSON_AND_ORGANIZATION_ROLE ( 'design_supplier' ) ;
#201 = AXIS2_PLACEMENT_3D ( 'NONE', #19, #267, #114 ) ;
#202 = CC_DESIGN_APPROVAL ( #25, ( #294 ) ) ;
#203 = ADVANCED_FACE ( 'NONE', ( #79, #359 ), #197, .T. ) ;
#204 = CARTESIAN_POINT ( 'NONE',  ( 2.463434055739325110E-15, 0.000000000000000000, 0.7055555555555564906 ) ) ;
#205 = VERTEX_POINT ( 'NONE', #173 ) ;
#206 = DIRECTION ( 'NONE',  ( 1.000000000000000000, 0.000000000000000000, -3.501069515317774866E-15 ) ) ;
#207 = VERTEX_POINT ( 'NONE', #241 ) ;
#208 = EDGE_CURVE ( 'NONE', #147, #147, #299, .T. ) ;
#209 = DIRECTION ( 'NONE',  ( -1.000000000000000000, 0.000000000000000000, 3.491481338843133355E-15 ) ) ;
#210 = FACE_OUTER_BOUND ( 'NONE', #259, .T. ) ;
#211 = DIRECTION ( 'NONE',  ( 3.491481338843133355E-15, -0.000000000000000000, 1.000000000000000000 ) ) ;
#212 = DIRECTION ( 'NONE',  ( 3.491481338843133355E-15, -0.000000000000000000, 1.000000000000000000 ) ) ;
#213 = AXIS2_PLACEMENT_3D ( 'NONE', #245, #84, #274 ) ;
#214 = ADVANCED_FACE ( 'NONE', ( #360, #302 ), #61, .F. ) ;
#215 = CONICAL_SURFACE ( 'NONE', #318, 1.499999999999996669, 0.7853981633974497223 ) ;
#216 = CARTESIAN_POINT ( 'NONE',  ( 2.185254989917141649E-14, 0.000000000000000000, 6.258819045102510970 ) ) ;
#217 = PERSON_AND_ORGANIZATION_ROLE ( 'classification_officer' ) ;
#218 = PRODUCT_DEFINITION_SHAPE ( 'NONE', 'NONE',  #234 ) ;
#219 = VERTEX_POINT ( 'NONE', #67 ) ;
#220 = APPLICATION_PROTOCOL_DEFINITION ( 'international standard', 'config_control_design', 1994, #150 ) ;
#221 = DIRECTION ( 'NONE',  ( -1.000000000000000000, 0.000000000000000000, 3.491481338843133355E-15 ) ) ;
#222 = DIRECTION ( 'NONE',  ( 1.000000000000000000, 0.000000000000000000, -3.469446951953614189E-15 ) ) ;
#223 = AXIS2_PLACEMENT_3D ( 'NONE', #38, #76, #209 ) ;
#224 =( NAMED_UNIT ( * ) SI_UNIT ( $, .STERADIAN. ) SOLID_ANGLE_UNIT ( ) );
#225 = APPROVAL_PERSON_ORGANIZATION ( #347, #324, #196 ) ;
#226 = EDGE_LOOP ( 'NONE', ( #92 ) ) ;
#227 = FACE_OUTER_BOUND ( 'NONE', #249, .T. ) ;
#228 = CARTESIAN_POINT ( 'NONE',  ( 0.5163236550358819565, 0.000000000000000000, 0.3086805555555567904 ) ) ;
#229 = PERSON ( 'UNSPECIFIED', 'UNSPECIFIED', 'UNSPECIFIED', ('UNSPECIFIED'), ('UNSPECIFIED'), ('UNSPECIFIED') ) ;
#230 = DIRECTION ( 'NONE',  ( 3.491481338843133355E-15, -0.000000000000000000, 1.000000000000000000 ) ) ;
#231 = EDGE_LOOP ( 'NONE', ( #312 ) ) ;
#232 = PERSON_AND_ORGANIZATION_ROLE ( 'creator' ) ;
#233 = FACE_BOUND ( 'NONE', #170, .T. ) ;
#234 = PRODUCT_DEFINITION ( 'UNKNOWN', '', #339, #94 ) ;
#235 = ORIENTED_EDGE ( 'NONE', *, *, #361, .T. ) ;
#236 = CLOSED_SHELL ( 'NONE', ( #155, #140, #203, #186, #3, #262, #369, #344, #60, #372, #250, #214, #301, #171, #256, #17 ) ) ;
#237 = CONICAL_SURFACE ( 'NONE', #93, 0.7199999999999998623, 1.047197551196599186 ) ;
#238 = LOCAL_TIME ( 8, 23, 30.00000000000000000, #39 ) ;
#239 = FACE_OUTER_BOUND ( 'NONE', #16, .T. ) ;
#240 = CARTESIAN_POINT ( 'NONE',  ( 1.316288464743861212E-13, 0.000000000000000000, 37.69999999999999574 ) ) ;
#241 = CARTESIAN_POINT ( 'NONE',  ( 0.4400000000000024447, 0.000000000000000000, 0.7055555555555549363 ) ) ;
#242 = CIRCLE ( 'NONE', #213, 0.7199999999999999734 ) ;
#243 = DIRECTION ( 'NONE',  ( 1.000000000000000000, 0.000000000000000000, -3.491481338843133355E-15 ) ) ;
#244 = APPROVAL_PERSON_ORGANIZATION ( #317, #25, #124 ) ;
#245 = CARTESIAN_POINT ( 'NONE',  ( 1.796253998976582368E-15, 0.000000000000000000, 0.5144675925925906723 ) ) ;
#246 = FACE_OUTER_BOUND ( 'NONE', #2, .T. ) ;
#247 = EDGE_CURVE ( 'NONE', #219, #219, #87, .T. ) ;
#248 = AXIS2_PLACEMENT_3D ( 'NONE', #381, #106, #43 ) ;
#249 = EDGE_LOOP ( 'NONE', ( #9 ) ) ;
#250 = ADVANCED_FACE ( 'NONE', ( #246, #210 ), #306, .T. ) ;
#251 = ORIENTED_EDGE ( 'NONE', *, *, #307, .F. ) ;
#252 = CARTESIAN_POINT ( 'NONE',  ( 1.200000000000126743, 0.000000000000000000, 37.99999999999999289 ) ) ;
#253 = DIRECTION ( 'NONE',  ( 3.491481338843133355E-15, -0.000000000000000000, 1.000000000000000000 ) ) ;
#254 = AXIS2_PLACEMENT_3D ( 'NONE', #132, #260, #379 ) ;
#255 = COORDINATED_UNIVERSAL_TIME_OFFSET ( 1, 0, .AHEAD. ) ;
#256 = ADVANCED_FACE ( 'NONE', ( #181, #59 ), #215, .T. ) ;
#257 = EDGE_LOOP ( 'NONE', ( #289 ) ) ;
#258 = DATE_AND_TIME ( #36, #121 ) ;
#259 = EDGE_LOOP ( 'NONE', ( #11 ) ) ;
#260 = DIRECTION ( 'NONE',  ( 3.491481338843133355E-15, -0.000000000000000000, 1.000000000000000000 ) ) ;
#261 = AXIS2_PLACEMENT_3D ( 'NONE', #343, #42, #221 ) ;
#262 = ADVANCED_FACE ( 'NONE', ( #119, #143 ), #192, .T. ) ;
#263 = DIRECTION ( 'NONE',  ( 3.491481338843133355E-15, -0.000000000000000000, 1.000000000000000000 ) ) ;
#264 = ORIENTED_EDGE ( 'NONE', *, *, #388, .T. ) ;
#265 = AXIS2_PLACEMENT_3D ( 'NONE', #325, #58, #222 ) ;
#266 = CARTESIAN_POINT ( 'NONE',  ( 6.671800567627430381E-16, 0.000000000000000000, 0.1910879629629658183 ) ) ;
#267 = DIRECTION ( 'NONE',  ( 3.491481338843133355E-15, -0.000000000000000000, 1.000000000000000000 ) ) ;
#268 = FACE_OUTER_BOUND ( 'NONE', #127, .T. ) ;
#269 = ORIENTED_EDGE ( 'NONE', *, *, #146, .T. ) ;
#270 = CARTESIAN_POINT ( 'NONE',  ( 0.7200000000000017497, 0.000000000000000000, 0.5438657407407415656 ) ) ;
#271 = CIRCLE ( 'NONE', #149, 1.199999999999993960 ) ;
#272 = DIRECTION ( 'NONE',  ( 3.491481338843133355E-15, -0.000000000000000000, 1.000000000000000000 ) ) ;
#273 = EDGE_CURVE ( 'NONE', #370, #370, #386, .T. ) ;
#274 = DIRECTION ( 'NONE',  ( 1.000000000000000000, 0.000000000000000000, -3.463423606550917030E-15 ) ) ;
#275 = AXIS2_PLACEMENT_3D ( 'NONE', #44, #166, #194 ) ;
#276 = EDGE_LOOP ( 'NONE', ( #322 ) ) ;
#277 = CIRCLE ( 'NONE', #5, 0.7199999999999999734 ) ;
#278 = EDGE_CURVE ( 'NONE', #33, #33, #242, .T. ) ;
#279 = ORIENTED_EDGE ( 'NONE', *, *, #90, .T. ) ;
#280 = CALENDAR_DATE ( 2023, 28, 9 ) ;
#281 = CARTESIAN_POINT ( 'NONE',  ( 0.5163236550358831778, 0.000000000000000000, 0.6614583333333349247 ) ) ;
#282 = CIRCLE ( 'NONE', #265, 1.500000000000000000 ) ;
#283 = CIRCLE ( 'NONE', #23, 0.5163236550358808463 ) ;
#284 = COORDINATED_UNIVERSAL_TIME_OFFSET ( 1, 0, .AHEAD. ) ;
#285 = EDGE_CURVE ( 'NONE', #122, #122, #271, .T. ) ;
#286 = PLANE ( 'NONE',  #261 ) ;
#287 = EDGE_LOOP ( 'NONE', ( #138 ) ) ;
#288 = DIRECTION ( 'NONE',  ( 0.000000000000000000, 0.000000000000000000, 1.000000000000000000 ) ) ;
#289 = ORIENTED_EDGE ( 'NONE', *, *, #285, .T. ) ;
#290 = PERSON_AND_ORGANIZATION_ROLE ( 'creator' ) ;
#291 = PRODUCT_RELATED_PRODUCT_CATEGORY ( 'detail', '', ( #162 ) ) ;
#292 = EDGE_LOOP ( 'NONE', ( #264 ) ) ;
#293 = DIRECTION ( 'NONE',  ( 1.000000000000000000, 0.000000000000000000, 0.000000000000000000 ) ) ;
#294 = SECURITY_CLASSIFICATION ( '', '', #34 ) ;
#295 = ORIENTED_EDGE ( 'NONE', *, *, #278, .T. ) ;
#296 = FACE_OUTER_BOUND ( 'NONE', #145, .T. ) ;
#297 = CARTESIAN_POINT ( 'NONE',  ( 0.000000000000000000, 0.000000000000000000, 0.000000000000000000 ) ) ;
#298 = FACE_BOUND ( 'NONE', #313, .T. ) ;
#299 = CIRCLE ( 'NONE', #342, 0.7199999999999998623 ) ;
#300 = APPROVAL_PERSON_ORGANIZATION ( #14, #125, #193 ) ;
#301 = ADVANCED_FACE ( 'NONE', ( #177, #366 ), #28, .T. ) ;
#302 = FACE_OUTER_BOUND ( 'NONE', #65, .T. ) ;
#303 = SHAPE_DEFINITION_REPRESENTATION ( #218, #350 ) ;
#304 = DIRECTION ( 'NONE',  ( 1.000000000000000000, 0.000000000000000000, -3.463423606550917424E-15 ) ) ;
#305 = FACE_OUTER_BOUND ( 'NONE', #231, .T. ) ;
#306 = CYLINDRICAL_SURFACE ( 'NONE', #189, 0.4399999999999997247 ) ;
#307 = EDGE_CURVE ( 'NONE', #158, #158, #277, .T. ) ;
#308 = AXIS2_PLACEMENT_3D ( 'NONE', #328, #142, #48 ) ;
#309 = CARTESIAN_POINT ( 'NONE',  ( 1.385681656353361253E-15, 0.000000000000000000, 0.3968749999999979239 ) ) ;
#310 = CARTESIAN_POINT ( 'NONE',  ( 1.326762908760390423E-13, 0.000000000000000000, 38.00000000000000000 ) ) ;
#311 = ORIENTED_EDGE ( 'NONE', *, *, #208, .F. ) ;
#312 = ORIENTED_EDGE ( 'NONE', *, *, #105, .T. ) ;
#313 = EDGE_LOOP ( 'NONE', ( #352 ) ) ;
#314 = CARTESIAN_POINT ( 'NONE',  ( 0.7200000000000005285, 0.000000000000000000, 0.1616898148148099013 ) ) ;
#315 = VERTEX_POINT ( 'NONE', #13 ) ;
#316 = EDGE_CURVE ( 'NONE', #71, #71, #283, .T. ) ;
#317 = PERSON_AND_ORGANIZATION ( #229, #319 ) ;
#318 = AXIS2_PLACEMENT_3D ( 'NONE', #336, #148, #332 ) ;
#319 = ORGANIZATION ( 'UNSPECIFIED', 'UNSPECIFIED', '' ) ;
#320 = EDGE_LOOP ( 'NONE', ( #188 ) ) ;
#321 = DIRECTION ( 'NONE',  ( 1.000000000000000000, 0.000000000000000000, -3.449734185181150651E-15 ) ) ;
#322 = ORIENTED_EDGE ( 'NONE', *, *, #47, .F. ) ;
#323 = MECHANICAL_CONTEXT ( 'NONE', #150, 'mechanical' ) ;
#324 = APPROVAL ( #156, 'UNSPECIFIED' ) ;
#325 = CARTESIAN_POINT ( 'NONE',  ( 3.522075916685330423E-14, 0.000000000000000000, 10.08762635361051174 ) ) ;
#326 = DATE_AND_TIME ( #190, #168 ) ;
#327 = FACE_OUTER_BOUND ( 'NONE', #107, .T. ) ;
#328 = CARTESIAN_POINT ( 'NONE',  ( 1.326762908760390423E-13, 0.000000000000000000, 38.00000000000000000 ) ) ;
#329 = AXIS2_PLACEMENT_3D ( 'NONE', #123, #253, #129 ) ;
#330 = DIRECTION ( 'NONE',  ( 3.491481338843133355E-15, -0.000000000000000000, 1.000000000000000000 ) ) ;
#331 = CC_DESIGN_DATE_AND_TIME_ASSIGNMENT ( #4, #161, ( #294 ) ) ;
#332 = DIRECTION ( 'NONE',  ( -1.000000000000000000, 0.000000000000000000, 4.625929269271495577E-15 ) ) ;
#333 = CARTESIAN_POINT ( 'NONE',  ( 0.4740741737109510634, 0.000000000000000000, 6.258819045102509193 ) ) ;
#334 =( GEOMETRIC_REPRESENTATION_CONTEXT ( 3 ) GLOBAL_UNCERTAINTY_ASSIGNED_CONTEXT ( ( #153 ) ) GLOBAL_UNIT_ASSIGNED_CONTEXT ( ( #159, #101, #224 ) ) REPRESENTATION_CONTEXT ( 'NONE', 'WORKASPACE' ) );
#335 = CARTESIAN_POINT ( 'NONE',  ( 2.094888803305880013E-14, 0.000000000000000000, 6.000000000000000000 ) ) ;
#336 = CARTESIAN_POINT ( 'NONE',  ( 1.316288464743861212E-13, 0.000000000000000000, 37.69999999999999574 ) ) ;
#337 = CARTESIAN_POINT ( 'NONE',  ( 2.094888803305879382E-14, 0.000000000000000000, 5.999999999999998224 ) ) ;
#338 = CIRCLE ( 'NONE', #73, 0.5163236550358808463 ) ;
#339 = PRODUCT_DEFINITION_FORMATION_WITH_SPECIFIED_SOURCE ( 'ANY', '', #162, .NOT_KNOWN. ) ;
#340 = DIRECTION ( 'NONE',  ( 1.000000000000000000, 0.000000000000000000, -3.942553354492748560E-15 ) ) ;
#341 = ORIENTED_EDGE ( 'NONE', *, *, #273, .T. ) ;
#342 = AXIS2_PLACEMENT_3D ( 'NONE', #169, #263, #304 ) ;
#343 = CARTESIAN_POINT ( 'NONE',  ( 2.463434055739323533E-15, 0.5163236550358808463, 0.7055555555555560465 ) ) ;
#344 = ADVANCED_FACE ( 'NONE', ( #180, #268 ), #237, .T. ) ;
#345 = DATE_AND_TIME ( #45, #362 ) ;
#346 = EDGE_LOOP ( 'NONE', ( #187 ) ) ;
#347 = PERSON_AND_ORGANIZATION ( #229, #319 ) ;
#348 = CC_DESIGN_SECURITY_CLASSIFICATION ( #294, ( #339 ) ) ;
#349 = ORIENTED_EDGE ( 'NONE', *, *, #146, .F. ) ;
#350 = ADVANCED_BREP_SHAPE_REPRESENTATION ( '966653', ( #8, #377 ), #334 ) ;
#351 = PLANE ( 'NONE',  #223 ) ;
#352 = ORIENTED_EDGE ( 'NONE', *, *, #90, .F. ) ;
#353 = APPROVAL_DATE_TIME ( #345, #324 ) ;
#354 = ORIENTED_EDGE ( 'NONE', *, *, #208, .T. ) ;
#355 = AXIS2_PLACEMENT_3D ( 'NONE', #15, #53, #172 ) ;
#356 = CONICAL_SURFACE ( 'NONE', #66, 0.4399450256743362431, 1.047197551196606291 ) ;
#357 = DIRECTION ( 'NONE',  ( 3.491481338843133355E-15, -0.000000000000000000, 1.000000000000000000 ) ) ;
#358 = DIRECTION ( 'NONE',  ( 3.491481338843133355E-15, -0.000000000000000000, 1.000000000000000000 ) ) ;
#359 = FACE_OUTER_BOUND ( 'NONE', #185, .T. ) ;
#360 = FACE_OUTER_BOUND ( 'NONE', #382, .T. ) ;
#361 = EDGE_CURVE ( 'NONE', #364, #364, #141, .T. ) ;
#362 = LOCAL_TIME ( 8, 23, 30.00000000000000000, #99 ) ;
#363 = DIRECTION ( 'NONE',  ( 1.000000000000000000, 0.000000000000000000, -3.501069515317774866E-15 ) ) ;
#364 = VERTEX_POINT ( 'NONE', #139 ) ;
#365 = DIRECTION ( 'NONE',  ( 1.000000000000000000, 0.000000000000000000, -5.782411586589386432E-15 ) ) ;
#366 = FACE_BOUND ( 'NONE', #292, .T. ) ;
#367 = EDGE_LOOP ( 'NONE', ( #109 ) ) ;
#368 = AXIS2_PLACEMENT_3D ( 'NONE', #184, #26, #387 ) ;
#369 = ADVANCED_FACE ( 'NONE', ( #88, #22 ), #62, .T. ) ;
#370 = VERTEX_POINT ( 'NONE', #314 ) ;
#371 = DIRECTION ( 'NONE',  ( 3.491481338843133355E-15, -0.000000000000000000, 1.000000000000000000 ) ) ;
#372 = ADVANCED_FACE ( 'NONE', ( #113, #239 ), #286, .F. ) ;
#373 = AXIS2_PLACEMENT_3D ( 'NONE', #376, #371, #97 ) ;
#374 = APPROVAL_STATUS ( 'not_yet_approved' ) ;
#375 = ORIENTED_EDGE ( 'NONE', *, *, #273, .F. ) ;
#376 = CARTESIAN_POINT ( 'NONE',  ( 1.077752399385963857E-15, 0.000000000000000000, 0.3086805555555585667 ) ) ;
#377 = AXIS2_PLACEMENT_3D ( 'NONE', #104, #288, #293 ) ;
#378 = ORIENTED_EDGE ( 'NONE', *, *, #70, .T. ) ;
#379 = DIRECTION ( 'NONE',  ( 1.000000000000000000, 0.000000000000000000, -3.464752325703078711E-15 ) ) ;
#380 = COORDINATED_UNIVERSAL_TIME_OFFSET ( 1, 0, .AHEAD. ) ;
#381 = CARTESIAN_POINT ( 'NONE',  ( 1.326762908760390423E-13, 0.000000000000000000, 38.00000000000000000 ) ) ;
#382 = EDGE_LOOP ( 'NONE', ( #154 ) ) ;
#383 = APPROVAL_DATE_TIME ( #126, #125 ) ;
#384 = ORIENTED_EDGE ( 'NONE', *, *, #361, .F. ) ;
#385 = VERTEX_POINT ( 'NONE', #333 ) ;
#386 = CIRCLE ( 'NONE', #120, 0.7199999999999999734 ) ;
#387 = DIRECTION ( 'NONE',  ( 1.000000000000000000, 0.000000000000000000, 0.000000000000000000 ) ) ;
#388 = EDGE_CURVE ( 'NONE', #385, #385, #37, .T. ) ;
#389 = DIRECTION ( 'NONE',  ( -3.491481338843133355E-15, 0.000000000000000000, -1.000000000000000000 ) ) ;
#390 = CYLINDRICAL_SURFACE ( 'NONE', #275, 0.5163236550358808463 ) ;
#391 = AXIS2_PLACEMENT_3D ( 'NONE', #51, #357, #52 ) ;
#392 = DIRECTION ( 'NONE',  ( 1.000000000000000000, 0.000000000000000000, -3.464752325703078711E-15 ) ) ;
#393 = DIRECTION ( 'NONE',  ( -1.000000000000000000, 0.000000000000000000, 3.463423606550917424E-15 ) ) ;
#394 = EDGE_LOOP ( 'NONE', ( #69 ) ) ;
#395 = CC_DESIGN_PERSON_AND_ORGANIZATION_ASSIGNMENT ( #108, #232, ( #339 ) ) ;
ENDSEC;
END-ISO-10303-21;
