ISO-10303-21;
HEADER;
FILE_DESCRIPTION (( 'STEP AP203' ),
    '1' );
FILE_NAME ('966652.step',
    '2023-09-28T06:23:30',
    ( '' ),
    ( '' ),
    'SwSTEP 2.0',
    'SolidWorks 2022',
    '' );
FILE_SCHEMA (( 'CONFIG_CONTROL_DESIGN' ));
ENDSEC;

DATA;
#1 = CIRCLE ( 'NONE', #83, 0.4658641119153661414 ) ;
#2 = CC_DESIGN_APPROVAL ( #147, ( #192 ) ) ;
#3 = FACE_OUTER_BOUND ( 'NONE', #365, .T. ) ;
#4 = MANIFOLD_SOLID_BREP ( 'Corps-Déplacer/Copier1', #71 ) ;
#5 = DIRECTION ( 'NONE',  ( 3.491481338843133355E-15, -0.000000000000000000, 1.000000000000000000 ) ) ;
#6 = ORIENTED_EDGE ( 'NONE', *, *, #69, .T. ) ;
#7 = VERTEX_POINT ( 'NONE', #248 ) ;
#8 = AXIS2_PLACEMENT_3D ( 'NONE', #318, #108, #287 ) ;
#9 = VERTEX_POINT ( 'NONE', #135 ) ;
#10 = LOCAL_TIME ( 8, 23, 30.00000000000000000, #144 ) ;
#11 = DIRECTION ( 'NONE',  ( 3.491481338843133355E-15, -0.000000000000000000, 1.000000000000000000 ) ) ;
#12 = APPLICATION_CONTEXT ( 'configuration controlled 3d designs of mechanical parts and assemblies' ) ;
#13 = DATE_TIME_ROLE ( 'classification_date' ) ;
#14 = ORIENTED_EDGE ( 'NONE', *, *, #202, .F. ) ;
#15 = AXIS2_PLACEMENT_3D ( 'NONE', #117, #237, #361 ) ;
#16 =( NAMED_UNIT ( * ) PLANE_ANGLE_UNIT ( ) SI_UNIT ( $, .RADIAN. ) );
#17 = FACE_OUTER_BOUND ( 'NONE', #333, .T. ) ;
#18 = ADVANCED_FACE ( 'NONE', ( #351, #165 ), #312, .F. ) ;
#19 = VERTEX_POINT ( 'NONE', #172 ) ;
#20 = AXIS2_PLACEMENT_3D ( 'NONE', #156, #244, #336 ) ;
#21 = DIRECTION ( 'NONE',  ( -3.491481338843133355E-15, 0.000000000000000000, -1.000000000000000000 ) ) ;
#22 = DIRECTION ( 'NONE',  ( -3.491481338843133355E-15, 0.000000000000000000, -1.000000000000000000 ) ) ;
#23 = AXIS2_PLACEMENT_3D ( 'NONE', #215, #367, #274 ) ;
#24 = ADVANCED_BREP_SHAPE_REPRESENTATION ( '966652', ( #4, #148 ), #41 ) ;
#25 = CALENDAR_DATE ( 2023, 28, 9 ) ;
#26 = ADVANCED_FACE ( 'NONE', ( #204, #49 ), #52, .T. ) ;
#27 = CARTESIAN_POINT ( 'NONE',  ( 1.558891863397540531E-15, 0.000000000000000000, 0.4464843750000002665 ) ) ;
#28 = ORIENTED_EDGE ( 'NONE', *, *, #267, .F. ) ;
#29 = CARTESIAN_POINT ( 'NONE',  ( 1.326762908760390423E-13, 0.000000000000000000, 38.00000000000000000 ) ) ;
#30 = EDGE_LOOP ( 'NONE', ( #28 ) ) ;
#31 = CIRCLE ( 'NONE', #169, 0.3850000000000000089 ) ;
#32 = DIRECTION ( 'NONE',  ( 1.000000000000000000, 0.000000000000000000, -3.432006876932532217E-15 ) ) ;
#33 = CC_DESIGN_PERSON_AND_ORGANIZATION_ASSIGNMENT ( #37, #133, ( #354 ) ) ;
#34 = APPROVAL_ROLE ( '' ) ;
#35 = CARTESIAN_POINT ( 'NONE',  ( 2.020785748848660883E-15, 0.000000000000000000, 0.5787760416666662966 ) ) ;
#36 = APPROVAL_STATUS ( 'not_yet_approved' ) ;
#37 = PERSON_AND_ORGANIZATION ( #373, #285 ) ;
#38 = VERTEX_POINT ( 'NONE', #162 ) ;
#39 = APPROVAL_STATUS ( 'not_yet_approved' ) ;
#40 = UNCERTAINTY_MEASURE_WITH_UNIT (LENGTH_MEASURE( 1.000000000000000082E-05 ), #47, 'distance_accuracy_value', 'NONE');
#41 =( GEOMETRIC_REPRESENTATION_CONTEXT ( 3 ) GLOBAL_UNCERTAINTY_ASSIGNED_CONTEXT ( ( #40 ) ) GLOBAL_UNIT_ASSIGNED_CONTEXT ( ( #47, #16, #229 ) ) REPRESENTATION_CONTEXT ( 'NONE', 'WORKASPACE' ) );
#42 = FACE_OUTER_BOUND ( 'NONE', #347, .T. ) ;
#43 = CC_DESIGN_PERSON_AND_ORGANIZATION_ASSIGNMENT ( #255, #199, ( #226 ) ) ;
#44 = EDGE_LOOP ( 'NONE', ( #75 ) ) ;
#45 = DIRECTION ( 'NONE',  ( 3.491481338843133355E-15, -0.000000000000000000, 1.000000000000000000 ) ) ;
#46 = CYLINDRICAL_SURFACE ( 'NONE', #48, 0.6949999999999999512 ) ;
#47 =( LENGTH_UNIT ( ) NAMED_UNIT ( * ) SI_UNIT ( .MILLI., .METRE. ) );
#48 = AXIS2_PLACEMENT_3D ( 'NONE', #168, #390, #139 ) ;
#49 = FACE_OUTER_BOUND ( 'NONE', #115, .T. ) ;
#50 = DIRECTION ( 'NONE',  ( 1.000000000000000000, 0.000000000000000000, -3.490939132533370829E-15 ) ) ;
#51 = DIRECTION ( 'NONE',  ( 3.491481338843133355E-15, -0.000000000000000000, 1.000000000000000000 ) ) ;
#52 = CONICAL_SURFACE ( 'NONE', #339, 0.6949999999999999512, 1.047197551196602516 ) ;
#53 = DIRECTION ( 'NONE',  ( 1.000000000000000000, 0.000000000000000000, -4.139418711049924123E-15 ) ) ;
#54 = EDGE_LOOP ( 'NONE', ( #337 ) ) ;
#55 = CIRCLE ( 'NONE', #298, 0.3799381538836287264 ) ;
#56 = ADVANCED_FACE ( 'NONE', ( #17, #264 ), #46, .T. ) ;
#57 = EDGE_LOOP ( 'NONE', ( #59 ) ) ;
#58 = CARTESIAN_POINT ( 'NONE',  ( 0.6950000000000006173, 0.000000000000000000, 0.1819010416666658747 ) ) ;
#59 = ORIENTED_EDGE ( 'NONE', *, *, #118, .F. ) ;
#60 = ADVANCED_FACE ( 'NONE', ( #42, #257 ), #88, .F. ) ;
#61 = FACE_OUTER_BOUND ( 'NONE', #44, .T. ) ;
#62 = ORIENTED_EDGE ( 'NONE', *, *, #151, .F. ) ;
#63 = AXIS2_PLACEMENT_3D ( 'NONE', #326, #121, #53 ) ;
#64 = AXIS2_PLACEMENT_3D ( 'NONE', #370, #161, #375 ) ;
#65 = FACE_BOUND ( 'NONE', #371, .T. ) ;
#66 = DIRECTION ( 'NONE',  ( 3.491481338843133355E-15, -0.000000000000000000, 1.000000000000000000 ) ) ;
#67 = DIRECTION ( 'NONE',  ( 3.491481338843133355E-15, -0.000000000000000000, 1.000000000000000000 ) ) ;
#68 = EDGE_LOOP ( 'NONE', ( #380 ) ) ;
#69 = EDGE_CURVE ( 'NONE', #7, #7, #157, .T. ) ;
#70 = PERSON_AND_ORGANIZATION_ROLE ( 'design_supplier' ) ;
#71 = CLOSED_SHELL ( 'NONE', ( #280, #374, #359, #26, #171, #177, #56, #138, #98, #18, #188, #60, #290, #243, #315, #182 ) ) ;
#72 = AXIS2_PLACEMENT_3D ( 'NONE', #304, #377, #76 ) ;
#73 = ORIENTED_EDGE ( 'NONE', *, *, #151, .T. ) ;
#74 = PERSON_AND_ORGANIZATION ( #373, #285 ) ;
#75 = ORIENTED_EDGE ( 'NONE', *, *, #87, .F. ) ;
#76 = DIRECTION ( 'NONE',  ( 1.000000000000000000, 0.000000000000000000, -4.139418711049924123E-15 ) ) ;
#77 = CC_DESIGN_PERSON_AND_ORGANIZATION_ASSIGNMENT ( #74, #360, ( #187 ) ) ;
#78 = ORIENTED_EDGE ( 'NONE', *, *, #134, .F. ) ;
#79 = VERTEX_POINT ( 'NONE', #143 ) ;
#80 = CYLINDRICAL_SURFACE ( 'NONE', #131, 0.4658641119153660304 ) ;
#81 = DIRECTION ( 'NONE',  ( 1.000000000000000000, 0.000000000000000000, 0.000000000000000000 ) ) ;
#82 = DIRECTION ( 'NONE',  ( -1.000000000000000000, 0.000000000000000000, 3.491481338843133355E-15 ) ) ;
#83 = AXIS2_PLACEMENT_3D ( 'NONE', #268, #174, #291 ) ;
#84 = DIRECTION ( 'NONE',  ( 1.000000000000000000, 0.000000000000000000, 0.000000000000000000 ) ) ;
#85 = CARTESIAN_POINT ( 'NONE',  ( 6.351040924952996299E-16, 0.000000000000000000, 0.1819010416666683172 ) ) ;
#86 = FACE_OUTER_BOUND ( 'NONE', #303, .T. ) ;
#87 = EDGE_CURVE ( 'NONE', #341, #341, #203, .T. ) ;
#88 = TOROIDAL_SURFACE ( 'NONE', #310, 1.384999999999999343, 0.9999999999999995559 ) ;
#89 = DIRECTION ( 'NONE',  ( 3.491481338843133355E-15, -0.000000000000000000, 1.000000000000000000 ) ) ;
#90 = EDGE_LOOP ( 'NONE', ( #92 ) ) ;
#91 = DIRECTION ( 'NONE',  ( 1.000000000000000000, 0.000000000000000000, -4.625929269271490844E-15 ) ) ;
#92 = ORIENTED_EDGE ( 'NONE', *, *, #282, .F. ) ;
#93 = FACE_OUTER_BOUND ( 'NONE', #275, .T. ) ;
#94 = EDGE_LOOP ( 'NONE', ( #125 ) ) ;
#95 = APPROVAL_DATE_TIME ( #189, #105 ) ;
#96 = DIRECTION ( 'NONE',  ( 3.491481338843133355E-15, -0.000000000000000000, 1.000000000000000000 ) ) ;
#97 = DIRECTION ( 'NONE',  ( -3.491481338843133355E-15, 0.000000000000000000, -1.000000000000000000 ) ) ;
#98 = ADVANCED_FACE ( 'NONE', ( #247, #372 ), #228, .T. ) ;
#99 = APPROVAL_ROLE ( '' ) ;
#100 = APPLICATION_PROTOCOL_DEFINITION ( 'international standard', 'config_control_design', 1994, #301 ) ;
#101 = CARTESIAN_POINT ( 'NONE',  ( 2.771363312706737101E-15, 0.4658641119153659194, 0.7937499999999999556 ) ) ;
#102 = CONICAL_SURFACE ( 'NONE', #376, 0.4658641119153661414, 1.047197551196602072 ) ;
#103 = DIRECTION ( 'NONE',  ( -1.000000000000000000, 0.000000000000000000, 3.510007033226453485E-15 ) ) ;
#104 = DIRECTION ( 'NONE',  ( 1.000000000000000000, 0.000000000000000000, -3.490939132533369251E-15 ) ) ;
#105 = APPROVAL ( #39, 'UNSPECIFIED' ) ;
#106 = ORIENTED_EDGE ( 'NONE', *, *, #239, .T. ) ;
#107 = ORIENTED_EDGE ( 'NONE', *, *, #296, .F. ) ;
#108 = DIRECTION ( 'NONE',  ( 3.491481338843133355E-15, -0.000000000000000000, 1.000000000000000000 ) ) ;
#109 = VERTEX_POINT ( 'NONE', #319 ) ;
#110 = AXIS2_PLACEMENT_3D ( 'NONE', #212, #67, #183 ) ;
#111 = VERTEX_POINT ( 'NONE', #260 ) ;
#112 = CC_DESIGN_PERSON_AND_ORGANIZATION_ASSIGNMENT ( #163, #70, ( #192 ) ) ;
#113 = VERTEX_POINT ( 'NONE', #200 ) ;
#114 = DIRECTION ( 'NONE',  ( 1.000000000000000000, 0.000000000000000000, -3.491481338843133355E-15 ) ) ;
#115 = EDGE_LOOP ( 'NONE', ( #381 ) ) ;
#116 = APPROVAL_PERSON_ORGANIZATION ( #219, #105, #99 ) ;
#117 = CARTESIAN_POINT ( 'NONE',  ( 2.136259220211447332E-15, 0.000000000000000000, 0.6118489583333344140 ) ) ;
#118 = EDGE_CURVE ( 'NONE', #38, #38, #265, .T. ) ;
#119 = DATE_AND_TIME ( #25, #391 ) ;
#120 = FACE_OUTER_BOUND ( 'NONE', #231, .T. ) ;
#121 = DIRECTION ( 'NONE',  ( 3.491481338843133355E-15, -0.000000000000000000, 1.000000000000000000 ) ) ;
#122 = FACE_OUTER_BOUND ( 'NONE', #300, .T. ) ;
#123 = CC_DESIGN_SECURITY_CLASSIFICATION ( #187, ( #192 ) ) ;
#124 = DIRECTION ( 'NONE',  ( 3.491481338843133355E-15, -0.000000000000000000, 1.000000000000000000 ) ) ;
#125 = ORIENTED_EDGE ( 'NONE', *, *, #267, .T. ) ;
#126 = CARTESIAN_POINT ( 'NONE',  ( 2.136259220211447332E-15, 0.000000000000000000, 0.6118489583333344140 ) ) ;
#127 = EDGE_LOOP ( 'NONE', ( #191 ) ) ;
#128 = CALENDAR_DATE ( 2023, 28, 9 ) ;
#129 = DIRECTION ( 'NONE',  ( 1.000000000000000000, 0.000000000000000000, -3.469446951953614189E-15 ) ) ;
#130 = DIRECTION ( 'NONE',  ( 3.491481338843133355E-15, -0.000000000000000000, 1.000000000000000000 ) ) ;
#131 = AXIS2_PLACEMENT_3D ( 'NONE', #262, #149, #84 ) ;
#132 = AXIS2_PLACEMENT_3D ( 'NONE', #167, #11, #379 ) ;
#133 = PERSON_AND_ORGANIZATION_ROLE ( 'creator' ) ;
#134 = EDGE_CURVE ( 'NONE', #211, #211, #186, .T. ) ;
#135 = CARTESIAN_POINT ( 'NONE',  ( 0.4658641119153677512, 0.000000000000000000, 0.4464843749999986566 ) ) ;
#136 = CARTESIAN_POINT ( 'NONE',  ( 2.094888803305880013E-14, 0.000000000000000000, 6.000000000000000000 ) ) ;
#137 = CARTESIAN_POINT ( 'NONE',  ( 3.593743038311657627E-14, 0.000000000000000000, 10.29288914802680210 ) ) ;
#138 = ADVANCED_FACE ( 'NONE', ( #178, #295 ), #173, .T. ) ;
#139 = DIRECTION ( 'NONE',  ( 1.000000000000000000, 0.000000000000000000, 0.000000000000000000 ) ) ;
#140 = CONICAL_SURFACE ( 'NONE', #209, 0.3799381538836287264, 1.047197551196595633 ) ;
#141 = EDGE_LOOP ( 'NONE', ( #245 ) ) ;
#142 = MECHANICAL_CONTEXT ( 'NONE', #12, 'mechanical' ) ;
#143 = CARTESIAN_POINT ( 'NONE',  ( 0.4658641119153687504, 0.000000000000000000, 0.7441406249999987788 ) ) ;
#144 = COORDINATED_UNIVERSAL_TIME_OFFSET ( 1, 0, .AHEAD. ) ;
#145 = COORDINATED_UNIVERSAL_TIME_OFFSET ( 1, 0, .AHEAD. ) ;
#146 = AXIS2_PLACEMENT_3D ( 'NONE', #258, #224, #328 ) ;
#147 = APPROVAL ( #36, 'UNSPECIFIED' ) ;
#148 = AXIS2_PLACEMENT_3D ( 'NONE', #382, #313, #222 ) ;
#149 = DIRECTION ( 'NONE',  ( 3.491481338843133355E-15, -0.000000000000000000, 1.000000000000000000 ) ) ;
#150 = ORIENTED_EDGE ( 'NONE', *, *, #296, .T. ) ;
#151 = EDGE_CURVE ( 'NONE', #278, #278, #232, .T. ) ;
#152 = PERSON_AND_ORGANIZATION ( #373, #285 ) ;
#153 = DIRECTION ( 'NONE',  ( 3.491481338843133355E-15, -0.000000000000000000, 1.000000000000000000 ) ) ;
#154 = DIRECTION ( 'NONE',  ( 1.000000000000000000, 0.000000000000000000, -3.379331446708065855E-15 ) ) ;
#155 = ORIENTED_EDGE ( 'NONE', *, *, #239, .F. ) ;
#156 = CARTESIAN_POINT ( 'NONE',  ( 1.326762908760390423E-13, 0.000000000000000000, 38.00000000000000000 ) ) ;
#157 = CIRCLE ( 'NONE', #132, 0.3849999999999995093 ) ;
#158 = SECURITY_CLASSIFICATION_LEVEL ( 'unclassified' ) ;
#159 = FACE_BOUND ( 'NONE', #90, .T. ) ;
#160 = ORIENTED_EDGE ( 'NONE', *, *, #366, .T. ) ;
#161 = DIRECTION ( 'NONE',  ( 3.491481338843133355E-15, -0.000000000000000000, 1.000000000000000000 ) ) ;
#162 = CARTESIAN_POINT ( 'NONE',  ( 0.4658641119153686949, 0.000000000000000000, 0.7937500000000011768 ) ) ;
#163 = PERSON_AND_ORGANIZATION ( #373, #285 ) ;
#164 = CALENDAR_DATE ( 2023, 28, 9 ) ;
#165 = FACE_OUTER_BOUND ( 'NONE', #223, .T. ) ;
#166 = APPROVAL_DATE_TIME ( #254, #252 ) ;
#167 = CARTESIAN_POINT ( 'NONE',  ( 2.094888803305879382E-14, 0.000000000000000000, 5.999999999999998224 ) ) ;
#168 = CARTESIAN_POINT ( 'NONE',  ( 1.326762908760390423E-13, 0.000000000000000000, 38.00000000000000000 ) ) ;
#169 = AXIS2_PLACEMENT_3D ( 'NONE', #270, #395, #154 ) ;
#170 = CARTESIAN_POINT ( 'NONE',  ( 7.505775638580857823E-16, 0.000000000000000000, 0.2149739583333365456 ) ) ;
#171 = ADVANCED_FACE ( 'NONE', ( #393, #120 ), #80, .T. ) ;
#172 = CARTESIAN_POINT ( 'NONE',  ( 0.4658641119153671406, 0.000000000000000000, 0.3472656250000009104 ) ) ;
#173 = CONICAL_SURFACE ( 'NONE', #15, 0.6949999999999999512, 1.047197551196602072 ) ;
#174 = DIRECTION ( 'NONE',  ( 3.491481338843133355E-15, -0.000000000000000000, 1.000000000000000000 ) ) ;
#175 = CARTESIAN_POINT ( 'NONE',  ( 0.000000000000000000, 0.000000000000000000, 0.000000000000000000 ) ) ;
#176 = EDGE_LOOP ( 'NONE', ( #150 ) ) ;
#177 = ADVANCED_FACE ( 'NONE', ( #293, #238 ), #102, .T. ) ;
#178 = FACE_BOUND ( 'NONE', #30, .T. ) ;
#179 = CARTESIAN_POINT ( 'NONE',  ( 1.326762908760390423E-13, 0.000000000000000000, 38.00000000000000000 ) ) ;
#180 = CIRCLE ( 'NONE', #64, 0.4658641119153659194 ) ;
#181 = EDGE_LOOP ( 'NONE', ( #286 ) ) ;
#182 = ADVANCED_FACE ( 'NONE', ( #235 ), #357, .F. ) ;
#183 = DIRECTION ( 'NONE',  ( 1.000000000000000000, 0.000000000000000000, -3.491481338843133355E-15 ) ) ;
#184 = CARTESIAN_POINT ( 'NONE',  ( 2.598153105662567486E-15, 0.000000000000000000, 0.7441406250000004441 ) ) ;
#185 = ORIENTED_EDGE ( 'NONE', *, *, #366, .F. ) ;
#186 = CIRCLE ( 'NONE', #146, 1.499999999999996669 ) ;
#187 = SECURITY_CLASSIFICATION ( '', '', #158 ) ;
#188 = ADVANCED_FACE ( 'NONE', ( #86, #322 ), #207, .T. ) ;
#189 = DATE_AND_TIME ( #164, #340 ) ;
#190 = CARTESIAN_POINT ( 'NONE',  ( 1.500000000000035971, 0.000000000000000000, 10.29288914802679678 ) ) ;
#191 = ORIENTED_EDGE ( 'NONE', *, *, #134, .T. ) ;
#192 = PRODUCT_DEFINITION_FORMATION_WITH_SPECIFIED_SOURCE ( 'ANY', '', #226, .NOT_KNOWN. ) ;
#193 = EDGE_LOOP ( 'NONE', ( #185 ) ) ;
#194 = FACE_OUTER_BOUND ( 'NONE', #335, .T. ) ;
#195 = ORIENTED_EDGE ( 'NONE', *, *, #202, .T. ) ;
#196 = AXIS2_PLACEMENT_3D ( 'NONE', #126, #269, #302 ) ;
#197 = AXIS2_PLACEMENT_3D ( 'NONE', #240, #89, #276 ) ;
#198 = EDGE_CURVE ( 'NONE', #9, #9, #1, .T. ) ;
#199 = PERSON_AND_ORGANIZATION_ROLE ( 'design_owner' ) ;
#200 = CARTESIAN_POINT ( 'NONE',  ( 0.6950000000000021716, 0.000000000000000000, 0.6118489583333320825 ) ) ;
#201 = CARTESIAN_POINT ( 'NONE',  ( 0.6950000000000007283, 0.000000000000000000, 0.2149739583333341031 ) ) ;
#202 = EDGE_CURVE ( 'NONE', #251, #251, #288, .T. ) ;
#203 = CIRCLE ( 'NONE', #271, 1.500000000000000000 ) ;
#204 = FACE_BOUND ( 'NONE', #193, .T. ) ;
#205 = FACE_OUTER_BOUND ( 'NONE', #327, .T. ) ;
#206 = COORDINATED_UNIVERSAL_TIME_OFFSET ( 1, 0, .AHEAD. ) ;
#207 = CYLINDRICAL_SURFACE ( 'NONE', #208, 0.3849999999999997868 ) ;
#208 = AXIS2_PLACEMENT_3D ( 'NONE', #179, #51, #81 ) ;
#209 = AXIS2_PLACEMENT_3D ( 'NONE', #217, #308, #364 ) ;
#210 = CC_DESIGN_DATE_AND_TIME_ASSIGNMENT ( #323, #13, ( #187 ) ) ;
#211 = VERTEX_POINT ( 'NONE', #334 ) ;
#212 = CARTESIAN_POINT ( 'NONE',  ( 2.605582815280149798E-33, 0.000000000000000000, 7.462685784090380577E-19 ) ) ;
#213 = ORIENTED_EDGE ( 'NONE', *, *, #282, .T. ) ;
#214 = CC_DESIGN_DATE_AND_TIME_ASSIGNMENT ( #307, #369, ( #354 ) ) ;
#215 = CARTESIAN_POINT ( 'NONE',  ( 1.326762908760390423E-13, 0.000000000000000000, 38.00000000000000000 ) ) ;
#216 = CONICAL_SURFACE ( 'NONE', #72, 0.4190741737109293097, 0.2617993877991426910 ) ;
#217 = CARTESIAN_POINT ( 'NONE',  ( 0.000000000000000000, 0.000000000000000000, 0.000000000000000000 ) ) ;
#218 = DIRECTION ( 'NONE',  ( 1.000000000000000000, 0.000000000000000000, -3.510007033226453485E-15 ) ) ;
#219 = PERSON_AND_ORGANIZATION ( #373, #285 ) ;
#220 = EDGE_LOOP ( 'NONE', ( #213 ) ) ;
#221 = AXIS2_PLACEMENT_3D ( 'NONE', #184, #5, #104 ) ;
#222 = DIRECTION ( 'NONE',  ( 1.000000000000000000, 0.000000000000000000, 0.000000000000000000 ) ) ;
#223 = EDGE_LOOP ( 'NONE', ( #283 ) ) ;
#224 = DIRECTION ( 'NONE',  ( 3.491481338843133355E-15, -0.000000000000000000, 1.000000000000000000 ) ) ;
#225 = DIRECTION ( 'NONE',  ( -1.000000000000000000, 0.000000000000000000, 4.625929269271495577E-15 ) ) ;
#226 = PRODUCT ( '966652', '966652', '', ( #142 ) ) ;
#227 = EDGE_LOOP ( 'NONE', ( #107 ) ) ;
#228 = CYLINDRICAL_SURFACE ( 'NONE', #8, 0.4658641119153660304 ) ;
#229 =( NAMED_UNIT ( * ) SI_UNIT ( $, .STERADIAN. ) SOLID_ANGLE_UNIT ( ) );
#230 = PRODUCT_RELATED_PRODUCT_CATEGORY ( 'detail', '', ( #226 ) ) ;
#231 = EDGE_LOOP ( 'NONE', ( #160 ) ) ;
#232 = CIRCLE ( 'NONE', #363, 0.6949999999999999512 ) ;
#233 = CC_DESIGN_APPROVAL ( #105, ( #354 ) ) ;
#234 = CARTESIAN_POINT ( 'NONE',  ( 1.326762908760390423E-13, 1.199999999999993960, 38.00000000000000000 ) ) ;
#235 = FACE_OUTER_BOUND ( 'NONE', #220, .T. ) ;
#236 = FACE_OUTER_BOUND ( 'NONE', #346, .T. ) ;
#237 = DIRECTION ( 'NONE',  ( -3.491481338843133355E-15, 0.000000000000000000, -1.000000000000000000 ) ) ;
#238 = FACE_BOUND ( 'NONE', #68, .T. ) ;
#239 = EDGE_CURVE ( 'NONE', #324, #324, #55, .T. ) ;
#240 = CARTESIAN_POINT ( 'NONE',  ( 7.505775638580857823E-16, 0.000000000000000000, 0.2149739583333365456 ) ) ;
#241 = ORIENTED_EDGE ( 'NONE', *, *, #69, .F. ) ;
#242 = CYLINDRICAL_SURFACE ( 'NONE', #23, 0.6949999999999999512 ) ;
#243 = ADVANCED_FACE ( 'NONE', ( #236, #205 ), #330, .T. ) ;
#244 = DIRECTION ( 'NONE',  ( 3.491481338843133355E-15, -0.000000000000000000, 1.000000000000000000 ) ) ;
#245 = ORIENTED_EDGE ( 'NONE', *, *, #342, .F. ) ;
#246 = PERSON_AND_ORGANIZATION ( #373, #285 ) ;
#247 = FACE_OUTER_BOUND ( 'NONE', #57, .T. ) ;
#248 = CARTESIAN_POINT ( 'NONE',  ( 0.3850000000000204370, 0.000000000000000000, 5.999999999999996447 ) ) ;
#249 = LOCAL_TIME ( 8, 23, 30.00000000000000000, #145 ) ;
#250 = COORDINATED_UNIVERSAL_TIME_OFFSET ( 1, 0, .AHEAD. ) ;
#251 = VERTEX_POINT ( 'NONE', #356 ) ;
#252 = APPROVAL ( #314, 'UNSPECIFIED' ) ;
#253 = DIRECTION ( 'NONE',  ( 3.491481338843133355E-15, -0.000000000000000000, 1.000000000000000000 ) ) ;
#254 = DATE_AND_TIME ( #266, #10 ) ;
#255 = PERSON_AND_ORGANIZATION ( #373, #285 ) ;
#256 = PERSON_AND_ORGANIZATION ( #373, #285 ) ;
#257 = FACE_OUTER_BOUND ( 'NONE', #343, .T. ) ;
#258 = CARTESIAN_POINT ( 'NONE',  ( 1.316288464743861212E-13, 0.000000000000000000, 37.69999999999999574 ) ) ;
#259 = EDGE_LOOP ( 'NONE', ( #195 ) ) ;
#260 = CARTESIAN_POINT ( 'NONE',  ( 1.200000000000126743, 0.000000000000000000, 37.99999999999999289 ) ) ;
#261 = CC_DESIGN_APPROVAL ( #252, ( #187 ) ) ;
#262 = CARTESIAN_POINT ( 'NONE',  ( 1.326762908760390423E-13, 0.000000000000000000, 38.00000000000000000 ) ) ;
#263 = DIRECTION ( 'NONE',  ( 1.000000000000000000, 0.000000000000000000, -3.490939132533369251E-15 ) ) ;
#264 = FACE_OUTER_BOUND ( 'NONE', #176, .T. ) ;
#265 = CIRCLE ( 'NONE', #297, 0.4658641119153659194 ) ;
#266 = CALENDAR_DATE ( 2023, 28, 9 ) ;
#267 = EDGE_CURVE ( 'NONE', #79, #79, #305, .T. ) ;
#268 = CARTESIAN_POINT ( 'NONE',  ( 1.558891863397540531E-15, 0.000000000000000000, 0.4464843750000002665 ) ) ;
#269 = DIRECTION ( 'NONE',  ( 3.491481338843133355E-15, -0.000000000000000000, 1.000000000000000000 ) ) ;
#270 = CARTESIAN_POINT ( 'NONE',  ( 2.771363312706746567E-15, 0.000000000000000000, 0.7937500000000028422 ) ) ;
#271 = AXIS2_PLACEMENT_3D ( 'NONE', #137, #96, #129 ) ;
#272 = EDGE_CURVE ( 'NONE', #113, #113, #284, .T. ) ;
#273 = SHAPE_DEFINITION_REPRESENTATION ( #352, #24 ) ;
#274 = DIRECTION ( 'NONE',  ( 1.000000000000000000, 0.000000000000000000, 0.000000000000000000 ) ) ;
#275 = EDGE_LOOP ( 'NONE', ( #294 ) ) ;
#276 = DIRECTION ( 'NONE',  ( 1.000000000000000000, 0.000000000000000000, -3.510007033226453485E-15 ) ) ;
#277 = COORDINATED_UNIVERSAL_TIME_OFFSET ( 1, 0, .AHEAD. ) ;
#278 = VERTEX_POINT ( 'NONE', #58 ) ;
#279 = AXIS2_PLACEMENT_3D ( 'NONE', #29, #124, #91 ) ;
#280 = ADVANCED_FACE ( 'NONE', ( #3 ), #338, .F. ) ;
#281 = ORIENTED_EDGE ( 'NONE', *, *, #198, .F. ) ;
#282 = EDGE_CURVE ( 'NONE', #111, #111, #332, .T. ) ;
#283 = ORIENTED_EDGE ( 'NONE', *, *, #118, .T. ) ;
#284 = CIRCLE ( 'NONE', #196, 0.6949999999999999512 ) ;
#285 = ORGANIZATION ( 'UNSPECIFIED', 'UNSPECIFIED', '' ) ;
#286 = ORIENTED_EDGE ( 'NONE', *, *, #342, .T. ) ;
#287 = DIRECTION ( 'NONE',  ( 1.000000000000000000, 0.000000000000000000, 0.000000000000000000 ) ) ;
#288 = CIRCLE ( 'NONE', #63, 0.4190741737109293097 ) ;
#289 = APPROVAL_PERSON_ORGANIZATION ( #246, #147, #34 ) ;
#290 = ADVANCED_FACE ( 'NONE', ( #61, #317 ), #216, .T. ) ;
#291 = DIRECTION ( 'NONE',  ( 1.000000000000000000, 0.000000000000000000, -3.490939132533369251E-15 ) ) ;
#292 = CARTESIAN_POINT ( 'NONE',  ( 0.3799381538836287264, 0.000000000000000000, -1.326546974199200456E-15 ) ) ;
#293 = FACE_OUTER_BOUND ( 'NONE', #227, .T. ) ;
#294 = ORIENTED_EDGE ( 'NONE', *, *, #388, .F. ) ;
#295 = FACE_OUTER_BOUND ( 'NONE', #54, .T. ) ;
#296 = EDGE_CURVE ( 'NONE', #109, #109, #345, .T. ) ;
#297 = AXIS2_PLACEMENT_3D ( 'NONE', #321, #45, #50 ) ;
#298 = AXIS2_PLACEMENT_3D ( 'NONE', #175, #389, #114 ) ;
#299 = APPROVAL_PERSON_ORGANIZATION ( #256, #252, #350 ) ;
#300 = EDGE_LOOP ( 'NONE', ( #73 ) ) ;
#301 = APPLICATION_CONTEXT ( 'configuration controlled 3d designs of mechanical parts and assemblies' ) ;
#302 = DIRECTION ( 'NONE',  ( 1.000000000000000000, 0.000000000000000000, -3.432006876932532217E-15 ) ) ;
#303 = EDGE_LOOP ( 'NONE', ( #241 ) ) ;
#304 = CARTESIAN_POINT ( 'NONE',  ( 2.185254989917141649E-14, 0.000000000000000000, 6.258819045102510970 ) ) ;
#305 = CIRCLE ( 'NONE', #221, 0.4658641119153661414 ) ;
#306 = LOCAL_TIME ( 8, 23, 30.00000000000000000, #250 ) ;
#307 = DATE_AND_TIME ( #128, #306 ) ;
#308 = DIRECTION ( 'NONE',  ( 3.491481338843133355E-15, -0.000000000000000000, 1.000000000000000000 ) ) ;
#309 = CARTESIAN_POINT ( 'NONE',  ( 1.316288464743861212E-13, 0.000000000000000000, 37.69999999999999574 ) ) ;
#310 = AXIS2_PLACEMENT_3D ( 'NONE', #136, #253, #378 ) ;
#311 = CONICAL_SURFACE ( 'NONE', #353, 1.499999999999996669, 0.7853981633974497223 ) ;
#312 = PLANE ( 'NONE',  #344 ) ;
#313 = DIRECTION ( 'NONE',  ( 0.000000000000000000, 0.000000000000000000, 1.000000000000000000 ) ) ;
#314 = APPROVAL_STATUS ( 'not_yet_approved' ) ;
#315 = ADVANCED_FACE ( 'NONE', ( #159, #348 ), #311, .T. ) ;
#316 = DIRECTION ( 'NONE',  ( -3.491481338843133355E-15, 0.000000000000000000, -1.000000000000000000 ) ) ;
#317 = FACE_BOUND ( 'NONE', #259, .T. ) ;
#318 = CARTESIAN_POINT ( 'NONE',  ( 1.326762908760390423E-13, 0.000000000000000000, 38.00000000000000000 ) ) ;
#319 = CARTESIAN_POINT ( 'NONE',  ( 0.6950000000000020606, 0.000000000000000000, 0.5787760416666638541 ) ) ;
#320 = CARTESIAN_POINT ( 'NONE',  ( 0.3850000000000027844, 0.000000000000000000, 0.7937500000000015099 ) ) ;
#321 = CARTESIAN_POINT ( 'NONE',  ( 2.771363312706746567E-15, 0.000000000000000000, 0.7937500000000028422 ) ) ;
#322 = FACE_OUTER_BOUND ( 'NONE', #181, .T. ) ;
#323 = DATE_AND_TIME ( #385, #249 ) ;
#324 = VERTEX_POINT ( 'NONE', #292 ) ;
#325 = APPLICATION_PROTOCOL_DEFINITION ( 'international standard', 'config_control_design', 1994, #12 ) ;
#326 = CARTESIAN_POINT ( 'NONE',  ( 2.185254989917141649E-14, 0.000000000000000000, 6.258819045102510970 ) ) ;
#327 = EDGE_LOOP ( 'NONE', ( #383 ) ) ;
#328 = DIRECTION ( 'NONE',  ( 1.000000000000000000, 0.000000000000000000, -4.625929269271495577E-15 ) ) ;
#329 = PERSON_AND_ORGANIZATION_ROLE ( 'creator' ) ;
#330 = CYLINDRICAL_SURFACE ( 'NONE', #279, 1.499999999999998224 ) ;
#331 = CC_DESIGN_PERSON_AND_ORGANIZATION_ASSIGNMENT ( #152, #329, ( #192 ) ) ;
#332 = CIRCLE ( 'NONE', #20, 1.199999999999993960 ) ;
#333 = EDGE_LOOP ( 'NONE', ( #368 ) ) ;
#334 = CARTESIAN_POINT ( 'NONE',  ( 1.500000000000128120, 0.000000000000000000, 37.69999999999998863 ) ) ;
#335 = EDGE_LOOP ( 'NONE', ( #62 ) ) ;
#336 = DIRECTION ( 'NONE',  ( 1.000000000000000000, 0.000000000000000000, -5.782411586589386432E-15 ) ) ;
#337 = ORIENTED_EDGE ( 'NONE', *, *, #272, .T. ) ;
#338 = PLANE ( 'NONE',  #110 ) ;
#339 = AXIS2_PLACEMENT_3D ( 'NONE', #170, #22, #103 ) ;
#340 = LOCAL_TIME ( 8, 23, 30.00000000000000000, #277 ) ;
#341 = VERTEX_POINT ( 'NONE', #190 ) ;
#342 = EDGE_CURVE ( 'NONE', #384, #384, #31, .T. ) ;
#343 = EDGE_LOOP ( 'NONE', ( #6 ) ) ;
#344 = AXIS2_PLACEMENT_3D ( 'NONE', #101, #316, #82 ) ;
#345 = CIRCLE ( 'NONE', #387, 0.6949999999999999512 ) ;
#346 = EDGE_LOOP ( 'NONE', ( #78 ) ) ;
#347 = EDGE_LOOP ( 'NONE', ( #14 ) ) ;
#348 = FACE_OUTER_BOUND ( 'NONE', #127, .T. ) ;
#349 = EDGE_LOOP ( 'NONE', ( #281 ) ) ;
#350 = APPROVAL_ROLE ( '' ) ;
#351 = FACE_BOUND ( 'NONE', #141, .T. ) ;
#352 = PRODUCT_DEFINITION_SHAPE ( 'NONE', 'NONE',  #354 ) ;
#353 = AXIS2_PLACEMENT_3D ( 'NONE', #309, #97, #225 ) ;
#354 = PRODUCT_DEFINITION ( 'UNKNOWN', '', #192, #392 ) ;
#355 = VERTEX_POINT ( 'NONE', #201 ) ;
#356 = CARTESIAN_POINT ( 'NONE',  ( 0.4190741737109511256, 0.000000000000000000, 6.258819045102509193 ) ) ;
#357 = PLANE ( 'NONE',  #386 ) ;
#358 = CIRCLE ( 'NONE', #197, 0.6949999999999999512 ) ;
#359 = ADVANCED_FACE ( 'NONE', ( #93, #122 ), #242, .T. ) ;
#360 = PERSON_AND_ORGANIZATION_ROLE ( 'classification_officer' ) ;
#361 = DIRECTION ( 'NONE',  ( -1.000000000000000000, 0.000000000000000000, 3.432006876932532217E-15 ) ) ;
#362 = DIRECTION ( 'NONE',  ( -1.000000000000000000, 0.000000000000000000, 3.491481338843133355E-15 ) ) ;
#363 = AXIS2_PLACEMENT_3D ( 'NONE', #85, #66, #218 ) ;
#364 = DIRECTION ( 'NONE',  ( 1.000000000000000000, 0.000000000000000000, -3.491481338843133355E-15 ) ) ;
#365 = EDGE_LOOP ( 'NONE', ( #155 ) ) ;
#366 = EDGE_CURVE ( 'NONE', #19, #19, #180, .T. ) ;
#367 = DIRECTION ( 'NONE',  ( 3.491481338843133355E-15, -0.000000000000000000, 1.000000000000000000 ) ) ;
#368 = ORIENTED_EDGE ( 'NONE', *, *, #272, .F. ) ;
#369 = DATE_TIME_ROLE ( 'creation_date' ) ;
#370 = CARTESIAN_POINT ( 'NONE',  ( 1.212471449309206233E-15, 0.000000000000000000, 0.3472656250000025202 ) ) ;
#371 = EDGE_LOOP ( 'NONE', ( #106 ) ) ;
#372 = FACE_OUTER_BOUND ( 'NONE', #94, .T. ) ;
#373 = PERSON ( 'UNSPECIFIED', 'UNSPECIFIED', 'UNSPECIFIED', ('UNSPECIFIED'), ('UNSPECIFIED'), ('UNSPECIFIED') ) ;
#374 = ADVANCED_FACE ( 'NONE', ( #194, #65 ), #140, .T. ) ;
#375 = DIRECTION ( 'NONE',  ( 1.000000000000000000, 0.000000000000000000, -3.490939132533370829E-15 ) ) ;
#376 = AXIS2_PLACEMENT_3D ( 'NONE', #27, #153, #263 ) ;
#377 = DIRECTION ( 'NONE',  ( 3.491481338843133355E-15, -0.000000000000000000, 1.000000000000000000 ) ) ;
#378 = DIRECTION ( 'NONE',  ( 1.000000000000000000, 0.000000000000000000, -3.491481338843133355E-15 ) ) ;
#379 = DIRECTION ( 'NONE',  ( 1.000000000000000000, 0.000000000000000000, -4.505775262277426926E-15 ) ) ;
#380 = ORIENTED_EDGE ( 'NONE', *, *, #198, .T. ) ;
#381 = ORIENTED_EDGE ( 'NONE', *, *, #388, .T. ) ;
#382 = CARTESIAN_POINT ( 'NONE',  ( 0.000000000000000000, 0.000000000000000000, 0.000000000000000000 ) ) ;
#383 = ORIENTED_EDGE ( 'NONE', *, *, #87, .T. ) ;
#384 = VERTEX_POINT ( 'NONE', #320 ) ;
#385 = CALENDAR_DATE ( 2023, 28, 9 ) ;
#386 = AXIS2_PLACEMENT_3D ( 'NONE', #234, #21, #362 ) ;
#387 = AXIS2_PLACEMENT_3D ( 'NONE', #35, #130, #32 ) ;
#388 = EDGE_CURVE ( 'NONE', #355, #355, #358, .T. ) ;
#389 = DIRECTION ( 'NONE',  ( 3.491481338843133355E-15, -0.000000000000000000, 1.000000000000000000 ) ) ;
#390 = DIRECTION ( 'NONE',  ( 3.491481338843133355E-15, -0.000000000000000000, 1.000000000000000000 ) ) ;
#391 = LOCAL_TIME ( 8, 23, 30.00000000000000000, #206 ) ;
#392 = DESIGN_CONTEXT ( 'detailed design', #301, 'design' ) ;
#393 = FACE_OUTER_BOUND ( 'NONE', #349, .T. ) ;
#394 = APPROVAL_DATE_TIME ( #119, #147 ) ;
#395 = DIRECTION ( 'NONE',  ( 3.491481338843133355E-15, -0.000000000000000000, 1.000000000000000000 ) ) ;
ENDSEC;
END-ISO-10303-21;
