ISO-10303-21;
HEADER;
FILE_DESCRIPTION (( 'STEP AP203' ),
    '1' );
FILE_NAME ('966651.step',
    '2023-09-28T06:23:29',
    ( '' ),
    ( '' ),
    'SwSTEP 2.0',
    'SolidWorks 2022',
    '' );
FILE_SCHEMA (( 'CONFIG_CONTROL_DESIGN' ));
ENDSEC;

DATA;
#1 = CIRCLE ( 'NONE', #114, 1.499999999999996669 ) ;
#2 = CARTESIAN_POINT ( 'NONE',  ( 0.5631304136175628861, 0.000000000000000000, 0.5102678571428564958 ) ) ;
#3 = ORIENTED_EDGE ( 'NONE', *, *, #288, .F. ) ;
#4 = ADVANCED_FACE ( 'NONE', ( #294, #213 ), #17, .T. ) ;
#5 = APPLICATION_CONTEXT ( 'configuration controlled 3d designs of mechanical parts and assemblies' ) ;
#6 = CARTESIAN_POINT ( 'NONE',  ( 1.781590701025764213E-15, 0.000000000000000000, 0.5102678571428584942 ) ) ;
#7 = PERSON_AND_ORGANIZATION ( #375, #122 ) ;
#8 = VERTEX_POINT ( 'NONE', #319 ) ;
#9 = ORIENTED_EDGE ( 'NONE', *, *, #252, .T. ) ;
#10 = CC_DESIGN_PERSON_AND_ORGANIZATION_ASSIGNMENT ( #29, #371, ( #352 ) ) ;
#11 = APPROVAL_STATUS ( 'not_yet_approved' ) ;
#12 = EDGE_LOOP ( 'NONE', ( #170 ) ) ;
#13 = SECURITY_CLASSIFICATION_LEVEL ( 'unclassified' ) ;
#14 = ORIENTED_EDGE ( 'NONE', *, *, #373, .F. ) ;
#15 = LOCAL_TIME ( 8, 23, 29.00000000000000000, #139 ) ;
#16 = PERSON_AND_ORGANIZATION_ROLE ( 'classification_officer' ) ;
#17 = CYLINDRICAL_SURFACE ( 'NONE', #248, 0.4699999999999995848 ) ;
#18 = FACE_OUTER_BOUND ( 'NONE', #290, .T. ) ;
#19 = CARTESIAN_POINT ( 'NONE',  ( 1.326762908760390423E-13, 0.000000000000000000, 38.00000000000000000 ) ) ;
#20 = CARTESIAN_POINT ( 'NONE',  ( 1.326762908760390423E-13, 1.199999999999993960, 38.00000000000000000 ) ) ;
#21 = AXIS2_PLACEMENT_3D ( 'NONE', #255, #374, #393 ) ;
#22 = FACE_OUTER_BOUND ( 'NONE', #218, .T. ) ;
#23 = CARTESIAN_POINT ( 'NONE',  ( 1.781590701025764213E-15, 0.000000000000000000, 0.5102678571428584942 ) ) ;
#24 = DIRECTION ( 'NONE',  ( 1.000000000000000000, 0.000000000000000000, -3.465562973125571145E-15 ) ) ;
#25 = CIRCLE ( 'NONE', #39, 0.5040741737109291076 ) ;
#26 = AXIS2_PLACEMENT_3D ( 'NONE', #19, #233, #206 ) ;
#27 = ADVANCED_FACE ( 'NONE', ( #150, #82 ), #113, .T. ) ;
#28 = FACE_OUTER_BOUND ( 'NONE', #278, .T. ) ;
#29 = PERSON_AND_ORGANIZATION ( #375, #122 ) ;
#30 = CARTESIAN_POINT ( 'NONE',  ( 0.4649293187241463898, 0.000000000000000000, -1.623292040206408437E-15 ) ) ;
#31 = ORIENTED_EDGE ( 'NONE', *, *, #297, .T. ) ;
#32 = DIRECTION ( 'NONE',  ( 1.000000000000000000, 0.000000000000000000, -3.548298019043469128E-15 ) ) ;
#33 = DIRECTION ( 'NONE',  ( 3.491481338843133355E-15, -0.000000000000000000, 1.000000000000000000 ) ) ;
#34 = ADVANCED_FACE ( 'NONE', ( #237, #266 ), #295, .T. ) ;
#35 = EDGE_LOOP ( 'NONE', ( #203 ) ) ;
#36 = AXIS2_PLACEMENT_3D ( 'NONE', #149, #329, #80 ) ;
#37 = DIRECTION ( 'NONE',  ( 1.000000000000000000, 0.000000000000000000, 0.000000000000000000 ) ) ;
#38 = ORIENTED_EDGE ( 'NONE', *, *, #297, .F. ) ;
#39 = AXIS2_PLACEMENT_3D ( 'NONE', #366, #89, #361 ) ;
#40 = APPROVAL ( #11, 'UNSPECIFIED' ) ;
#41 = DATE_AND_TIME ( #379, #15 ) ;
#42 = EDGE_LOOP ( 'NONE', ( #14 ) ) ;
#43 = EDGE_LOOP ( 'NONE', ( #3 ) ) ;
#44 = ADVANCED_FACE ( 'NONE', ( #385, #389 ), #390, .T. ) ;
#45 = APPROVAL_DATE_TIME ( #322, #157 ) ;
#46 = DIRECTION ( 'NONE',  ( 3.491481338843133355E-15, -0.000000000000000000, 1.000000000000000000 ) ) ;
#47 = CC_DESIGN_SECURITY_CLASSIFICATION ( #364, ( #83 ) ) ;
#48 = CARTESIAN_POINT ( 'NONE',  ( 3.167272357379125072E-15, 0.000000000000000000, 0.9071428571428563625 ) ) ;
#49 = CARTESIAN_POINT ( 'NONE',  ( 1.326762908760390423E-13, 0.000000000000000000, 38.00000000000000000 ) ) ;
#50 = ADVANCED_FACE ( 'NONE', ( #18, #112 ), #239, .T. ) ;
#51 = CARTESIAN_POINT ( 'NONE',  ( 0.000000000000000000, 0.000000000000000000, 0.000000000000000000 ) ) ;
#52 = CARTESIAN_POINT ( 'NONE',  ( 2.309469427255626412E-15, 0.000000000000000000, 0.6614583333333368120 ) ) ;
#53 = CIRCLE ( 'NONE', #171, 0.8249999999999999556 ) ;
#54 = CARTESIAN_POINT ( 'NONE',  ( 3.832132893318918165E-14, 0.000000000000000000, 10.97566482938344024 ) ) ;
#55 = ADVANCED_FACE ( 'NONE', ( #267, #388 ), #235, .T. ) ;
#56 = VERTEX_POINT ( 'NONE', #132 ) ;
#57 = DIRECTION ( 'NONE',  ( 3.491481338843133355E-15, -0.000000000000000000, 1.000000000000000000 ) ) ;
#58 = AXIS2_PLACEMENT_3D ( 'NONE', #242, #357, #79 ) ;
#59 = DIRECTION ( 'NONE',  ( 3.491481338843133355E-15, -0.000000000000000000, 1.000000000000000000 ) ) ;
#60 = APPLICATION_PROTOCOL_DEFINITION ( 'international standard', 'config_control_design', 1994, #343 ) ;
#61 = EDGE_LOOP ( 'NONE', ( #90 ) ) ;
#62 = DIRECTION ( 'NONE',  ( 1.000000000000000000, 0.000000000000000000, -3.482588796468590275E-15 ) ) ;
#63 = CYLINDRICAL_SURFACE ( 'NONE', #363, 0.8249999999999999556 ) ;
#64 = APPROVAL_ROLE ( '' ) ;
#65 = ORIENTED_EDGE ( 'NONE', *, *, #373, .T. ) ;
#66 = CIRCLE ( 'NONE', #291, 0.5631304136175611097 ) ;
#67 = APPROVAL_PERSON_ORGANIZATION ( #286, #40, #202 ) ;
#68 = PRODUCT_DEFINITION_SHAPE ( 'NONE', 'NONE',  #205 ) ;
#69 = ADVANCED_FACE ( 'NONE', ( #175, #382 ), #261, .F. ) ;
#70 = ORIENTED_EDGE ( 'NONE', *, *, #380, .F. ) ;
#71 = FACE_OUTER_BOUND ( 'NONE', #167, .T. ) ;
#72 = DATE_TIME_ROLE ( 'classification_date' ) ;
#73 = EDGE_LOOP ( 'NONE', ( #95 ) ) ;
#74 = COORDINATED_UNIVERSAL_TIME_OFFSET ( 1, 0, .AHEAD. ) ;
#75 = ORIENTED_EDGE ( 'NONE', *, *, #252, .F. ) ;
#76 = AXIS2_PLACEMENT_3D ( 'NONE', #20, #209, #270 ) ;
#77 = AXIS2_PLACEMENT_3D ( 'NONE', #51, #354, #108 ) ;
#78 = DIRECTION ( 'NONE',  ( 3.491481338843133355E-15, -0.000000000000000000, 1.000000000000000000 ) ) ;
#79 = DIRECTION ( 'NONE',  ( -1.000000000000000000, 0.000000000000000000, 3.548298019043469128E-15 ) ) ;
#80 = DIRECTION ( 'NONE',  ( -1.000000000000000000, 0.000000000000000000, 4.625929269271495577E-15 ) ) ;
#81 = CLOSED_SHELL ( 'NONE', ( #185, #27, #256, #317, #193, #111, #50, #55, #34, #282, #4, #69, #44, #309, #326, #128 ) ) ;
#82 = FACE_BOUND ( 'NONE', #196, .T. ) ;
#83 = PRODUCT_DEFINITION_FORMATION_WITH_SPECIFIED_SOURCE ( 'ANY', '', #352, .NOT_KNOWN. ) ;
#84 = DIRECTION ( 'NONE',  ( 3.491481338843133355E-15, -0.000000000000000000, 1.000000000000000000 ) ) ;
#85 = EDGE_CURVE ( 'NONE', #116, #116, #336, .T. ) ;
#86 = DATE_TIME_ROLE ( 'creation_date' ) ;
#87 =( NAMED_UNIT ( * ) PLANE_ANGLE_UNIT ( ) SI_UNIT ( $, .RADIAN. ) );
#88 = CARTESIAN_POINT ( 'NONE',  ( 0.8250000000000008438, 0.000000000000000000, 0.2456845238095236028 ) ) ;
#89 = DIRECTION ( 'NONE',  ( 3.491481338843133355E-15, -0.000000000000000000, 1.000000000000000000 ) ) ;
#90 = ORIENTED_EDGE ( 'NONE', *, *, #216, .F. ) ;
#91 = DIRECTION ( 'NONE',  ( 1.000000000000000000, 0.000000000000000000, 0.000000000000000000 ) ) ;
#92 = EDGE_LOOP ( 'NONE', ( #338 ) ) ;
#93 = AXIS2_PLACEMENT_3D ( 'NONE', #54, #210, #181 ) ;
#94 = EDGE_CURVE ( 'NONE', #342, #342, #299, .T. ) ;
#95 = ORIENTED_EDGE ( 'NONE', *, *, #356, .F. ) ;
#96 = DIRECTION ( 'NONE',  ( 3.491481338843133355E-15, -0.000000000000000000, 1.000000000000000000 ) ) ;
#97 = LOCAL_TIME ( 8, 23, 29.00000000000000000, #192 ) ;
#98 = ORIENTED_EDGE ( 'NONE', *, *, #121, .F. ) ;
#99 = DIRECTION ( 'NONE',  ( 1.000000000000000000, 0.000000000000000000, -4.625929269271495577E-15 ) ) ;
#100 = EDGE_LOOP ( 'NONE', ( #257 ) ) ;
#101 = APPROVAL_ROLE ( '' ) ;
#102 = DIRECTION ( 'NONE',  ( 1.000000000000000000, 0.000000000000000000, -3.465562973125571539E-15 ) ) ;
#103 = AXIS2_PLACEMENT_3D ( 'NONE', #23, #46, #353 ) ;
#104 = AXIS2_PLACEMENT_3D ( 'NONE', #301, #180, #355 ) ;
#105 = CARTESIAN_POINT ( 'NONE',  ( 2.969317835042924184E-15, 0.000000000000000000, 0.8504464285714261607 ) ) ;
#106 = CC_DESIGN_PERSON_AND_ORGANIZATION_ASSIGNMENT ( #293, #16, ( #364 ) ) ;
#107 = FACE_OUTER_BOUND ( 'NONE', #378, .T. ) ;
#108 = DIRECTION ( 'NONE',  ( 1.000000000000000000, 0.000000000000000000, -3.491481338843133355E-15 ) ) ;
#109 = CARTESIAN_POINT ( 'NONE',  ( 3.167272357379125072E-15, 0.000000000000000000, 0.9071428571428563625 ) ) ;
#110 = DIRECTION ( 'NONE',  ( 1.000000000000000000, 0.000000000000000000, -3.441405186871599441E-15 ) ) ;
#111 = ADVANCED_FACE ( 'NONE', ( #302, #300 ), #358, .T. ) ;
#112 = FACE_OUTER_BOUND ( 'NONE', #368, .T. ) ;
#113 = CONICAL_SURFACE ( 'NONE', #77, 0.4649293187241463898, 1.047197551196606735 ) ;
#114 = AXIS2_PLACEMENT_3D ( 'NONE', #313, #138, #99 ) ;
#115 = CALENDAR_DATE ( 2023, 28, 9 ) ;
#116 = VERTEX_POINT ( 'NONE', #155 ) ;
#117 = DIRECTION ( 'NONE',  ( 3.491481338843133355E-15, -0.000000000000000000, 1.000000000000000000 ) ) ;
#118 = CARTESIAN_POINT ( 'NONE',  ( 1.682119638426621005E-33, 0.000000000000000000, 4.817782125062063817E-19 ) ) ;
#119 = DIRECTION ( 'NONE',  ( 0.000000000000000000, 0.000000000000000000, 1.000000000000000000 ) ) ;
#120 = AXIS2_PLACEMENT_3D ( 'NONE', #271, #84, #178 ) ;
#121 = EDGE_CURVE ( 'NONE', #129, #129, #165, .T. ) ;
#122 = ORGANIZATION ( 'UNSPECIFIED', 'UNSPECIFIED', '' ) ;
#123 = EDGE_LOOP ( 'NONE', ( #166 ) ) ;
#124 = VERTEX_POINT ( 'NONE', #253 ) ;
#125 = DIRECTION ( 'NONE',  ( 1.000000000000000000, 0.000000000000000000, -3.491481338843133355E-15 ) ) ;
#126 = ORIENTED_EDGE ( 'NONE', *, *, #288, .T. ) ;
#127 = FACE_OUTER_BOUND ( 'NONE', #92, .T. ) ;
#128 = ADVANCED_FACE ( 'NONE', ( #173 ), #234, .F. ) ;
#129 = VERTEX_POINT ( 'NONE', #245 ) ;
#130 = AXIS2_PLACEMENT_3D ( 'NONE', #335, #220, #273 ) ;
#131 = CC_DESIGN_APPROVAL ( #40, ( #364 ) ) ;
#132 = CARTESIAN_POINT ( 'NONE',  ( 0.4700000000000031375, 0.000000000000000000, 0.9071428571428546972 ) ) ;
#133 = ORIENTED_EDGE ( 'NONE', *, *, #121, .T. ) ;
#134 = ORIENTED_EDGE ( 'NONE', *, *, #263, .F. ) ;
#135 = APPROVAL_PERSON_ORGANIZATION ( #226, #157, #101 ) ;
#136 = CALENDAR_DATE ( 2023, 28, 9 ) ;
#137 = ORIENTED_EDGE ( 'NONE', *, *, #303, .F. ) ;
#138 = DIRECTION ( 'NONE',  ( 3.491481338843133355E-15, -0.000000000000000000, 1.000000000000000000 ) ) ;
#139 = COORDINATED_UNIVERSAL_TIME_OFFSET ( 1, 0, .AHEAD. ) ;
#140 = DIRECTION ( 'NONE',  ( 1.000000000000000000, 0.000000000000000000, 0.000000000000000000 ) ) ;
#141 = CC_DESIGN_PERSON_AND_ORGANIZATION_ASSIGNMENT ( #169, #264, ( #83 ) ) ;
#142 = DIRECTION ( 'NONE',  ( 3.491481338843133355E-15, -0.000000000000000000, 1.000000000000000000 ) ) ;
#143 = CARTESIAN_POINT ( 'NONE',  ( 0.8250000000000025091, 0.000000000000000000, 0.6992559523809517286 ) ) ;
#144 = CIRCLE ( 'NONE', #199, 0.5631304136175611097 ) ;
#145 =( GEOMETRIC_REPRESENTATION_CONTEXT ( 3 ) GLOBAL_UNCERTAINTY_ASSIGNED_CONTEXT ( ( #331 ) ) GLOBAL_UNIT_ASSIGNED_CONTEXT ( ( #246, #87, #188 ) ) REPRESENTATION_CONTEXT ( 'NONE', 'WORKASPACE' ) );
#146 = DIRECTION ( 'NONE',  ( 3.491481338843133355E-15, -0.000000000000000000, 1.000000000000000000 ) ) ;
#147 = DATE_AND_TIME ( #136, #225 ) ;
#148 = DIRECTION ( 'NONE',  ( 3.491481338843133355E-15, -0.000000000000000000, 1.000000000000000000 ) ) ;
#149 = CARTESIAN_POINT ( 'NONE',  ( 1.316288464743861212E-13, 0.000000000000000000, 37.69999999999999574 ) ) ;
#150 = FACE_OUTER_BOUND ( 'NONE', #42, .T. ) ;
#151 = CARTESIAN_POINT ( 'NONE',  ( 1.500000000000128120, 0.000000000000000000, 37.69999999999998863 ) ) ;
#152 = CARTESIAN_POINT ( 'NONE',  ( 1.326762908760390423E-13, 0.000000000000000000, 38.00000000000000000 ) ) ;
#153 = AXIS2_PLACEMENT_3D ( 'NONE', #208, #327, #325 ) ;
#154 = FACE_BOUND ( 'NONE', #251, .T. ) ;
#155 = CARTESIAN_POINT ( 'NONE',  ( 1.500000000000038414, 0.000000000000000000, 10.97566482938343491 ) ) ;
#156 = MECHANICAL_CONTEXT ( 'NONE', #343, 'mechanical' ) ;
#157 = APPROVAL ( #281, 'UNSPECIFIED' ) ;
#158 = EDGE_LOOP ( 'NONE', ( #372 ) ) ;
#159 = FACE_OUTER_BOUND ( 'NONE', #284, .T. ) ;
#160 = AXIS2_PLACEMENT_3D ( 'NONE', #304, #117, #24 ) ;
#161 = ORIENTED_EDGE ( 'NONE', *, *, #303, .T. ) ;
#162 = DIRECTION ( 'NONE',  ( 3.491481338843133355E-15, -0.000000000000000000, 1.000000000000000000 ) ) ;
#163 = DIRECTION ( 'NONE',  ( 3.491481338843133355E-15, -0.000000000000000000, 1.000000000000000000 ) ) ;
#164 = CARTESIAN_POINT ( 'NONE',  ( 1.200000000000126743, 0.000000000000000000, 37.99999999999999289 ) ) ;
#165 = CIRCLE ( 'NONE', #240, 0.5631304136175611097 ) ;
#166 = ORIENTED_EDGE ( 'NONE', *, *, #94, .T. ) ;
#167 = EDGE_LOOP ( 'NONE', ( #137 ) ) ;
#168 = EDGE_CURVE ( 'NONE', #186, #186, #383, .T. ) ;
#169 = PERSON_AND_ORGANIZATION ( #375, #122 ) ;
#170 = ORIENTED_EDGE ( 'NONE', *, *, #350, .T. ) ;
#171 = AXIS2_PLACEMENT_3D ( 'NONE', #369, #59, #32 ) ;
#172 = PERSON_AND_ORGANIZATION_ROLE ( 'design_supplier' ) ;
#173 = FACE_OUTER_BOUND ( 'NONE', #287, .T. ) ;
#174 = CARTESIAN_POINT ( 'NONE',  ( 1.326762908760390423E-13, 0.000000000000000000, 38.00000000000000000 ) ) ;
#175 = FACE_OUTER_BOUND ( 'NONE', #61, .T. ) ;
#176 = AXIS2_PLACEMENT_3D ( 'NONE', #214, #370, #91 ) ;
#177 = APPROVAL_PERSON_ORGANIZATION ( #308, #231, #64 ) ;
#178 = DIRECTION ( 'NONE',  ( 1.000000000000000000, 0.000000000000000000, 0.000000000000000000 ) ) ;
#179 = EDGE_CURVE ( 'NONE', #190, #190, #66, .T. ) ;
#180 = DIRECTION ( 'NONE',  ( -3.491481338843133355E-15, 0.000000000000000000, -1.000000000000000000 ) ) ;
#181 = DIRECTION ( 'NONE',  ( 1.000000000000000000, 0.000000000000000000, -3.469446951953614189E-15 ) ) ;
#182 = PLANE ( 'NONE',  #21 ) ;
#183 = DIRECTION ( 'NONE',  ( 1.000000000000000000, 0.000000000000000000, -3.465562973125571539E-15 ) ) ;
#184 = AXIS2_PLACEMENT_3D ( 'NONE', #109, #387, #238 ) ;
#185 = ADVANCED_FACE ( 'NONE', ( #215 ), #187, .F. ) ;
#186 = VERTEX_POINT ( 'NONE', #30 ) ;
#187 = PLANE ( 'NONE',  #324 ) ;
#188 =( NAMED_UNIT ( * ) SI_UNIT ( $, .STERADIAN. ) SOLID_ANGLE_UNIT ( ) );
#189 = EDGE_LOOP ( 'NONE', ( #221 ) ) ;
#190 = VERTEX_POINT ( 'NONE', #275 ) ;
#191 = CARTESIAN_POINT ( 'NONE',  ( 1.326762908760390423E-13, 0.000000000000000000, 38.00000000000000000 ) ) ;
#192 = COORDINATED_UNIVERSAL_TIME_OFFSET ( 1, 0, .AHEAD. ) ;
#193 = ADVANCED_FACE ( 'NONE', ( #159, #28 ), #249, .T. ) ;
#194 = AXIS2_PLACEMENT_3D ( 'NONE', #381, #323, #110 ) ;
#195 = LOCAL_TIME ( 8, 23, 29.00000000000000000, #392 ) ;
#196 = EDGE_LOOP ( 'NONE', ( #260 ) ) ;
#197 = CARTESIAN_POINT ( 'NONE',  ( 7.258332485660395200E-16, 0.000000000000000000, 0.2078869047619016919 ) ) ;
#198 = ADVANCED_BREP_SHAPE_REPRESENTATION ( '966651', ( #265, #391 ), #145 ) ;
#199 = AXIS2_PLACEMENT_3D ( 'NONE', #6, #163, #279 ) ;
#200 = CONICAL_SURFACE ( 'NONE', #104, 0.8249999999999999556, 1.047197551196613619 ) ;
#201 = ORIENTED_EDGE ( 'NONE', *, *, #356, .T. ) ;
#202 = APPROVAL_ROLE ( '' ) ;
#203 = ORIENTED_EDGE ( 'NONE', *, *, #263, .T. ) ;
#204 = EDGE_LOOP ( 'NONE', ( #321 ) ) ;
#205 = PRODUCT_DEFINITION ( 'UNKNOWN', '', #83, #259 ) ;
#206 = DIRECTION ( 'NONE',  ( 1.000000000000000000, 0.000000000000000000, -4.625929269271490844E-15 ) ) ;
#207 = AXIS2_PLACEMENT_3D ( 'NONE', #152, #96, #222 ) ;
#208 = CARTESIAN_POINT ( 'NONE',  ( 0.000000000000000000, 0.000000000000000000, 0.000000000000000000 ) ) ;
#209 = DIRECTION ( 'NONE',  ( -3.491481338843133355E-15, 0.000000000000000000, -1.000000000000000000 ) ) ;
#210 = DIRECTION ( 'NONE',  ( 3.491481338843133355E-15, -0.000000000000000000, 1.000000000000000000 ) ) ;
#211 = FACE_BOUND ( 'NONE', #346, .T. ) ;
#212 = CIRCLE ( 'NONE', #160, 0.5631304136175612207 ) ;
#213 = FACE_OUTER_BOUND ( 'NONE', #12, .T. ) ;
#214 = CARTESIAN_POINT ( 'NONE',  ( 1.326762908760390423E-13, 0.000000000000000000, 38.00000000000000000 ) ) ;
#215 = FACE_OUTER_BOUND ( 'NONE', #158, .T. ) ;
#216 = EDGE_CURVE ( 'NONE', #277, #277, #25, .T. ) ;
#217 = VERTEX_POINT ( 'NONE', #2 ) ;
#218 = EDGE_LOOP ( 'NONE', ( #161 ) ) ;
#219 = CC_DESIGN_DATE_AND_TIME_ASSIGNMENT ( #243, #86, ( #205 ) ) ;
#220 = DIRECTION ( 'NONE',  ( 3.491481338843133355E-15, -0.000000000000000000, 1.000000000000000000 ) ) ;
#221 = ORIENTED_EDGE ( 'NONE', *, *, #85, .F. ) ;
#222 = DIRECTION ( 'NONE',  ( 1.000000000000000000, 0.000000000000000000, -5.782411586589386432E-15 ) ) ;
#223 = CARTESIAN_POINT ( 'NONE',  ( 0.4700000000000237321, 0.000000000000000000, 6.999999999999997335 ) ) ;
#224 = AXIS2_PLACEMENT_3D ( 'NONE', #174, #142, #349 ) ;
#225 = LOCAL_TIME ( 8, 23, 29.00000000000000000, #320 ) ;
#226 = PERSON_AND_ORGANIZATION ( #375, #122 ) ;
#227 = VERTEX_POINT ( 'NONE', #285 ) ;
#228 = CIRCLE ( 'NONE', #207, 1.199999999999993960 ) ;
#229 = ORIENTED_EDGE ( 'NONE', *, *, #350, .F. ) ;
#230 = SHAPE_DEFINITION_REPRESENTATION ( #68, #198 ) ;
#231 = APPROVAL ( #340, 'UNSPECIFIED' ) ;
#232 = ORIENTED_EDGE ( 'NONE', *, *, #216, .T. ) ;
#233 = DIRECTION ( 'NONE',  ( 3.491481338843133355E-15, -0.000000000000000000, 1.000000000000000000 ) ) ;
#234 = PLANE ( 'NONE',  #76 ) ;
#235 = CONICAL_SURFACE ( 'NONE', #58, 0.8249999999999999556, 1.047197551196613841 ) ;
#236 = CARTESIAN_POINT ( 'NONE',  ( 2.444036937190193349E-14, 0.000000000000000000, 7.000000000000000000 ) ) ;
#237 = FACE_OUTER_BOUND ( 'NONE', #100, .T. ) ;
#238 = DIRECTION ( 'NONE',  ( 1.000000000000000000, 0.000000000000000000, -3.460219699421823039E-15 ) ) ;
#239 = CYLINDRICAL_SURFACE ( 'NONE', #224, 0.8249999999999999556 ) ;
#240 = AXIS2_PLACEMENT_3D ( 'NONE', #105, #148, #102 ) ;
#241 = CIRCLE ( 'NONE', #184, 0.4699999999999999734 ) ;
#242 = CARTESIAN_POINT ( 'NONE',  ( 2.441439108813086045E-15, 0.000000000000000000, 0.6992559523809547262 ) ) ;
#243 = DATE_AND_TIME ( #115, #195 ) ;
#244 = CC_DESIGN_PERSON_AND_ORGANIZATION_ASSIGNMENT ( #7, #334, ( #205 ) ) ;
#245 = CARTESIAN_POINT ( 'NONE',  ( 0.5631304136175639963, 0.000000000000000000, 0.8504464285714241623 ) ) ;
#246 =( LENGTH_UNIT ( ) NAMED_UNIT ( * ) SI_UNIT ( .MILLI., .METRE. ) );
#247 = CARTESIAN_POINT ( 'NONE',  ( 0.5040741737109544207, 0.000000000000000000, 7.258819045102510081 ) ) ;
#248 = AXIS2_PLACEMENT_3D ( 'NONE', #49, #269, #140 ) ;
#249 = CYLINDRICAL_SURFACE ( 'NONE', #176, 0.5631304136175612207 ) ;
#250 = CARTESIAN_POINT ( 'NONE',  ( 0.000000000000000000, 0.000000000000000000, 0.000000000000000000 ) ) ;
#251 = EDGE_LOOP ( 'NONE', ( #229 ) ) ;
#252 = EDGE_CURVE ( 'NONE', #365, #365, #305, .T. ) ;
#253 = CARTESIAN_POINT ( 'NONE',  ( 0.5631304136175626640, 0.000000000000000000, 0.3968749999999959810 ) ) ;
#254 = EDGE_LOOP ( 'NONE', ( #376 ) ) ;
#255 = CARTESIAN_POINT ( 'NONE',  ( 3.167272357379131383E-15, 0.5631304136175611097, 0.9071428571428581389 ) ) ;
#256 = ADVANCED_FACE ( 'NONE', ( #307, #339 ), #63, .T. ) ;
#257 = ORIENTED_EDGE ( 'NONE', *, *, #179, .F. ) ;
#258 = CALENDAR_DATE ( 2023, 28, 9 ) ;
#259 = DESIGN_CONTEXT ( 'detailed design', #5, 'design' ) ;
#260 = ORIENTED_EDGE ( 'NONE', *, *, #168, .T. ) ;
#261 = TOROIDAL_SURFACE ( 'NONE', #283, 1.469999999999999085, 0.9999999999999995559 ) ;
#262 = CIRCLE ( 'NONE', #292, 0.8249999999999999556 ) ;
#263 = EDGE_CURVE ( 'NONE', #217, #217, #144, .T. ) ;
#264 = PERSON_AND_ORGANIZATION_ROLE ( 'creator' ) ;
#265 = MANIFOLD_SOLID_BREP ( 'Corps-Déplacer/Copier1', #81 ) ;
#266 = FACE_OUTER_BOUND ( 'NONE', #345, .T. ) ;
#267 = FACE_BOUND ( 'NONE', #312, .T. ) ;
#268 = FACE_BOUND ( 'NONE', #43, .T. ) ;
#269 = DIRECTION ( 'NONE',  ( 3.491481338843133355E-15, -0.000000000000000000, 1.000000000000000000 ) ) ;
#270 = DIRECTION ( 'NONE',  ( -1.000000000000000000, 0.000000000000000000, 3.491481338843133355E-15 ) ) ;
#271 = CARTESIAN_POINT ( 'NONE',  ( 1.326762908760390423E-13, 0.000000000000000000, 38.00000000000000000 ) ) ;
#272 = APPROVAL_DATE_TIME ( #280, #231 ) ;
#273 = DIRECTION ( 'NONE',  ( 1.000000000000000000, 0.000000000000000000, -3.482588796468590275E-15 ) ) ;
#274 = VERTEX_POINT ( 'NONE', #151 ) ;
#275 = CARTESIAN_POINT ( 'NONE',  ( 0.5631304136175642183, 0.000000000000000000, 0.9071428571428543641 ) ) ;
#276 = EDGE_LOOP ( 'NONE', ( #310 ) ) ;
#277 = VERTEX_POINT ( 'NONE', #247 ) ;
#278 = EDGE_LOOP ( 'NONE', ( #126 ) ) ;
#279 = DIRECTION ( 'NONE',  ( 1.000000000000000000, 0.000000000000000000, -3.465562973125571539E-15 ) ) ;
#280 = DATE_AND_TIME ( #311, #97 ) ;
#281 = APPROVAL_STATUS ( 'not_yet_approved' ) ;
#282 = ADVANCED_FACE ( 'NONE', ( #154, #127 ), #182, .F. ) ;
#283 = AXIS2_PLACEMENT_3D ( 'NONE', #236, #298, #332 ) ;
#284 = EDGE_LOOP ( 'NONE', ( #134 ) ) ;
#285 = CARTESIAN_POINT ( 'NONE',  ( 0.8250000000000022871, 0.000000000000000000, 0.6614583333333339255 ) ) ;
#286 = PERSON_AND_ORGANIZATION ( #375, #122 ) ;
#287 = EDGE_LOOP ( 'NONE', ( #31 ) ) ;
#288 = EDGE_CURVE ( 'NONE', #124, #124, #212, .T. ) ;
#289 = PERSON_AND_ORGANIZATION ( #375, #122 ) ;
#290 = EDGE_LOOP ( 'NONE', ( #70 ) ) ;
#291 = AXIS2_PLACEMENT_3D ( 'NONE', #48, #78, #183 ) ;
#292 = AXIS2_PLACEMENT_3D ( 'NONE', #197, #395, #62 ) ;
#293 = PERSON_AND_ORGANIZATION ( #375, #122 ) ;
#294 = FACE_OUTER_BOUND ( 'NONE', #276, .T. ) ;
#295 = CYLINDRICAL_SURFACE ( 'NONE', #120, 0.5631304136175611097 ) ;
#296 = VERTEX_POINT ( 'NONE', #143 ) ;
#297 = EDGE_CURVE ( 'NONE', #315, #315, #228, .T. ) ;
#298 = DIRECTION ( 'NONE',  ( 3.491481338843133355E-15, -0.000000000000000000, 1.000000000000000000 ) ) ;
#299 = CIRCLE ( 'NONE', #344, 0.4699999999999993072 ) ;
#300 = FACE_BOUND ( 'NONE', #35, .T. ) ;
#301 = CARTESIAN_POINT ( 'NONE',  ( 8.578029301235232135E-16, 0.000000000000000000, 0.2456845238095264894 ) ) ;
#302 = FACE_OUTER_BOUND ( 'NONE', #73, .T. ) ;
#303 = EDGE_CURVE ( 'NONE', #274, #274, #1, .T. ) ;
#304 = CARTESIAN_POINT ( 'NONE',  ( 1.385681656353361253E-15, 0.000000000000000000, 0.3968749999999979239 ) ) ;
#305 = CIRCLE ( 'NONE', #130, 0.8249999999999999556 ) ;
#306 = CC_DESIGN_APPROVAL ( #157, ( #83 ) ) ;
#307 = FACE_OUTER_BOUND ( 'NONE', #318, .T. ) ;
#308 = PERSON_AND_ORGANIZATION ( #375, #122 ) ;
#309 = ADVANCED_FACE ( 'NONE', ( #71, #384 ), #347, .T. ) ;
#310 = ORIENTED_EDGE ( 'NONE', *, *, #94, .F. ) ;
#311 = CALENDAR_DATE ( 2023, 28, 9 ) ;
#312 = EDGE_LOOP ( 'NONE', ( #98 ) ) ;
#313 = CARTESIAN_POINT ( 'NONE',  ( 1.316288464743861212E-13, 0.000000000000000000, 37.69999999999999574 ) ) ;
#314 = PRODUCT_RELATED_PRODUCT_CATEGORY ( 'detail', '', ( #352 ) ) ;
#315 = VERTEX_POINT ( 'NONE', #164 ) ;
#316 = AXIS2_PLACEMENT_3D ( 'NONE', #52, #162, #337 ) ;
#317 = ADVANCED_FACE ( 'NONE', ( #268, #107 ), #200, .T. ) ;
#318 = EDGE_LOOP ( 'NONE', ( #75 ) ) ;
#319 = CARTESIAN_POINT ( 'NONE',  ( 0.8250000000000007327, 0.000000000000000000, 0.2078869047618988053 ) ) ;
#320 = COORDINATED_UNIVERSAL_TIME_OFFSET ( 1, 0, .AHEAD. ) ;
#321 = ORIENTED_EDGE ( 'NONE', *, *, #380, .T. ) ;
#322 = DATE_AND_TIME ( #258, #377 ) ;
#323 = DIRECTION ( 'NONE',  ( 3.491481338843133355E-15, -0.000000000000000000, 1.000000000000000000 ) ) ;
#324 = AXIS2_PLACEMENT_3D ( 'NONE', #118, #33, #125 ) ;
#325 = DIRECTION ( 'NONE',  ( 1.000000000000000000, 0.000000000000000000, -3.491481338843133355E-15 ) ) ;
#326 = ADVANCED_FACE ( 'NONE', ( #211, #22 ), #359, .T. ) ;
#327 = DIRECTION ( 'NONE',  ( 3.491481338843133355E-15, -0.000000000000000000, 1.000000000000000000 ) ) ;
#328 = DIRECTION ( 'NONE',  ( 1.000000000000000000, 0.000000000000000000, -3.690901012716615975E-15 ) ) ;
#329 = DIRECTION ( 'NONE',  ( -3.491481338843133355E-15, 0.000000000000000000, -1.000000000000000000 ) ) ;
#330 = CC_DESIGN_APPROVAL ( #231, ( #205 ) ) ;
#331 = UNCERTAINTY_MEASURE_WITH_UNIT (LENGTH_MEASURE( 1.000000000000000082E-05 ), #246, 'distance_accuracy_value', 'NONE');
#332 = DIRECTION ( 'NONE',  ( 1.000000000000000000, 0.000000000000000000, -3.491481338843133355E-15 ) ) ;
#333 = CC_DESIGN_DATE_AND_TIME_ASSIGNMENT ( #41, #72, ( #364 ) ) ;
#334 = PERSON_AND_ORGANIZATION_ROLE ( 'creator' ) ;
#335 = CARTESIAN_POINT ( 'NONE',  ( 8.578029301235232135E-16, 0.000000000000000000, 0.2456845238095264894 ) ) ;
#336 = CIRCLE ( 'NONE', #93, 1.500000000000000000 ) ;
#337 = DIRECTION ( 'NONE',  ( 1.000000000000000000, 0.000000000000000000, -3.548298019043469128E-15 ) ) ;
#338 = ORIENTED_EDGE ( 'NONE', *, *, #179, .T. ) ;
#339 = FACE_OUTER_BOUND ( 'NONE', #341, .T. ) ;
#340 = APPROVAL_STATUS ( 'not_yet_approved' ) ;
#341 = EDGE_LOOP ( 'NONE', ( #65 ) ) ;
#342 = VERTEX_POINT ( 'NONE', #223 ) ;
#343 = APPLICATION_CONTEXT ( 'configuration controlled 3d designs of mechanical parts and assemblies' ) ;
#344 = AXIS2_PLACEMENT_3D ( 'NONE', #360, #146, #328 ) ;
#345 = EDGE_LOOP ( 'NONE', ( #133 ) ) ;
#346 = EDGE_LOOP ( 'NONE', ( #38 ) ) ;
#347 = CYLINDRICAL_SURFACE ( 'NONE', #26, 1.499999999999998224 ) ;
#348 = EDGE_LOOP ( 'NONE', ( #232 ) ) ;
#349 = DIRECTION ( 'NONE',  ( 1.000000000000000000, 0.000000000000000000, 0.000000000000000000 ) ) ;
#350 = EDGE_CURVE ( 'NONE', #56, #56, #241, .T. ) ;
#351 = CIRCLE ( 'NONE', #316, 0.8249999999999999556 ) ;
#352 = PRODUCT ( '966651', '966651', '', ( #156 ) ) ;
#353 = DIRECTION ( 'NONE',  ( 1.000000000000000000, 0.000000000000000000, -3.465562973125571539E-15 ) ) ;
#354 = DIRECTION ( 'NONE',  ( 3.491481338843133355E-15, -0.000000000000000000, 1.000000000000000000 ) ) ;
#355 = DIRECTION ( 'NONE',  ( -1.000000000000000000, 0.000000000000000000, 3.482588796468590275E-15 ) ) ;
#356 = EDGE_CURVE ( 'NONE', #227, #227, #351, .T. ) ;
#357 = DIRECTION ( 'NONE',  ( -3.491481338843133355E-15, 0.000000000000000000, -1.000000000000000000 ) ) ;
#358 = CONICAL_SURFACE ( 'NONE', #103, 0.5631304136175611097, 1.047197551196593857 ) ;
#359 = CONICAL_SURFACE ( 'NONE', #36, 1.499999999999996669, 0.7853981633974497223 ) ;
#360 = CARTESIAN_POINT ( 'NONE',  ( 2.444036937190193033E-14, 0.000000000000000000, 6.999999999999999112 ) ) ;
#361 = DIRECTION ( 'NONE',  ( 1.000000000000000000, 0.000000000000000000, -3.441405186871599441E-15 ) ) ;
#362 = APPLICATION_PROTOCOL_DEFINITION ( 'international standard', 'config_control_design', 1994, #5 ) ;
#363 = AXIS2_PLACEMENT_3D ( 'NONE', #191, #57, #37 ) ;
#364 = SECURITY_CLASSIFICATION ( '', '', #13 ) ;
#365 = VERTEX_POINT ( 'NONE', #88 ) ;
#366 = CARTESIAN_POINT ( 'NONE',  ( 2.534403123801455300E-14, 0.000000000000000000, 7.258819045102511858 ) ) ;
#367 = DIRECTION ( 'NONE',  ( 1.000000000000000000, 0.000000000000000000, 0.000000000000000000 ) ) ;
#368 = EDGE_LOOP ( 'NONE', ( #201 ) ) ;
#369 = CARTESIAN_POINT ( 'NONE',  ( 2.441439108813086045E-15, 0.000000000000000000, 0.6992559523809547262 ) ) ;
#370 = DIRECTION ( 'NONE',  ( 3.491481338843133355E-15, -0.000000000000000000, 1.000000000000000000 ) ) ;
#371 = PERSON_AND_ORGANIZATION_ROLE ( 'design_owner' ) ;
#372 = ORIENTED_EDGE ( 'NONE', *, *, #168, .F. ) ;
#373 = EDGE_CURVE ( 'NONE', #8, #8, #262, .T. ) ;
#374 = DIRECTION ( 'NONE',  ( -3.491481338843133355E-15, 0.000000000000000000, -1.000000000000000000 ) ) ;
#375 = PERSON ( 'UNSPECIFIED', 'UNSPECIFIED', 'UNSPECIFIED', ('UNSPECIFIED'), ('UNSPECIFIED'), ('UNSPECIFIED') ) ;
#376 = ORIENTED_EDGE ( 'NONE', *, *, #85, .T. ) ;
#377 = LOCAL_TIME ( 8, 23, 29.00000000000000000, #74 ) ;
#378 = EDGE_LOOP ( 'NONE', ( #9 ) ) ;
#379 = CALENDAR_DATE ( 2023, 28, 9 ) ;
#380 = EDGE_CURVE ( 'NONE', #296, #296, #53, .T. ) ;
#381 = CARTESIAN_POINT ( 'NONE',  ( 2.534403123801455300E-14, 0.000000000000000000, 7.258819045102511858 ) ) ;
#382 = FACE_OUTER_BOUND ( 'NONE', #123, .T. ) ;
#383 = CIRCLE ( 'NONE', #153, 0.4649293187241463898 ) ;
#384 = FACE_OUTER_BOUND ( 'NONE', #254, .T. ) ;
#385 = FACE_OUTER_BOUND ( 'NONE', #189, .T. ) ;
#386 = APPROVAL_DATE_TIME ( #147, #40 ) ;
#387 = DIRECTION ( 'NONE',  ( 3.491481338843133355E-15, -0.000000000000000000, 1.000000000000000000 ) ) ;
#388 = FACE_OUTER_BOUND ( 'NONE', #204, .T. ) ;
#389 = FACE_BOUND ( 'NONE', #348, .T. ) ;
#390 = CONICAL_SURFACE ( 'NONE', #194, 0.5040741737109291076, 0.2617993877991427465 ) ;
#391 = AXIS2_PLACEMENT_3D ( 'NONE', #250, #119, #367 ) ;
#392 = COORDINATED_UNIVERSAL_TIME_OFFSET ( 1, 0, .AHEAD. ) ;
#393 = DIRECTION ( 'NONE',  ( -1.000000000000000000, 0.000000000000000000, 3.491481338843133355E-15 ) ) ;
#394 = CC_DESIGN_PERSON_AND_ORGANIZATION_ASSIGNMENT ( #289, #172, ( #83 ) ) ;
#395 = DIRECTION ( 'NONE',  ( 3.491481338843133355E-15, -0.000000000000000000, 1.000000000000000000 ) ) ;
ENDSEC;
END-ISO-10303-21;
