ISO-10303-21;
HEADER;
FILE_DESCRIPTION (( 'STEP AP203' ),
    '1' );
FILE_NAME ('966650.step',
    '2023-09-28T06:23:29',
    ( '' ),
    ( '' ),
    'SwSTEP 2.0',
    'SolidWorks 2022',
    '' );
FILE_SCHEMA (( 'CONFIG_CONTROL_DESIGN' ));
ENDSEC;

DATA;
#1 = CC_DESIGN_APPROVAL ( #136, ( #27 ) ) ;
#2 = ORIENTED_EDGE ( 'NONE', *, *, #157, .T. ) ;
#3 = VERTEX_POINT ( 'NONE', #155 ) ;
#4 = DIRECTION ( 'NONE',  ( 1.000000000000000000, 0.000000000000000000, 0.000000000000000000 ) ) ;
#5 = DIRECTION ( 'NONE',  ( 3.491481338843133355E-15, -0.000000000000000000, 1.000000000000000000 ) ) ;
#6 = CARTESIAN_POINT ( 'NONE',  ( 0.9500000000000026201, 0.000000000000000000, 0.7717013888888826223 ) ) ;
#7 = AXIS2_PLACEMENT_3D ( 'NONE', #236, #142, #147 ) ;
#8 = CC_DESIGN_DATE_AND_TIME_ASSIGNMENT ( #51, #46, ( #27 ) ) ;
#9 = VERTEX_POINT ( 'NONE', #95 ) ;
#10 = APPROVAL_STATUS ( 'not_yet_approved' ) ;
#11 = EDGE_CURVE ( 'NONE', #38, #38, #158, .T. ) ;
#12 = CARTESIAN_POINT ( 'NONE',  ( 1.616628599078933558E-15, 0.000000000000000000, 0.4630208333333343806 ) ) ;
#13 = DATE_AND_TIME ( #375, #324 ) ;
#14 = DESIGN_CONTEXT ( 'detailed design', #180, 'design' ) ;
#15 = ORIENTED_EDGE ( 'NONE', *, *, #148, .F. ) ;
#16 = CALENDAR_DATE ( 2023, 28, 9 ) ;
#17 = DIRECTION ( 'NONE',  ( 3.491481338843133355E-15, -0.000000000000000000, 1.000000000000000000 ) ) ;
#18 = EDGE_CURVE ( 'NONE', #124, #124, #389, .T. ) ;
#19 = AXIS2_PLACEMENT_3D ( 'NONE', #290, #312, #77 ) ;
#20 = PERSON_AND_ORGANIZATION ( #277, #175 ) ;
#21 = ORIENTED_EDGE ( 'NONE', *, *, #11, .T. ) ;
#22 = DIRECTION ( 'NONE',  ( 3.491481338843133355E-15, -0.000000000000000000, 1.000000000000000000 ) ) ;
#23 = DIRECTION ( 'NONE',  ( 3.491481338843133355E-15, -0.000000000000000000, 1.000000000000000000 ) ) ;
#24 = DIRECTION ( 'NONE',  ( 1.000000000000000000, 0.000000000000000000, -3.075346393834017065E-15 ) ) ;
#25 = CARTESIAN_POINT ( 'NONE',  ( 3.695151083608986482E-15, 0.6444854825538212095, 1.058333333333334236 ) ) ;
#26 = AXIS2_PLACEMENT_3D ( 'NONE', #192, #386, #49 ) ;
#27 = SECURITY_CLASSIFICATION ( '', '', #227 ) ;
#28 = CARTESIAN_POINT ( 'NONE',  ( 1.326762908760390423E-13, 0.000000000000000000, 38.00000000000000000 ) ) ;
#29 = DIRECTION ( 'NONE',  ( 3.491481338843133355E-15, -0.000000000000000000, 1.000000000000000000 ) ) ;
#30 = ADVANCED_FACE ( 'NONE', ( #263, #261 ), #356, .T. ) ;
#31 = FACE_BOUND ( 'NONE', #289, .T. ) ;
#32 = DIRECTION ( 'NONE',  ( -3.491481338843133355E-15, 0.000000000000000000, -1.000000000000000000 ) ) ;
#33 = ORIENTED_EDGE ( 'NONE', *, *, #54, .F. ) ;
#34 = APPLICATION_PROTOCOL_DEFINITION ( 'international standard', 'config_control_design', 1994, #127 ) ;
#35 = AXIS2_PLACEMENT_3D ( 'NONE', #291, #23, #314 ) ;
#36 = AXIS2_PLACEMENT_3D ( 'NONE', #323, #103, #166 ) ;
#37 = ORIENTED_EDGE ( 'NONE', *, *, #322, .T. ) ;
#38 = VERTEX_POINT ( 'NONE', #181 ) ;
#39 = ADVANCED_FACE ( 'NONE', ( #169, #394 ), #235, .T. ) ;
#40 = APPLICATION_PROTOCOL_DEFINITION ( 'international standard', 'config_control_design', 1994, #180 ) ;
#41 =( GEOMETRIC_REPRESENTATION_CONTEXT ( 3 ) GLOBAL_UNCERTAINTY_ASSIGNED_CONTEXT ( ( #248 ) ) GLOBAL_UNIT_ASSIGNED_CONTEXT ( ( #276, #302, #122 ) ) REPRESENTATION_CONTEXT ( 'NONE', 'WORKASPACE' ) );
#42 = VERTEX_POINT ( 'NONE', #97 ) ;
#43 = EDGE_LOOP ( 'NONE', ( #321 ) ) ;
#44 = PERSON_AND_ORGANIZATION ( #277, #175 ) ;
#45 = AXIS2_PLACEMENT_3D ( 'NONE', #327, #361, #206 ) ;
#46 = DATE_TIME_ROLE ( 'classification_date' ) ;
#47 = ADVANCED_BREP_SHAPE_REPRESENTATION ( '966650', ( #62, #217 ), #41 ) ;
#48 = FACE_OUTER_BOUND ( 'NONE', #43, .T. ) ;
#49 = DIRECTION ( 'NONE',  ( 1.000000000000000000, 0.000000000000000000, -3.480859606400830004E-15 ) ) ;
#50 = DIRECTION ( 'NONE',  ( 1.000000000000000000, 0.000000000000000000, -3.537922878636909870E-15 ) ) ;
#51 = DATE_AND_TIME ( #315, #246 ) ;
#52 = EDGE_LOOP ( 'NONE', ( #170 ) ) ;
#53 = CARTESIAN_POINT ( 'NONE',  ( 2.848345626948596311E-15, 0.000000000000000000, 0.8157986111111126259 ) ) ;
#54 = EDGE_CURVE ( 'NONE', #186, #186, #134, .T. ) ;
#55 = EDGE_LOOP ( 'NONE', ( #15 ) ) ;
#56 = DIRECTION ( 'NONE',  ( -3.491481338843133355E-15, 0.000000000000000000, -1.000000000000000000 ) ) ;
#57 = FACE_OUTER_BOUND ( 'NONE', #138, .T. ) ;
#58 = CARTESIAN_POINT ( 'NONE',  ( 2.918466071074201231E-14, 0.000000000000000000, 8.358819045102515943 ) ) ;
#59 = DIRECTION ( 'NONE',  ( 3.491481338843133355E-15, -0.000000000000000000, 1.000000000000000000 ) ) ;
#60 = CARTESIAN_POINT ( 'NONE',  ( 0.6444854825538229859, 0.000000000000000000, 0.4630208333333321047 ) ) ;
#61 = ORIENTED_EDGE ( 'NONE', *, *, #362, .F. ) ;
#62 = MANIFOLD_SOLID_BREP ( 'Corps-Déplacer/Copier1', #67 ) ;
#63 = LOCAL_TIME ( 8, 23, 29.00000000000000000, #284 ) ;
#64 = ADVANCED_FACE ( 'NONE', ( #87, #208 ), #202, .T. ) ;
#65 = CARTESIAN_POINT ( 'NONE',  ( 0.9500000000000009548, 0.000000000000000000, 0.2866319444444384579 ) ) ;
#66 = VERTEX_POINT ( 'NONE', #309 ) ;
#67 = CLOSED_SHELL ( 'NONE', ( #280, #211, #244, #298, #391, #129, #30, #64, #39, #92, #395, #259, #198, #96, #366, #285 ) ) ;
#68 = DIRECTION ( 'NONE',  ( 1.000000000000000000, 0.000000000000000000, -3.364551108860585886E-15 ) ) ;
#69 = CARTESIAN_POINT ( 'NONE',  ( 1.316288464743861212E-13, 0.000000000000000000, 37.69999999999999574 ) ) ;
#70 = ORIENTED_EDGE ( 'NONE', *, *, #343, .F. ) ;
#71 = PERSON_AND_ORGANIZATION ( #277, #175 ) ;
#72 = CIRCLE ( 'NONE', #330, 0.5640741737109286058 ) ;
#73 = DIRECTION ( 'NONE',  ( 1.000000000000000000, 0.000000000000000000, -3.491481338843133355E-15 ) ) ;
#74 = AXIS2_PLACEMENT_3D ( 'NONE', #162, #286, #283 ) ;
#75 = COORDINATED_UNIVERSAL_TIME_OFFSET ( 1, 0, .AHEAD. ) ;
#76 = PRODUCT_RELATED_PRODUCT_CATEGORY ( 'detail', '', ( #159 ) ) ;
#77 = DIRECTION ( 'NONE',  ( 1.000000000000000000, 0.000000000000000000, -3.469446951953614189E-15 ) ) ;
#78 = EDGE_LOOP ( 'NONE', ( #353 ) ) ;
#79 = PERSON_AND_ORGANIZATION_ROLE ( 'classification_officer' ) ;
#80 = EDGE_LOOP ( 'NONE', ( #319 ) ) ;
#81 = PLANE ( 'NONE',  #303 ) ;
#82 = ORIENTED_EDGE ( 'NONE', *, *, #18, .T. ) ;
#83 = APPROVAL ( #10, 'UNSPECIFIED' ) ;
#84 = CONICAL_SURFACE ( 'NONE', #339, 1.499999999999996669, 0.7853981633974497223 ) ;
#85 = CARTESIAN_POINT ( 'NONE',  ( 1.326762908760390423E-13, 0.000000000000000000, 38.00000000000000000 ) ) ;
#86 = EDGE_LOOP ( 'NONE', ( #61 ) ) ;
#87 = FACE_BOUND ( 'NONE', #196, .T. ) ;
#88 = DIRECTION ( 'NONE',  ( 1.000000000000000000, 0.000000000000000000, 0.000000000000000000 ) ) ;
#89 = FACE_OUTER_BOUND ( 'NONE', #333, .T. ) ;
#90 = AXIS2_PLACEMENT_3D ( 'NONE', #139, #56, #393 ) ;
#91 = CONICAL_SURFACE ( 'NONE', #364, 0.5299175385115042491, 1.047197551196600518 ) ;
#92 = ADVANCED_FACE ( 'NONE', ( #179, #143 ), #171, .F. ) ;
#93 = CARTESIAN_POINT ( 'NONE',  ( 2.078522484530053910E-15, 0.000000000000000000, 0.5953125000000003553 ) ) ;
#94 = EDGE_LOOP ( 'NONE', ( #348 ) ) ;
#95 = CARTESIAN_POINT ( 'NONE',  ( 0.6444854825538247622, 0.000000000000000000, 0.9921874999999961142 ) ) ;
#96 = ADVANCED_FACE ( 'NONE', ( #57, #176 ), #214, .T. ) ;
#97 = CARTESIAN_POINT ( 'NONE',  ( 1.200000000000126743, 0.000000000000000000, 37.99999999999999289 ) ) ;
#98 = APPROVAL_PERSON_ORGANIZATION ( #369, #83, #125 ) ;
#99 = EDGE_LOOP ( 'NONE', ( #241 ) ) ;
#100 = DATE_AND_TIME ( #102, #63 ) ;
#101 = AXIS2_PLACEMENT_3D ( 'NONE', #240, #234, #367 ) ;
#102 = CALENDAR_DATE ( 2023, 28, 9 ) ;
#103 = DIRECTION ( 'NONE',  ( 3.491481338843133355E-15, -0.000000000000000000, 1.000000000000000000 ) ) ;
#104 = DATE_AND_TIME ( #16, #377 ) ;
#105 = EDGE_LOOP ( 'NONE', ( #387 ) ) ;
#106 = EDGE_CURVE ( 'NONE', #242, #242, #370, .T. ) ;
#107 = AXIS2_PLACEMENT_3D ( 'NONE', #388, #292, #115 ) ;
#108 = PERSON_AND_ORGANIZATION_ROLE ( 'creator' ) ;
#109 = EDGE_LOOP ( 'NONE', ( #37 ) ) ;
#110 = DIRECTION ( 'NONE',  ( -1.000000000000000000, 0.000000000000000000, 3.491481338843133355E-15 ) ) ;
#111 = ORIENTED_EDGE ( 'NONE', *, *, #54, .T. ) ;
#112 = EDGE_LOOP ( 'NONE', ( #355 ) ) ;
#113 = AXIS2_PLACEMENT_3D ( 'NONE', #28, #145, #184 ) ;
#114 = DIRECTION ( 'NONE',  ( 3.491481338843133355E-15, -0.000000000000000000, 1.000000000000000000 ) ) ;
#115 = DIRECTION ( 'NONE',  ( 1.000000000000000000, 0.000000000000000000, -4.625929269271495577E-15 ) ) ;
#116 = FACE_OUTER_BOUND ( 'NONE', #119, .T. ) ;
#117 = CARTESIAN_POINT ( 'NONE',  ( 2.828099884462938018E-14, 0.000000000000000000, 8.099999999999999645 ) ) ;
#118 = AXIS2_PLACEMENT_3D ( 'NONE', #255, #262, #68 ) ;
#119 = EDGE_LOOP ( 'NONE', ( #183 ) ) ;
#120 = FACE_BOUND ( 'NONE', #168, .T. ) ;
#121 = ORIENTED_EDGE ( 'NONE', *, *, #343, .T. ) ;
#122 =( NAMED_UNIT ( * ) SI_UNIT ( $, .STERADIAN. ) SOLID_ANGLE_UNIT ( ) );
#123 = AXIS2_PLACEMENT_3D ( 'NONE', #93, #331, #270 ) ;
#124 = VERTEX_POINT ( 'NONE', #305 ) ;
#125 = APPROVAL_ROLE ( '' ) ;
#126 = DIRECTION ( 'NONE',  ( 3.491481338843133355E-15, -0.000000000000000000, 1.000000000000000000 ) ) ;
#127 = APPLICATION_CONTEXT ( 'configuration controlled 3d designs of mechanical parts and assemblies' ) ;
#128 = DATE_TIME_ROLE ( 'creation_date' ) ;
#129 = ADVANCED_FACE ( 'NONE', ( #116, #31 ), #193, .T. ) ;
#130 = CARTESIAN_POINT ( 'NONE',  ( 1.000770085144090250E-15, 0.000000000000000000, 0.2866319444444417885 ) ) ;
#131 = ORIENTED_EDGE ( 'NONE', *, *, #221, .T. ) ;
#132 = CARTESIAN_POINT ( 'NONE',  ( 3.103157222923730615E-33, 0.000000000000000000, 8.887795527934655194E-19 ) ) ;
#133 = PERSON_AND_ORGANIZATION ( #277, #175 ) ;
#134 = CIRCLE ( 'NONE', #107, 1.499999999999996669 ) ;
#135 = AXIS2_PLACEMENT_3D ( 'NONE', #310, #340, #376 ) ;
#136 = APPROVAL ( #161, 'UNSPECIFIED' ) ;
#137 = DIRECTION ( 'NONE',  ( 1.000000000000000000, 0.000000000000000000, -3.532778664303614529E-15 ) ) ;
#138 = EDGE_LOOP ( 'NONE', ( #33 ) ) ;
#139 = CARTESIAN_POINT ( 'NONE',  ( 2.848345626948596311E-15, 0.000000000000000000, 0.8157986111111126259 ) ) ;
#140 = AXIS2_PLACEMENT_3D ( 'NONE', #272, #297, #363 ) ;
#141 = CIRCLE ( 'NONE', #36, 0.6444854825538213206 ) ;
#142 = DIRECTION ( 'NONE',  ( 3.491481338843133355E-15, -0.000000000000000000, 1.000000000000000000 ) ) ;
#143 = FACE_OUTER_BOUND ( 'NONE', #80, .T. ) ;
#144 = APPROVAL_ROLE ( '' ) ;
#145 = DIRECTION ( 'NONE',  ( 3.491481338843133355E-15, -0.000000000000000000, 1.000000000000000000 ) ) ;
#146 = DIRECTION ( 'NONE',  ( 3.491481338843133355E-15, -0.000000000000000000, 1.000000000000000000 ) ) ;
#147 = DIRECTION ( 'NONE',  ( 1.000000000000000000, 0.000000000000000000, -5.782411586589386432E-15 ) ) ;
#148 = EDGE_CURVE ( 'NONE', #66, #66, #252, .T. ) ;
#149 = CARTESIAN_POINT ( 'NONE',  ( 0.5299175385115042491, 0.000000000000000000, -1.850197196838604503E-15 ) ) ;
#150 = ORIENTED_EDGE ( 'NONE', *, *, #11, .F. ) ;
#151 = CARTESIAN_POINT ( 'NONE',  ( 0.000000000000000000, 0.000000000000000000, 0.000000000000000000 ) ) ;
#152 = FACE_OUTER_BOUND ( 'NONE', #167, .T. ) ;
#153 = VERTEX_POINT ( 'NONE', #338 ) ;
#154 = CIRCLE ( 'NONE', #101, 0.9499999999999998446 ) ;
#155 = CARTESIAN_POINT ( 'NONE',  ( 1.500000000000041522, 0.000000000000000000, 11.85174178092929687 ) ) ;
#156 = SHAPE_DEFINITION_REPRESENTATION ( #345, #47 ) ;
#157 = EDGE_CURVE ( 'NONE', #42, #42, #174, .T. ) ;
#158 = CIRCLE ( 'NONE', #26, 0.9499999999999999556 ) ;
#159 = PRODUCT ( '966650', '966650', '', ( #188 ) ) ;
#160 = DIRECTION ( 'NONE',  ( -1.000000000000000000, 0.000000000000000000, 4.625929269271495577E-15 ) ) ;
#161 = APPROVAL_STATUS ( 'not_yet_approved' ) ;
#162 = CARTESIAN_POINT ( 'NONE',  ( 1.000770085144090250E-15, 0.000000000000000000, 0.2866319444444417885 ) ) ;
#163 = FACE_OUTER_BOUND ( 'NONE', #325, .T. ) ;
#164 = APPROVAL_DATE_TIME ( #104, #373 ) ;
#165 = AXIS2_PLACEMENT_3D ( 'NONE', #185, #5, #232 ) ;
#166 = DIRECTION ( 'NONE',  ( 1.000000000000000000, 0.000000000000000000, -3.364551108860585097E-15 ) ) ;
#167 = EDGE_LOOP ( 'NONE', ( #358 ) ) ;
#168 = EDGE_LOOP ( 'NONE', ( #215 ) ) ;
#169 = FACE_OUTER_BOUND ( 'NONE', #86, .T. ) ;
#170 = ORIENTED_EDGE ( 'NONE', *, *, #335, .F. ) ;
#171 = PLANE ( 'NONE',  #328 ) ;
#172 = CYLINDRICAL_SURFACE ( 'NONE', #113, 0.5299999999999994715 ) ;
#173 = CC_DESIGN_PERSON_AND_ORGANIZATION_ASSIGNMENT ( #311, #253, ( #251 ) ) ;
#174 = CIRCLE ( 'NONE', #7, 1.199999999999993960 ) ;
#175 = ORGANIZATION ( 'UNSPECIFIED', 'UNSPECIFIED', '' ) ;
#176 = FACE_OUTER_BOUND ( 'NONE', #109, .T. ) ;
#177 = CARTESIAN_POINT ( 'NONE',  ( 0.000000000000000000, 0.000000000000000000, 0.000000000000000000 ) ) ;
#178 = CC_DESIGN_PERSON_AND_ORGANIZATION_ASSIGNMENT ( #133, #108, ( #316 ) ) ;
#179 = FACE_BOUND ( 'NONE', #287, .T. ) ;
#180 = APPLICATION_CONTEXT ( 'configuration controlled 3d designs of mechanical parts and assemblies' ) ;
#181 = CARTESIAN_POINT ( 'NONE',  ( 0.9500000000000008438, 0.000000000000000000, 0.2425347222222188071 ) ) ;
#182 = CIRCLE ( 'NONE', #390, 0.9499999999999998446 ) ;
#183 = ORIENTED_EDGE ( 'NONE', *, *, #221, .F. ) ;
#184 = DIRECTION ( 'NONE',  ( 1.000000000000000000, 0.000000000000000000, 0.000000000000000000 ) ) ;
#185 = CARTESIAN_POINT ( 'NONE',  ( 1.326762908760390423E-13, 0.000000000000000000, 38.00000000000000000 ) ) ;
#186 = VERTEX_POINT ( 'NONE', #249 ) ;
#187 = APPROVAL_DATE_TIME ( #342, #136 ) ;
#188 = MECHANICAL_CONTEXT ( 'NONE', #127, 'mechanical' ) ;
#189 = AXIS2_PLACEMENT_3D ( 'NONE', #130, #384, #351 ) ;
#190 = PLANE ( 'NONE',  #203 ) ;
#191 = DIRECTION ( 'NONE',  ( -3.491481338843133355E-15, 0.000000000000000000, -1.000000000000000000 ) ) ;
#192 = CARTESIAN_POINT ( 'NONE',  ( 8.468054566603915522E-16, 0.000000000000000000, 0.2425347222222221100 ) ) ;
#193 = CONICAL_SURFACE ( 'NONE', #123, 0.6444854825538213206, 1.047197551196608067 ) ;
#194 = AXIS2_PLACEMENT_3D ( 'NONE', #267, #29, #268 ) ;
#195 = CC_DESIGN_APPROVAL ( #373, ( #316 ) ) ;
#196 = EDGE_LOOP ( 'NONE', ( #70 ) ) ;
#197 = APPROVAL_ROLE ( '' ) ;
#198 = ADVANCED_FACE ( 'NONE', ( #89, #120 ), #209, .T. ) ;
#199 = DIRECTION ( 'NONE',  ( 1.000000000000000000, 0.000000000000000000, -3.075346393834017065E-15 ) ) ;
#200 = ORIENTED_EDGE ( 'NONE', *, *, #207, .F. ) ;
#201 = ORIENTED_EDGE ( 'NONE', *, *, #18, .F. ) ;
#202 = CONICAL_SURFACE ( 'NONE', #90, 0.9499999999999998446, 1.047197551196608067 ) ;
#203 = AXIS2_PLACEMENT_3D ( 'NONE', #226, #281, #110 ) ;
#204 = DIRECTION ( 'NONE',  ( 3.491481338843133355E-15, -0.000000000000000000, 1.000000000000000000 ) ) ;
#205 = ORIENTED_EDGE ( 'NONE', *, *, #347, .F. ) ;
#206 = DIRECTION ( 'NONE',  ( 1.000000000000000000, 0.000000000000000000, 0.000000000000000000 ) ) ;
#207 = EDGE_CURVE ( 'NONE', #213, #213, #225, .T. ) ;
#208 = FACE_OUTER_BOUND ( 'NONE', #105, .T. ) ;
#209 = CONICAL_SURFACE ( 'NONE', #288, 0.5640741737109286058, 0.2617993877991430240 ) ;
#210 = AXIS2_PLACEMENT_3D ( 'NONE', #177, #392, #212 ) ;
#211 = ADVANCED_FACE ( 'NONE', ( #299, #365 ), #91, .T. ) ;
#212 = DIRECTION ( 'NONE',  ( 1.000000000000000000, 0.000000000000000000, -3.491481338843133355E-15 ) ) ;
#213 = VERTEX_POINT ( 'NONE', #149 ) ;
#214 = CYLINDRICAL_SURFACE ( 'NONE', #140, 1.499999999999998224 ) ;
#215 = ORIENTED_EDGE ( 'NONE', *, *, #335, .T. ) ;
#216 = CARTESIAN_POINT ( 'NONE',  ( 0.6444854825538248733, 0.000000000000000000, 1.058333333333332460 ) ) ;
#217 = AXIS2_PLACEMENT_3D ( 'NONE', #151, #274, #4 ) ;
#218 = VERTEX_POINT ( 'NONE', #216 ) ;
#219 = CARTESIAN_POINT ( 'NONE',  ( 0.5300000000000036904, 0.000000000000000000, 1.058333333333332682 ) ) ;
#220 = CC_DESIGN_SECURITY_CLASSIFICATION ( #27, ( #316 ) ) ;
#221 = EDGE_CURVE ( 'NONE', #334, #334, #154, .T. ) ;
#222 = FACE_OUTER_BOUND ( 'NONE', #368, .T. ) ;
#223 = EDGE_LOOP ( 'NONE', ( #121 ) ) ;
#224 = CARTESIAN_POINT ( 'NONE',  ( 2.828099884462938018E-14, 0.000000000000000000, 8.099999999999999645 ) ) ;
#225 = CIRCLE ( 'NONE', #210, 0.5299175385115042491 ) ;
#226 = CARTESIAN_POINT ( 'NONE',  ( 1.326762908760390423E-13, 1.199999999999993960, 38.00000000000000000 ) ) ;
#227 = SECURITY_CLASSIFICATION_LEVEL ( 'unclassified' ) ;
#228 = CC_DESIGN_PERSON_AND_ORGANIZATION_ASSIGNMENT ( #71, #258, ( #316 ) ) ;
#229 = EDGE_LOOP ( 'NONE', ( #21 ) ) ;
#230 = CARTESIAN_POINT ( 'NONE',  ( 2.918466071074201231E-14, 0.000000000000000000, 8.358819045102515943 ) ) ;
#231 = ORIENTED_EDGE ( 'NONE', *, *, #106, .F. ) ;
#232 = DIRECTION ( 'NONE',  ( 1.000000000000000000, 0.000000000000000000, 0.000000000000000000 ) ) ;
#233 = EDGE_LOOP ( 'NONE', ( #201 ) ) ;
#234 = DIRECTION ( 'NONE',  ( 3.491481338843133355E-15, -0.000000000000000000, 1.000000000000000000 ) ) ;
#235 = CYLINDRICAL_SURFACE ( 'NONE', #45, 0.6444854825538213206 ) ;
#236 = CARTESIAN_POINT ( 'NONE',  ( 1.326762908760390423E-13, 0.000000000000000000, 38.00000000000000000 ) ) ;
#237 = FACE_OUTER_BOUND ( 'NONE', #55, .T. ) ;
#238 = CIRCLE ( 'NONE', #357, 0.6444854825538213206 ) ;
#239 = DIRECTION ( 'NONE',  ( 1.000000000000000000, 0.000000000000000000, -3.273063162220396735E-15 ) ) ;
#240 = CARTESIAN_POINT ( 'NONE',  ( 2.694380998464873158E-15, 0.000000000000000000, 0.7717013888888859530 ) ) ;
#241 = ORIENTED_EDGE ( 'NONE', *, *, #275, .F. ) ;
#242 = VERTEX_POINT ( 'NONE', #219 ) ;
#243 = PERSON_AND_ORGANIZATION ( #277, #175 ) ;
#244 = ADVANCED_FACE ( 'NONE', ( #336, #266 ), #359, .T. ) ;
#245 = TOROIDAL_SURFACE ( 'NONE', #278, 1.529999999999999138, 1.000000000000000444 ) ;
#246 = LOCAL_TIME ( 8, 23, 29.00000000000000000, #75 ) ;
#247 = VERTEX_POINT ( 'NONE', #306 ) ;
#248 = UNCERTAINTY_MEASURE_WITH_UNIT (LENGTH_MEASURE( 1.000000000000000082E-05 ), #276, 'distance_accuracy_value', 'NONE');
#249 = CARTESIAN_POINT ( 'NONE',  ( 1.500000000000128120, 0.000000000000000000, 37.69999999999998863 ) ) ;
#250 = COORDINATED_UNIVERSAL_TIME_OFFSET ( 1, 0, .AHEAD. ) ;
#251 = PRODUCT_DEFINITION ( 'UNKNOWN', '', #316, #14 ) ;
#252 = CIRCLE ( 'NONE', #349, 0.5299999999999990274 ) ;
#253 = PERSON_AND_ORGANIZATION_ROLE ( 'creator' ) ;
#254 = LOCAL_TIME ( 8, 23, 29.00000000000000000, #320 ) ;
#255 = CARTESIAN_POINT ( 'NONE',  ( 3.695151083608988060E-15, 0.000000000000000000, 1.058333333333334680 ) ) ;
#256 = APPROVAL_STATUS ( 'not_yet_approved' ) ;
#257 = FACE_OUTER_BOUND ( 'NONE', #233, .T. ) ;
#258 = PERSON_AND_ORGANIZATION_ROLE ( 'design_supplier' ) ;
#259 = ADVANCED_FACE ( 'NONE', ( #372, #152 ), #245, .F. ) ;
#260 = FACE_BOUND ( 'NONE', #271, .T. ) ;
#261 = FACE_OUTER_BOUND ( 'NONE', #304, .T. ) ;
#262 = DIRECTION ( 'NONE',  ( 3.491481338843133355E-15, -0.000000000000000000, 1.000000000000000000 ) ) ;
#263 = FACE_OUTER_BOUND ( 'NONE', #99, .T. ) ;
#264 = CC_DESIGN_PERSON_AND_ORGANIZATION_ASSIGNMENT ( #243, #307, ( #159 ) ) ;
#265 = ORIENTED_EDGE ( 'NONE', *, *, #207, .T. ) ;
#266 = FACE_OUTER_BOUND ( 'NONE', #229, .T. ) ;
#267 = CARTESIAN_POINT ( 'NONE',  ( 3.695151083608988060E-15, 0.000000000000000000, 1.058333333333334680 ) ) ;
#268 = DIRECTION ( 'NONE',  ( 1.000000000000000000, 0.000000000000000000, -3.682196057497939572E-15 ) ) ;
#269 = FACE_OUTER_BOUND ( 'NONE', #112, .T. ) ;
#270 = DIRECTION ( 'NONE',  ( 1.000000000000000000, 0.000000000000000000, -3.532778664303614529E-15 ) ) ;
#271 = EDGE_LOOP ( 'NONE', ( #205 ) ) ;
#272 = CARTESIAN_POINT ( 'NONE',  ( 1.326762908760390423E-13, 0.000000000000000000, 38.00000000000000000 ) ) ;
#273 = EDGE_LOOP ( 'NONE', ( #337 ) ) ;
#274 = DIRECTION ( 'NONE',  ( 0.000000000000000000, 0.000000000000000000, 1.000000000000000000 ) ) ;
#275 = EDGE_CURVE ( 'NONE', #247, #247, #182, .T. ) ;
#276 =( LENGTH_UNIT ( ) NAMED_UNIT ( * ) SI_UNIT ( .MILLI., .METRE. ) );
#277 = PERSON ( 'UNSPECIFIED', 'UNSPECIFIED', 'UNSPECIFIED', ('UNSPECIFIED'), ('UNSPECIFIED'), ('UNSPECIFIED') ) ;
#278 = AXIS2_PLACEMENT_3D ( 'NONE', #224, #318, #73 ) ;
#279 = CALENDAR_DATE ( 2023, 28, 9 ) ;
#280 = ADVANCED_FACE ( 'NONE', ( #382 ), #81, .F. ) ;
#281 = DIRECTION ( 'NONE',  ( -3.491481338843133355E-15, 0.000000000000000000, -1.000000000000000000 ) ) ;
#282 = CIRCLE ( 'NONE', #118, 0.6444854825538212095 ) ;
#283 = DIRECTION ( 'NONE',  ( 1.000000000000000000, 0.000000000000000000, -3.480859606400830004E-15 ) ) ;
#284 = COORDINATED_UNIVERSAL_TIME_OFFSET ( 1, 0, .AHEAD. ) ;
#285 = ADVANCED_FACE ( 'NONE', ( #163 ), #190, .F. ) ;
#286 = DIRECTION ( 'NONE',  ( 3.491481338843133355E-15, -0.000000000000000000, 1.000000000000000000 ) ) ;
#287 = EDGE_LOOP ( 'NONE', ( #231 ) ) ;
#288 = AXIS2_PLACEMENT_3D ( 'NONE', #58, #114, #24 ) ;
#289 = EDGE_LOOP ( 'NONE', ( #82 ) ) ;
#290 = CARTESIAN_POINT ( 'NONE',  ( 4.138013526090214172E-14, 0.000000000000000000, 11.85174178092930219 ) ) ;
#291 = CARTESIAN_POINT ( 'NONE',  ( 2.078522484530053910E-15, 0.000000000000000000, 0.5953125000000003553 ) ) ;
#292 = DIRECTION ( 'NONE',  ( 3.491481338843133355E-15, -0.000000000000000000, 1.000000000000000000 ) ) ;
#293 = EDGE_LOOP ( 'NONE', ( #265 ) ) ;
#294 = DIRECTION ( 'NONE',  ( -1.000000000000000000, 0.000000000000000000, 3.491481338843133355E-15 ) ) ;
#295 = APPROVAL_PERSON_ORGANIZATION ( #20, #136, #144 ) ;
#296 = FACE_OUTER_BOUND ( 'NONE', #273, .T. ) ;
#297 = DIRECTION ( 'NONE',  ( 3.491481338843133355E-15, -0.000000000000000000, 1.000000000000000000 ) ) ;
#298 = ADVANCED_FACE ( 'NONE', ( #260, #48 ), #308, .T. ) ;
#299 = FACE_OUTER_BOUND ( 'NONE', #385, .T. ) ;
#300 = DIRECTION ( 'NONE',  ( 1.000000000000000000, 0.000000000000000000, -3.491481338843133355E-15 ) ) ;
#301 = ORIENTED_EDGE ( 'NONE', *, *, #322, .F. ) ;
#302 =( NAMED_UNIT ( * ) PLANE_ANGLE_UNIT ( ) SI_UNIT ( $, .RADIAN. ) );
#303 = AXIS2_PLACEMENT_3D ( 'NONE', #132, #126, #346 ) ;
#304 = EDGE_LOOP ( 'NONE', ( #131 ) ) ;
#305 = CARTESIAN_POINT ( 'NONE',  ( 0.6444854825538234300, 0.000000000000000000, 0.5953124999999980238 ) ) ;
#306 = CARTESIAN_POINT ( 'NONE',  ( 0.9500000000000027311, 0.000000000000000000, 0.8157986111111092953 ) ) ;
#307 = PERSON_AND_ORGANIZATION_ROLE ( 'design_owner' ) ;
#308 = CONICAL_SURFACE ( 'NONE', #189, 0.9499999999999999556, 1.047197551196591192 ) ;
#309 = CARTESIAN_POINT ( 'NONE',  ( 0.5300000000000273381, 0.000000000000000000, 8.099999999999997868 ) ) ;
#310 = CARTESIAN_POINT ( 'NONE',  ( 1.326762908760390423E-13, 0.000000000000000000, 38.00000000000000000 ) ) ;
#311 = PERSON_AND_ORGANIZATION ( #277, #175 ) ;
#312 = DIRECTION ( 'NONE',  ( 3.491481338843133355E-15, -0.000000000000000000, 1.000000000000000000 ) ) ;
#313 = AXIS2_PLACEMENT_3D ( 'NONE', #85, #204, #88 ) ;
#314 = DIRECTION ( 'NONE',  ( 1.000000000000000000, 0.000000000000000000, -3.532778664303614529E-15 ) ) ;
#315 = CALENDAR_DATE ( 2023, 28, 9 ) ;
#316 = PRODUCT_DEFINITION_FORMATION_WITH_SPECIFIED_SOURCE ( 'ANY', '', #159, .NOT_KNOWN. ) ;
#317 = EDGE_CURVE ( 'NONE', #341, #341, #350, .T. ) ;
#318 = DIRECTION ( 'NONE',  ( 3.491481338843133355E-15, -0.000000000000000000, 1.000000000000000000 ) ) ;
#319 = ORIENTED_EDGE ( 'NONE', *, *, #362, .T. ) ;
#320 = COORDINATED_UNIVERSAL_TIME_OFFSET ( 1, 0, .AHEAD. ) ;
#321 = ORIENTED_EDGE ( 'NONE', *, *, #317, .T. ) ;
#322 = EDGE_CURVE ( 'NONE', #3, #3, #383, .T. ) ;
#323 = CARTESIAN_POINT ( 'NONE',  ( 3.464204140883415558E-15, 0.000000000000000000, 0.9921874999999982236 ) ) ;
#324 = LOCAL_TIME ( 8, 23, 29.00000000000000000, #250 ) ;
#325 = EDGE_LOOP ( 'NONE', ( #2 ) ) ;
#326 = EDGE_LOOP ( 'NONE', ( #200 ) ) ;
#327 = CARTESIAN_POINT ( 'NONE',  ( 1.326762908760390423E-13, 0.000000000000000000, 38.00000000000000000 ) ) ;
#328 = AXIS2_PLACEMENT_3D ( 'NONE', #25, #32, #294 ) ;
#329 = CC_DESIGN_PERSON_AND_ORGANIZATION_ASSIGNMENT ( #352, #79, ( #27 ) ) ;
#330 = AXIS2_PLACEMENT_3D ( 'NONE', #230, #354, #199 ) ;
#331 = DIRECTION ( 'NONE',  ( 3.491481338843133355E-15, -0.000000000000000000, 1.000000000000000000 ) ) ;
#332 = CARTESIAN_POINT ( 'NONE',  ( 0.000000000000000000, 0.000000000000000000, 0.000000000000000000 ) ) ;
#333 = EDGE_LOOP ( 'NONE', ( #301 ) ) ;
#334 = VERTEX_POINT ( 'NONE', #6 ) ;
#335 = EDGE_CURVE ( 'NONE', #153, #153, #72, .T. ) ;
#336 = FACE_OUTER_BOUND ( 'NONE', #78, .T. ) ;
#337 = ORIENTED_EDGE ( 'NONE', *, *, #347, .T. ) ;
#338 = CARTESIAN_POINT ( 'NONE',  ( 0.5640741737109576937, 0.000000000000000000, 8.358819045102514167 ) ) ;
#339 = AXIS2_PLACEMENT_3D ( 'NONE', #69, #191, #160 ) ;
#340 = DIRECTION ( 'NONE',  ( 3.491481338843133355E-15, -0.000000000000000000, 1.000000000000000000 ) ) ;
#341 = VERTEX_POINT ( 'NONE', #65 ) ;
#342 = DATE_AND_TIME ( #279, #254 ) ;
#343 = EDGE_CURVE ( 'NONE', #9, #9, #141, .T. ) ;
#344 = CC_DESIGN_APPROVAL ( #83, ( #251 ) ) ;
#345 = PRODUCT_DEFINITION_SHAPE ( 'NONE', 'NONE',  #251 ) ;
#346 = DIRECTION ( 'NONE',  ( 1.000000000000000000, 0.000000000000000000, -3.491481338843133355E-15 ) ) ;
#347 = EDGE_CURVE ( 'NONE', #374, #374, #238, .T. ) ;
#348 = ORIENTED_EDGE ( 'NONE', *, *, #157, .F. ) ;
#349 = AXIS2_PLACEMENT_3D ( 'NONE', #117, #146, #239 ) ;
#350 = CIRCLE ( 'NONE', #74, 0.9499999999999999556 ) ;
#351 = DIRECTION ( 'NONE',  ( -1.000000000000000000, 0.000000000000000000, 3.480859606400830004E-15 ) ) ;
#352 = PERSON_AND_ORGANIZATION ( #277, #175 ) ;
#353 = ORIENTED_EDGE ( 'NONE', *, *, #317, .F. ) ;
#354 = DIRECTION ( 'NONE',  ( 3.491481338843133355E-15, -0.000000000000000000, 1.000000000000000000 ) ) ;
#355 = ORIENTED_EDGE ( 'NONE', *, *, #106, .T. ) ;
#356 = CYLINDRICAL_SURFACE ( 'NONE', #313, 0.9499999999999998446 ) ;
#357 = AXIS2_PLACEMENT_3D ( 'NONE', #12, #22, #137 ) ;
#358 = ORIENTED_EDGE ( 'NONE', *, *, #148, .T. ) ;
#359 = CYLINDRICAL_SURFACE ( 'NONE', #135, 0.9499999999999999556 ) ;
#360 = CYLINDRICAL_SURFACE ( 'NONE', #165, 0.6444854825538213206 ) ;
#361 = DIRECTION ( 'NONE',  ( 3.491481338843133355E-15, -0.000000000000000000, 1.000000000000000000 ) ) ;
#362 = EDGE_CURVE ( 'NONE', #218, #218, #282, .T. ) ;
#363 = DIRECTION ( 'NONE',  ( 1.000000000000000000, 0.000000000000000000, -4.625929269271490844E-15 ) ) ;
#364 = AXIS2_PLACEMENT_3D ( 'NONE', #332, #59, #300 ) ;
#365 = FACE_BOUND ( 'NONE', #293, .T. ) ;
#366 = ADVANCED_FACE ( 'NONE', ( #380, #222 ), #84, .T. ) ;
#367 = DIRECTION ( 'NONE',  ( 1.000000000000000000, 0.000000000000000000, -3.537922878636909870E-15 ) ) ;
#368 = EDGE_LOOP ( 'NONE', ( #111 ) ) ;
#369 = PERSON_AND_ORGANIZATION ( #277, #175 ) ;
#370 = CIRCLE ( 'NONE', #194, 0.5300000000000000266 ) ;
#371 = APPROVAL_PERSON_ORGANIZATION ( #44, #373, #197 ) ;
#372 = FACE_OUTER_BOUND ( 'NONE', #52, .T. ) ;
#373 = APPROVAL ( #256, 'UNSPECIFIED' ) ;
#374 = VERTEX_POINT ( 'NONE', #60 ) ;
#375 = CALENDAR_DATE ( 2023, 28, 9 ) ;
#376 = DIRECTION ( 'NONE',  ( 1.000000000000000000, 0.000000000000000000, 0.000000000000000000 ) ) ;
#377 = LOCAL_TIME ( 8, 23, 29.00000000000000000, #381 ) ;
#378 = APPROVAL_DATE_TIME ( #13, #83 ) ;
#379 = CC_DESIGN_DATE_AND_TIME_ASSIGNMENT ( #100, #128, ( #251 ) ) ;
#380 = FACE_BOUND ( 'NONE', #94, .T. ) ;
#381 = COORDINATED_UNIVERSAL_TIME_OFFSET ( 1, 0, .AHEAD. ) ;
#382 = FACE_OUTER_BOUND ( 'NONE', #326, .T. ) ;
#383 = CIRCLE ( 'NONE', #19, 1.500000000000000000 ) ;
#384 = DIRECTION ( 'NONE',  ( -3.491481338843133355E-15, 0.000000000000000000, -1.000000000000000000 ) ) ;
#385 = EDGE_LOOP ( 'NONE', ( #150 ) ) ;
#386 = DIRECTION ( 'NONE',  ( 3.491481338843133355E-15, -0.000000000000000000, 1.000000000000000000 ) ) ;
#387 = ORIENTED_EDGE ( 'NONE', *, *, #275, .T. ) ;
#388 = CARTESIAN_POINT ( 'NONE',  ( 1.316288464743861212E-13, 0.000000000000000000, 37.69999999999999574 ) ) ;
#389 = CIRCLE ( 'NONE', #35, 0.6444854825538213206 ) ;
#390 = AXIS2_PLACEMENT_3D ( 'NONE', #53, #17, #50 ) ;
#391 = ADVANCED_FACE ( 'NONE', ( #257, #296 ), #360, .T. ) ;
#392 = DIRECTION ( 'NONE',  ( 3.491481338843133355E-15, -0.000000000000000000, 1.000000000000000000 ) ) ;
#393 = DIRECTION ( 'NONE',  ( -1.000000000000000000, 0.000000000000000000, 3.537922878636909870E-15 ) ) ;
#394 = FACE_OUTER_BOUND ( 'NONE', #223, .T. ) ;
#395 = ADVANCED_FACE ( 'NONE', ( #237, #269 ), #172, .T. ) ;
ENDSEC;
END-ISO-10303-21;
