ISO-10303-21;
HEADER;
FILE_DESCRIPTION (( 'STEP AP203' ),
    '1' );
FILE_NAME ('966649.step',
    '2023-09-28T06:23:28',
    ( '' ),
    ( '' ),
    'SwSTEP 2.0',
    'SolidWorks 2022',
    '' );
FILE_SCHEMA (( 'CONFIG_CONTROL_DESIGN' ));
ENDSEC;

DATA;
#1 = CONICAL_SURFACE ( 'NONE', #382, 0.7867282238307330422, 1.047197551196601406 ) ;
#2 = APPROVAL_STATUS ( 'not_yet_approved' ) ;
#3 = PERSON_AND_ORGANIZATION ( #178, #218 ) ;
#4 = EDGE_LOOP ( 'NONE', ( #326 ) ) ;
#5 = EDGE_LOOP ( 'NONE', ( #390 ) ) ;
#6 = CARTESIAN_POINT ( 'NONE',  ( 3.651677152231258605E-14, 0.000000000000000000, 10.45881904510251381 ) ) ;
#7 = CIRCLE ( 'NONE', #79, 1.245000000000000107 ) ;
#8 = FACE_OUTER_BOUND ( 'NONE', #310, .T. ) ;
#9 = DIRECTION ( 'NONE',  ( 1.000000000000000000, 0.000000000000000000, -3.483380473849010650E-15 ) ) ;
#10 = CONICAL_SURFACE ( 'NONE', #34, 1.499999999999996669, 0.7853981633974497223 ) ;
#11 = EDGE_CURVE ( 'NONE', #28, #28, #100, .T. ) ;
#12 = CIRCLE ( 'NONE', #110, 1.244999999999999885 ) ;
#13 = CARTESIAN_POINT ( 'NONE',  ( 4.031073909391624486E-15, 0.000000000000000000, 1.154545454545456762 ) ) ;
#14 = VERTEX_POINT ( 'NONE', #351 ) ;
#15 = ORIENTED_EDGE ( 'NONE', *, *, #271, .T. ) ;
#16 = FACE_OUTER_BOUND ( 'NONE', #77, .T. ) ;
#17 =( NAMED_UNIT ( * ) PLANE_ANGLE_UNIT ( ) SI_UNIT ( $, .RADIAN. ) );
#18 = CARTESIAN_POINT ( 'NONE',  ( 4.031073909391624486E-15, 0.000000000000000000, 1.154545454545456762 ) ) ;
#19 = AXIS2_PLACEMENT_3D ( 'NONE', #332, #198, #284 ) ;
#20 = CC_DESIGN_PERSON_AND_ORGANIZATION_ASSIGNMENT ( #234, #368, ( #318 ) ) ;
#21 = CALENDAR_DATE ( 2023, 28, 9 ) ;
#22 = DIRECTION ( 'NONE',  ( 1.000000000000000000, 0.000000000000000000, -5.782411586589386432E-15 ) ) ;
#23 = PERSON_AND_ORGANIZATION ( #178, #218 ) ;
#24 = CIRCLE ( 'NONE', #324, 0.9117114355132592829 ) ;
#25 = EDGE_LOOP ( 'NONE', ( #222 ) ) ;
#26 = ORIENTED_EDGE ( 'NONE', *, *, #81, .T. ) ;
#27 = COORDINATED_UNIVERSAL_TIME_OFFSET ( 1, 0, .AHEAD. ) ;
#28 = VERTEX_POINT ( 'NONE', #384 ) ;
#29 = EDGE_LOOP ( 'NONE', ( #15 ) ) ;
#30 = FACE_OUTER_BOUND ( 'NONE', #109, .T. ) ;
#31 = ORIENTED_EDGE ( 'NONE', *, *, #62, .F. ) ;
#32 = EDGE_CURVE ( 'NONE', #210, #210, #63, .T. ) ;
#33 = CARTESIAN_POINT ( 'NONE',  ( 1.245000000000002771, 0.000000000000000000, 0.8899621212121134883 ) ) ;
#34 = AXIS2_PLACEMENT_3D ( 'NONE', #130, #221, #60 ) ;
#35 = CC_DESIGN_SECURITY_CLASSIFICATION ( #131, ( #318 ) ) ;
#36 = DIRECTION ( 'NONE',  ( 3.491481338843133355E-15, -0.000000000000000000, 1.000000000000000000 ) ) ;
#37 = EDGE_LOOP ( 'NONE', ( #164 ) ) ;
#38 = CARTESIAN_POINT ( 'NONE',  ( 1.326762908760390423E-13, 0.000000000000000000, 38.00000000000000000 ) ) ;
#39 = FACE_OUTER_BOUND ( 'NONE', #285, .T. ) ;
#40 = CARTESIAN_POINT ( 'NONE',  ( 1.245000000000000773, 0.000000000000000000, 0.2645833333333276194 ) ) ;
#41 = AXIS2_PLACEMENT_3D ( 'NONE', #127, #334, #145 ) ;
#42 = AXIS2_PLACEMENT_3D ( 'NONE', #235, #226, #46 ) ;
#43 = CARTESIAN_POINT ( 'NONE',  ( 0.7900000000000040323, 0.000000000000000000, 1.154545454545453875 ) ) ;
#44 = FACE_OUTER_BOUND ( 'NONE', #365, .T. ) ;
#45 = FACE_OUTER_BOUND ( 'NONE', #258, .T. ) ;
#46 = DIRECTION ( 'NONE',  ( 1.000000000000000000, 0.000000000000000000, -3.448663883916191106E-15 ) ) ;
#47 = AXIS2_PLACEMENT_3D ( 'NONE', #38, #66, #65 ) ;
#48 = CARTESIAN_POINT ( 'NONE',  ( 0.9117114355132616144, 0.000000000000000000, 0.6494318181818167224 ) ) ;
#49 = PERSON_AND_ORGANIZATION ( #178, #218 ) ;
#50 = DATE_TIME_ROLE ( 'creation_date' ) ;
#51 = ORIENTED_EDGE ( 'NONE', *, *, #11, .T. ) ;
#52 = COORDINATED_UNIVERSAL_TIME_OFFSET ( 1, 0, .AHEAD. ) ;
#53 = AXIS2_PLACEMENT_3D ( 'NONE', #6, #270, #126 ) ;
#54 = VERTEX_POINT ( 'NONE', #102 ) ;
#55 = AXIS2_PLACEMENT_3D ( 'NONE', #18, #346, #253 ) ;
#56 = EDGE_LOOP ( 'NONE', ( #302 ) ) ;
#57 = FACE_OUTER_BOUND ( 'NONE', #104, .T. ) ;
#58 = FACE_BOUND ( 'NONE', #342, .T. ) ;
#59 = DIRECTION ( 'NONE',  ( 3.491481338843133355E-15, -0.000000000000000000, 1.000000000000000000 ) ) ;
#60 = DIRECTION ( 'NONE',  ( -1.000000000000000000, 0.000000000000000000, 4.625929269271495577E-15 ) ) ;
#61 = CC_DESIGN_APPROVAL ( #366, ( #131 ) ) ;
#62 = EDGE_CURVE ( 'NONE', #54, #54, #12, .T. ) ;
#63 = CIRCLE ( 'NONE', #41, 1.245000000000000107 ) ;
#64 = ORIENTED_EDGE ( 'NONE', *, *, #11, .F. ) ;
#65 = DIRECTION ( 'NONE',  ( 1.000000000000000000, 0.000000000000000000, 0.000000000000000000 ) ) ;
#66 = DIRECTION ( 'NONE',  ( 3.491481338843133355E-15, -0.000000000000000000, 1.000000000000000000 ) ) ;
#67 = EDGE_LOOP ( 'NONE', ( #290 ) ) ;
#68 = CARTESIAN_POINT ( 'NONE',  ( 3.779131790054634939E-15, 0.000000000000000000, 1.082386363636361759 ) ) ;
#69 = DIRECTION ( 'NONE',  ( 1.000000000000000000, 0.000000000000000000, -3.568260314509255219E-15 ) ) ;
#70 = VERTEX_POINT ( 'NONE', #193 ) ;
#71 = AXIS2_PLACEMENT_3D ( 'NONE', #239, #149, #267 ) ;
#72 = ADVANCED_FACE ( 'NONE', ( #151, #30 ), #250, .T. ) ;
#73 = CIRCLE ( 'NONE', #42, 0.9117114355132592829 ) ;
#74 = DIRECTION ( 'NONE',  ( 1.000000000000000000, 0.000000000000000000, -3.491481338843133750E-15 ) ) ;
#75 = DIRECTION ( 'NONE',  ( 1.000000000000000000, 0.000000000000000000, -3.491481338843133355E-15 ) ) ;
#76 = ORIENTED_EDGE ( 'NONE', *, *, #32, .F. ) ;
#77 = EDGE_LOOP ( 'NONE', ( #83 ) ) ;
#78 = AXIS2_PLACEMENT_3D ( 'NONE', #122, #236, #272 ) ;
#79 = AXIS2_PLACEMENT_3D ( 'NONE', #219, #154, #217 ) ;
#80 = CALENDAR_DATE ( 2023, 28, 9 ) ;
#81 = EDGE_CURVE ( 'NONE', #162, #162, #379, .T. ) ;
#82 = SECURITY_CLASSIFICATION_LEVEL ( 'unclassified' ) ;
#83 = ORIENTED_EDGE ( 'NONE', *, *, #229, .F. ) ;
#84 = APPROVAL_STATUS ( 'not_yet_approved' ) ;
#85 = CYLINDRICAL_SURFACE ( 'NONE', #19, 0.7899999999999994804 ) ;
#86 = EDGE_LOOP ( 'NONE', ( #64 ) ) ;
#87 = CARTESIAN_POINT ( 'NONE',  ( 2.267479074032790351E-15, 0.000000000000000000, 0.6494318181818198310 ) ) ;
#88 = PERSON_AND_ORGANIZATION ( #178, #218 ) ;
#89 = AXIS2_PLACEMENT_3D ( 'NONE', #386, #159, #192 ) ;
#90 = DIRECTION ( 'NONE',  ( 1.000000000000000000, 0.000000000000000000, -3.483380473849010650E-15 ) ) ;
#91 = CYLINDRICAL_SURFACE ( 'NONE', #361, 0.9117114355132592829 ) ;
#92 = VERTEX_POINT ( 'NONE', #33 ) ;
#93 = APPROVAL ( #2, 'UNSPECIFIED' ) ;
#94 = ORIENTED_EDGE ( 'NONE', *, *, #271, .F. ) ;
#95 = DIRECTION ( 'NONE',  ( 3.491481338843133355E-15, -0.000000000000000000, 1.000000000000000000 ) ) ;
#96 = AXIS2_PLACEMENT_3D ( 'NONE', #274, #303, #124 ) ;
#97 = LOCAL_TIME ( 8, 23, 28.00000000000000000, #207 ) ;
#98 = EDGE_CURVE ( 'NONE', #301, #301, #317, .T. ) ;
#99 = CARTESIAN_POINT ( 'NONE',  ( 3.651677152231258605E-14, 0.000000000000000000, 10.45881904510251381 ) ) ;
#100 = CIRCLE ( 'NONE', #53, 0.8240741737109288367 ) ;
#101 = FACE_OUTER_BOUND ( 'NONE', #199, .T. ) ;
#102 = CARTESIAN_POINT ( 'NONE',  ( 1.245000000000002771, 0.000000000000000000, 0.8418560606060524476 ) ) ;
#103 = UNCERTAINTY_MEASURE_WITH_UNIT (LENGTH_MEASURE( 1.000000000000000082E-05 ), #196, 'distance_accuracy_value', 'NONE');
#104 = EDGE_LOOP ( 'NONE', ( #94 ) ) ;
#105 = DIRECTION ( 'NONE',  ( 3.491481338843133355E-15, -0.000000000000000000, 1.000000000000000000 ) ) ;
#106 = PRODUCT_RELATED_PRODUCT_CATEGORY ( 'detail', '', ( #376 ) ) ;
#107 = CYLINDRICAL_SURFACE ( 'NONE', #89, 1.245000000000000107 ) ;
#108 = CARTESIAN_POINT ( 'NONE',  ( 0.7867282238307330422, 0.000000000000000000, -2.746846912246208279E-15 ) ) ;
#109 = EDGE_LOOP ( 'NONE', ( #295 ) ) ;
#110 = AXIS2_PLACEMENT_3D ( 'NONE', #215, #244, #90 ) ;
#111 = CIRCLE ( 'NONE', #173, 0.7867282238307330422 ) ;
#112 = DIRECTION ( 'NONE',  ( 1.000000000000000000, 0.000000000000000000, 0.000000000000000000 ) ) ;
#113 =( NAMED_UNIT ( * ) SI_UNIT ( $, .STERADIAN. ) SOLID_ANGLE_UNIT ( ) );
#114 = APPROVAL ( #238, 'UNSPECIFIED' ) ;
#115 = AXIS2_PLACEMENT_3D ( 'NONE', #146, #367, #245 ) ;
#116 = DATE_AND_TIME ( #147, #344 ) ;
#117 = FACE_OUTER_BOUND ( 'NONE', #5, .T. ) ;
#118 = EDGE_LOOP ( 'NONE', ( #208 ) ) ;
#119 = CARTESIAN_POINT ( 'NONE',  ( 4.031073909391616597E-15, 0.9117114355132591719, 1.154545454545454097 ) ) ;
#120 = PERSON_AND_ORGANIZATION_ROLE ( 'design_owner' ) ;
#121 = PLANE ( 'NONE',  #185 ) ;
#122 = CARTESIAN_POINT ( 'NONE',  ( 4.532434577740991697E-14, 0.000000000000000000, 12.98140857096136536 ) ) ;
#123 = PERSON_AND_ORGANIZATION_ROLE ( 'creator' ) ;
#124 = DIRECTION ( 'NONE',  ( 1.000000000000000000, 0.000000000000000000, -3.448663883916191106E-15 ) ) ;
#125 = CC_DESIGN_APPROVAL ( #114, ( #287 ) ) ;
#126 = DIRECTION ( 'NONE',  ( 1.000000000000000000, 0.000000000000000000, -4.210114893335605251E-15 ) ) ;
#127 = CARTESIAN_POINT ( 'NONE',  ( 9.237877709022409013E-16, 0.000000000000000000, 0.2645833333333319493 ) ) ;
#128 = DIRECTION ( 'NONE',  ( -3.491481338843133355E-15, 0.000000000000000000, -1.000000000000000000 ) ) ;
#129 = EDGE_CURVE ( 'NONE', #148, #148, #305, .T. ) ;
#130 = CARTESIAN_POINT ( 'NONE',  ( 1.316288464743861212E-13, 0.000000000000000000, 37.69999999999999574 ) ) ;
#131 = SECURITY_CLASSIFICATION ( '', '', #82 ) ;
#132 = ADVANCED_FACE ( 'NONE', ( #57, #374 ), #91, .T. ) ;
#133 = AXIS2_PLACEMENT_3D ( 'NONE', #337, #369, #212 ) ;
#134 = LOCAL_TIME ( 8, 23, 28.00000000000000000, #296 ) ;
#135 = ORIENTED_EDGE ( 'NONE', *, *, #249, .F. ) ;
#136 = EDGE_CURVE ( 'NONE', #14, #14, #298, .T. ) ;
#137 = DIRECTION ( 'NONE',  ( -3.491481338843133355E-15, 0.000000000000000000, -1.000000000000000000 ) ) ;
#138 = FACE_OUTER_BOUND ( 'NONE', #280, .T. ) ;
#139 = CYLINDRICAL_SURFACE ( 'NONE', #339, 1.244999999999999885 ) ;
#140 = ORIENTED_EDGE ( 'NONE', *, *, #129, .F. ) ;
#141 = CONICAL_SURFACE ( 'NONE', #282, 1.245000000000000107, 1.047197551196597187 ) ;
#142 = COORDINATED_UNIVERSAL_TIME_OFFSET ( 1, 0, .AHEAD. ) ;
#143 = APPROVAL_PERSON_ORGANIZATION ( #49, #93, #144 ) ;
#144 = APPROVAL_ROLE ( '' ) ;
#145 = DIRECTION ( 'NONE',  ( 1.000000000000000000, 0.000000000000000000, -3.483380473849009861E-15 ) ) ;
#146 = CARTESIAN_POINT ( 'NONE',  ( 3.561310965619996022E-14, 0.000000000000000000, 10.20000000000000107 ) ) ;
#147 = CALENDAR_DATE ( 2023, 28, 9 ) ;
#148 = VERTEX_POINT ( 'NONE', #269 ) ;
#149 = DIRECTION ( 'NONE',  ( -3.491481338843133355E-15, 0.000000000000000000, -1.000000000000000000 ) ) ;
#150 = DIRECTION ( 'NONE',  ( 1.000000000000000000, 0.000000000000000000, -3.448663883916191106E-15 ) ) ;
#151 = FACE_BOUND ( 'NONE', #25, .T. ) ;
#152 = ADVANCED_FACE ( 'NONE', ( #340 ), #183, .F. ) ;
#153 = CC_DESIGN_DATE_AND_TIME_ASSIGNMENT ( #116, #50, ( #287 ) ) ;
#154 = DIRECTION ( 'NONE',  ( 3.491481338843133355E-15, -0.000000000000000000, 1.000000000000000000 ) ) ;
#155 = CONICAL_SURFACE ( 'NONE', #205, 0.8240741737109288367, 0.2617993877991431351 ) ;
#156 = DIRECTION ( 'NONE',  ( 1.000000000000000000, 0.000000000000000000, -3.491481338843133750E-15 ) ) ;
#157 = CARTESIAN_POINT ( 'NONE',  ( 3.107286138489360116E-15, 0.000000000000000000, 0.8899621212121178182 ) ) ;
#158 = CC_DESIGN_PERSON_AND_ORGANIZATION_ASSIGNMENT ( #3, #123, ( #287 ) ) ;
#159 = DIRECTION ( 'NONE',  ( 3.491481338843133355E-15, -0.000000000000000000, 1.000000000000000000 ) ) ;
#160 = DIRECTION ( 'NONE',  ( 3.491481338843133355E-15, -0.000000000000000000, 1.000000000000000000 ) ) ;
#161 = DIRECTION ( 'NONE',  ( 3.491481338843133355E-15, -0.000000000000000000, 1.000000000000000000 ) ) ;
#162 = VERTEX_POINT ( 'NONE', #175 ) ;
#163 = CC_DESIGN_PERSON_AND_ORGANIZATION_ASSIGNMENT ( #23, #329, ( #131 ) ) ;
#164 = ORIENTED_EDGE ( 'NONE', *, *, #136, .T. ) ;
#165 = TOROIDAL_SURFACE ( 'NONE', #273, 1.789999999999999147, 1.000000000000000000 ) ;
#166 = PERSON_AND_ORGANIZATION_ROLE ( 'design_supplier' ) ;
#167 = CARTESIAN_POINT ( 'NONE',  ( 1.326762908760390423E-13, 0.000000000000000000, 38.00000000000000000 ) ) ;
#168 = MANIFOLD_SOLID_BREP ( 'Corps-Déplacer/Copier1', #363 ) ;
#169 = CC_DESIGN_PERSON_AND_ORGANIZATION_ASSIGNMENT ( #371, #166, ( #318 ) ) ;
#170 = PERSON_AND_ORGANIZATION ( #178, #218 ) ;
#171 = ORIENTED_EDGE ( 'NONE', *, *, #32, .T. ) ;
#172 = AXIS2_PLACEMENT_3D ( 'NONE', #312, #308, #277 ) ;
#173 = AXIS2_PLACEMENT_3D ( 'NONE', #186, #36, #156 ) ;
#174 = APPROVAL_DATE_TIME ( #266, #93 ) ;
#175 = CARTESIAN_POINT ( 'NONE',  ( 0.9117114355132610592, 0.000000000000000000, 0.5051136363636337112 ) ) ;
#176 = EDGE_LOOP ( 'NONE', ( #330 ) ) ;
#177 = DIRECTION ( 'NONE',  ( 3.491481338843133355E-15, -0.000000000000000000, 1.000000000000000000 ) ) ;
#178 = PERSON ( 'UNSPECIFIED', 'UNSPECIFIED', 'UNSPECIFIED', ('UNSPECIFIED'), ('UNSPECIFIED'), ('UNSPECIFIED') ) ;
#179 = EDGE_LOOP ( 'NONE', ( #140 ) ) ;
#180 = EDGE_CURVE ( 'NONE', #70, #70, #7, .T. ) ;
#181 = PLANE ( 'NONE',  #260 ) ;
#182 = LOCAL_TIME ( 8, 23, 28.00000000000000000, #52 ) ;
#183 = PLANE ( 'NONE',  #172 ) ;
#184 = EDGE_LOOP ( 'NONE', ( #171 ) ) ;
#185 = AXIS2_PLACEMENT_3D ( 'NONE', #315, #264, #75 ) ;
#186 = CARTESIAN_POINT ( 'NONE',  ( 0.000000000000000000, 0.000000000000000000, 0.000000000000000000 ) ) ;
#187 = CIRCLE ( 'NONE', #115, 0.7899999999999990363 ) ;
#188 = FACE_OUTER_BOUND ( 'NONE', #213, .T. ) ;
#189 = ORIENTED_EDGE ( 'NONE', *, *, #180, .F. ) ;
#190 = FACE_OUTER_BOUND ( 'NONE', #86, .T. ) ;
#191 = ADVANCED_FACE ( 'NONE', ( #8, #188 ), #343, .T. ) ;
#192 = DIRECTION ( 'NONE',  ( 1.000000000000000000, 0.000000000000000000, -5.573408758158416250E-15 ) ) ;
#193 = CARTESIAN_POINT ( 'NONE',  ( 1.245000000000000995, 0.000000000000000000, 0.3126893939393886046 ) ) ;
#194 = CC_DESIGN_APPROVAL ( #93, ( #318 ) ) ;
#195 = ORIENTED_EDGE ( 'NONE', *, *, #129, .T. ) ;
#196 =( LENGTH_UNIT ( ) NAMED_UNIT ( * ) SI_UNIT ( .MILLI., .METRE. ) );
#197 = FACE_BOUND ( 'NONE', #176, .T. ) ;
#198 = DIRECTION ( 'NONE',  ( 3.491481338843133355E-15, -0.000000000000000000, 1.000000000000000000 ) ) ;
#199 = EDGE_LOOP ( 'NONE', ( #195 ) ) ;
#200 = EDGE_CURVE ( 'NONE', #320, #320, #111, .T. ) ;
#201 = ADVANCED_BREP_SHAPE_REPRESENTATION ( '966649', ( #168, #240 ), #265 ) ;
#202 = ORIENTED_EDGE ( 'NONE', *, *, #62, .T. ) ;
#203 = APPLICATION_CONTEXT ( 'configuration controlled 3d designs of mechanical parts and assemblies' ) ;
#204 = APPLICATION_PROTOCOL_DEFINITION ( 'international standard', 'config_control_design', 1994, #233 ) ;
#205 = AXIS2_PLACEMENT_3D ( 'NONE', #99, #345, #307 ) ;
#206 = DATE_AND_TIME ( #80, #182 ) ;
#207 = COORDINATED_UNIVERSAL_TIME_OFFSET ( 1, 0, .AHEAD. ) ;
#208 = ORIENTED_EDGE ( 'NONE', *, *, #98, .F. ) ;
#209 = CALENDAR_DATE ( 2023, 28, 9 ) ;
#210 = VERTEX_POINT ( 'NONE', #40 ) ;
#211 = FACE_OUTER_BOUND ( 'NONE', #299, .T. ) ;
#212 = DIRECTION ( 'NONE',  ( 1.000000000000000000, 0.000000000000000000, -4.625929269271495577E-15 ) ) ;
#213 = EDGE_LOOP ( 'NONE', ( #26 ) ) ;
#214 = PRODUCT_DEFINITION_SHAPE ( 'NONE', 'NONE',  #287 ) ;
#215 = CARTESIAN_POINT ( 'NONE',  ( 2.939324725598041114E-15, 0.000000000000000000, 0.8418560606060567775 ) ) ;
#216 = ADVANCED_FACE ( 'NONE', ( #248, #381 ), #155, .T. ) ;
#217 = DIRECTION ( 'NONE',  ( 1.000000000000000000, 0.000000000000000000, -3.483380473849009861E-15 ) ) ;
#218 = ORGANIZATION ( 'UNSPECIFIED', 'UNSPECIFIED', '' ) ;
#219 = CARTESIAN_POINT ( 'NONE',  ( 1.091749183793559706E-15, 0.000000000000000000, 0.3126893939393929345 ) ) ;
#220 = CC_DESIGN_DATE_AND_TIME_ASSIGNMENT ( #300, #268, ( #131 ) ) ;
#221 = DIRECTION ( 'NONE',  ( -3.491481338843133355E-15, 0.000000000000000000, -1.000000000000000000 ) ) ;
#222 = ORIENTED_EDGE ( 'NONE', *, *, #278, .F. ) ;
#223 = DIRECTION ( 'NONE',  ( -1.000000000000000000, 0.000000000000000000, 3.483380473849009861E-15 ) ) ;
#224 = CARTESIAN_POINT ( 'NONE',  ( 0.9117114355132630577, 0.000000000000000000, 1.082386363636358428 ) ) ;
#225 = DIRECTION ( 'NONE',  ( 3.491481338843133355E-15, -0.000000000000000000, 1.000000000000000000 ) ) ;
#226 = DIRECTION ( 'NONE',  ( 3.491481338843133355E-15, -0.000000000000000000, 1.000000000000000000 ) ) ;
#227 = AXIS2_PLACEMENT_3D ( 'NONE', #13, #160, #69 ) ;
#228 = ORIENTED_EDGE ( 'NONE', *, *, #98, .T. ) ;
#229 = EDGE_CURVE ( 'NONE', #92, #92, #309, .T. ) ;
#230 = EDGE_LOOP ( 'NONE', ( #51 ) ) ;
#231 = ADVANCED_FACE ( 'NONE', ( #251, #101 ), #10, .T. ) ;
#232 = DATE_AND_TIME ( #21, #97 ) ;
#233 = APPLICATION_CONTEXT ( 'configuration controlled 3d designs of mechanical parts and assemblies' ) ;
#234 = PERSON_AND_ORGANIZATION ( #178, #218 ) ;
#235 = CARTESIAN_POINT ( 'NONE',  ( 2.267479074032790351E-15, 0.000000000000000000, 0.6494318181818198310 ) ) ;
#236 = DIRECTION ( 'NONE',  ( 3.491481338843133355E-15, -0.000000000000000000, 1.000000000000000000 ) ) ;
#237 = FACE_OUTER_BOUND ( 'NONE', #377, .T. ) ;
#238 = APPROVAL_STATUS ( 'not_yet_approved' ) ;
#239 = CARTESIAN_POINT ( 'NONE',  ( 3.107286138489360116E-15, 0.000000000000000000, 0.8899621212121178182 ) ) ;
#240 = AXIS2_PLACEMENT_3D ( 'NONE', #281, #392, #112 ) ;
#241 = ADVANCED_FACE ( 'NONE', ( #197, #44 ), #141, .T. ) ;
#242 = ORIENTED_EDGE ( 'NONE', *, *, #180, .T. ) ;
#243 = CYLINDRICAL_SURFACE ( 'NONE', #247, 1.499999999999998224 ) ;
#244 = DIRECTION ( 'NONE',  ( 3.491481338843133355E-15, -0.000000000000000000, 1.000000000000000000 ) ) ;
#245 = DIRECTION ( 'NONE',  ( 1.000000000000000000, 0.000000000000000000, -4.391705002472934416E-15 ) ) ;
#246 = ADVANCED_FACE ( 'NONE', ( #190, #138 ), #165, .F. ) ;
#247 = AXIS2_PLACEMENT_3D ( 'NONE', #378, #95, #333 ) ;
#248 = FACE_OUTER_BOUND ( 'NONE', #118, .T. ) ;
#249 = EDGE_CURVE ( 'NONE', #359, #359, #380, .T. ) ;
#250 = CONICAL_SURFACE ( 'NONE', #71, 1.244999999999999885, 1.047197551196596965 ) ;
#251 = FACE_BOUND ( 'NONE', #4, .T. ) ;
#252 = ORIENTED_EDGE ( 'NONE', *, *, #200, .T. ) ;
#253 = DIRECTION ( 'NONE',  ( 1.000000000000000000, 0.000000000000000000, -3.567583328189163948E-15 ) ) ;
#254 = EDGE_LOOP ( 'NONE', ( #261 ) ) ;
#255 = CARTESIAN_POINT ( 'NONE',  ( 0.7900000000000345635, 0.000000000000000000, 10.19999999999999751 ) ) ;
#256 = CARTESIAN_POINT ( 'NONE',  ( 1.326762908760390423E-13, 0.000000000000000000, 38.00000000000000000 ) ) ;
#257 = FACE_OUTER_BOUND ( 'NONE', #254, .T. ) ;
#258 = EDGE_LOOP ( 'NONE', ( #202 ) ) ;
#259 = MECHANICAL_CONTEXT ( 'NONE', #233, 'mechanical' ) ;
#260 = AXIS2_PLACEMENT_3D ( 'NONE', #119, #128, #275 ) ;
#261 = ORIENTED_EDGE ( 'NONE', *, *, #200, .F. ) ;
#262 = APPLICATION_PROTOCOL_DEFINITION ( 'international standard', 'config_control_design', 1994, #203 ) ;
#263 = ADVANCED_FACE ( 'NONE', ( #16, #45 ), #139, .T. ) ;
#264 = DIRECTION ( 'NONE',  ( 3.491481338843133355E-15, -0.000000000000000000, 1.000000000000000000 ) ) ;
#265 =( GEOMETRIC_REPRESENTATION_CONTEXT ( 3 ) GLOBAL_UNCERTAINTY_ASSIGNED_CONTEXT ( ( #103 ) ) GLOBAL_UNIT_ASSIGNED_CONTEXT ( ( #196, #17, #113 ) ) REPRESENTATION_CONTEXT ( 'NONE', 'WORKASPACE' ) );
#266 = DATE_AND_TIME ( #364, #306 ) ;
#267 = DIRECTION ( 'NONE',  ( -1.000000000000000000, 0.000000000000000000, 3.483380473849010650E-15 ) ) ;
#268 = DATE_TIME_ROLE ( 'classification_date' ) ;
#269 = CARTESIAN_POINT ( 'NONE',  ( 1.500000000000128120, 0.000000000000000000, 37.69999999999998863 ) ) ;
#270 = DIRECTION ( 'NONE',  ( 3.491481338843133355E-15, -0.000000000000000000, 1.000000000000000000 ) ) ;
#271 = EDGE_CURVE ( 'NONE', #323, #323, #373, .T. ) ;
#272 = DIRECTION ( 'NONE',  ( 1.000000000000000000, 0.000000000000000000, -3.469446951953614583E-15 ) ) ;
#273 = AXIS2_PLACEMENT_3D ( 'NONE', #289, #383, #319 ) ;
#274 = CARTESIAN_POINT ( 'NONE',  ( 1.763594835358834332E-15, 0.000000000000000000, 0.5051136363636368198 ) ) ;
#275 = DIRECTION ( 'NONE',  ( -1.000000000000000000, 0.000000000000000000, 3.491481338843133355E-15 ) ) ;
#276 = CONICAL_SURFACE ( 'NONE', #388, 0.9117114355132592829, 1.047197551196612508 ) ;
#277 = DIRECTION ( 'NONE',  ( -1.000000000000000000, 0.000000000000000000, 3.491481338843133355E-15 ) ) ;
#278 = EDGE_CURVE ( 'NONE', #286, #286, #24, .T. ) ;
#279 = DIRECTION ( 'NONE',  ( 3.491481338843133355E-15, -0.000000000000000000, 1.000000000000000000 ) ) ;
#280 = EDGE_LOOP ( 'NONE', ( #372 ) ) ;
#281 = CARTESIAN_POINT ( 'NONE',  ( 0.000000000000000000, 0.000000000000000000, 0.000000000000000000 ) ) ;
#282 = AXIS2_PLACEMENT_3D ( 'NONE', #322, #137, #223 ) ;
#283 = FACE_OUTER_BOUND ( 'NONE', #352, .T. ) ;
#284 = DIRECTION ( 'NONE',  ( 1.000000000000000000, 0.000000000000000000, 0.000000000000000000 ) ) ;
#285 = EDGE_LOOP ( 'NONE', ( #189 ) ) ;
#286 = VERTEX_POINT ( 'NONE', #224 ) ;
#287 = PRODUCT_DEFINITION ( 'UNKNOWN', '', #318, #393 ) ;
#288 = CARTESIAN_POINT ( 'NONE',  ( 0.000000000000000000, 0.000000000000000000, 0.000000000000000000 ) ) ;
#289 = CARTESIAN_POINT ( 'NONE',  ( 3.561310965619995391E-14, 0.000000000000000000, 10.19999999999999929 ) ) ;
#290 = ORIENTED_EDGE ( 'NONE', *, *, #325, .F. ) ;
#291 = APPROVAL_PERSON_ORGANIZATION ( #394, #114, #293 ) ;
#292 = ADVANCED_FACE ( 'NONE', ( #39, #350 ), #107, .T. ) ;
#293 = APPROVAL_ROLE ( '' ) ;
#294 = DIRECTION ( 'NONE',  ( 3.491481338843133355E-15, -0.000000000000000000, 1.000000000000000000 ) ) ;
#295 = ORIENTED_EDGE ( 'NONE', *, *, #229, .T. ) ;
#296 = COORDINATED_UNIVERSAL_TIME_OFFSET ( 1, 0, .AHEAD. ) ;
#297 = EDGE_LOOP ( 'NONE', ( #135 ) ) ;
#298 = CIRCLE ( 'NONE', #353, 1.199999999999993960 ) ;
#299 = EDGE_LOOP ( 'NONE', ( #228 ) ) ;
#300 = DATE_AND_TIME ( #209, #134 ) ;
#301 = VERTEX_POINT ( 'NONE', #348 ) ;
#302 = ORIENTED_EDGE ( 'NONE', *, *, #278, .T. ) ;
#303 = DIRECTION ( 'NONE',  ( 3.491481338843133355E-15, -0.000000000000000000, 1.000000000000000000 ) ) ;
#304 = DIRECTION ( 'NONE',  ( 1.000000000000000000, 0.000000000000000000, 0.000000000000000000 ) ) ;
#305 = CIRCLE ( 'NONE', #133, 1.499999999999996669 ) ;
#306 = LOCAL_TIME ( 8, 23, 28.00000000000000000, #27 ) ;
#307 = DIRECTION ( 'NONE',  ( 1.000000000000000000, 0.000000000000000000, -4.210114893335605251E-15 ) ) ;
#308 = DIRECTION ( 'NONE',  ( -3.491481338843133355E-15, 0.000000000000000000, -1.000000000000000000 ) ) ;
#309 = CIRCLE ( 'NONE', #355, 1.244999999999999885 ) ;
#310 = EDGE_LOOP ( 'NONE', ( #313 ) ) ;
#311 = ADVANCED_FACE ( 'NONE', ( #283, #356 ), #1, .T. ) ;
#312 = CARTESIAN_POINT ( 'NONE',  ( 1.326762908760390423E-13, 1.199999999999993960, 38.00000000000000000 ) ) ;
#313 = ORIENTED_EDGE ( 'NONE', *, *, #391, .F. ) ;
#314 = DIRECTION ( 'NONE',  ( 1.000000000000000000, 0.000000000000000000, -3.567583328189163159E-15 ) ) ;
#315 = CARTESIAN_POINT ( 'NONE',  ( 8.550351042008786945E-33, 0.000000000000000000, 2.448917869583074417E-18 ) ) ;
#316 = ADVANCED_FACE ( 'NONE', ( #370, #335 ), #181, .F. ) ;
#317 = CIRCLE ( 'NONE', #78, 1.499999999999999778 ) ;
#318 = PRODUCT_DEFINITION_FORMATION_WITH_SPECIFIED_SOURCE ( 'ANY', '', #376, .NOT_KNOWN. ) ;
#319 = DIRECTION ( 'NONE',  ( 1.000000000000000000, 0.000000000000000000, -3.491481338843133355E-15 ) ) ;
#320 = VERTEX_POINT ( 'NONE', #108 ) ;
#321 = SHAPE_DEFINITION_REPRESENTATION ( #214, #201 ) ;
#322 = CARTESIAN_POINT ( 'NONE',  ( 1.091749183793559706E-15, 0.000000000000000000, 0.3126893939393929345 ) ) ;
#323 = VERTEX_POINT ( 'NONE', #349 ) ;
#324 = AXIS2_PLACEMENT_3D ( 'NONE', #68, #105, #314 ) ;
#325 = EDGE_CURVE ( 'NONE', #354, #354, #187, .T. ) ;
#326 = ORIENTED_EDGE ( 'NONE', *, *, #136, .F. ) ;
#327 = APPROVAL_DATE_TIME ( #206, #366 ) ;
#328 = FACE_OUTER_BOUND ( 'NONE', #179, .T. ) ;
#329 = PERSON_AND_ORGANIZATION_ROLE ( 'classification_officer' ) ;
#330 = ORIENTED_EDGE ( 'NONE', *, *, #81, .F. ) ;
#331 = APPROVAL_ROLE ( '' ) ;
#332 = CARTESIAN_POINT ( 'NONE',  ( 1.326762908760390423E-13, 0.000000000000000000, 38.00000000000000000 ) ) ;
#333 = DIRECTION ( 'NONE',  ( 1.000000000000000000, 0.000000000000000000, -4.625929269271490844E-15 ) ) ;
#334 = DIRECTION ( 'NONE',  ( 3.491481338843133355E-15, -0.000000000000000000, 1.000000000000000000 ) ) ;
#335 = FACE_OUTER_BOUND ( 'NONE', #29, .T. ) ;
#336 = CARTESIAN_POINT ( 'NONE',  ( 1.326762908760390423E-13, 0.000000000000000000, 38.00000000000000000 ) ) ;
#337 = CARTESIAN_POINT ( 'NONE',  ( 1.316288464743861212E-13, 0.000000000000000000, 37.69999999999999574 ) ) ;
#338 = ADVANCED_FACE ( 'NONE', ( #237, #58 ), #276, .T. ) ;
#339 = AXIS2_PLACEMENT_3D ( 'NONE', #256, #161, #389 ) ;
#340 = FACE_OUTER_BOUND ( 'NONE', #37, .T. ) ;
#341 = ADVANCED_FACE ( 'NONE', ( #328, #211 ), #243, .T. ) ;
#342 = EDGE_LOOP ( 'NONE', ( #358 ) ) ;
#343 = CYLINDRICAL_SURFACE ( 'NONE', #47, 0.9117114355132592829 ) ;
#344 = LOCAL_TIME ( 8, 23, 28.00000000000000000, #142 ) ;
#345 = DIRECTION ( 'NONE',  ( 3.491481338843133355E-15, -0.000000000000000000, 1.000000000000000000 ) ) ;
#346 = DIRECTION ( 'NONE',  ( 3.491481338843133355E-15, -0.000000000000000000, 1.000000000000000000 ) ) ;
#347 = ADVANCED_FACE ( 'NONE', ( #257 ), #121, .F. ) ;
#348 = CARTESIAN_POINT ( 'NONE',  ( 1.500000000000045075, 0.000000000000000000, 12.98140857096136003 ) ) ;
#349 = CARTESIAN_POINT ( 'NONE',  ( 0.9117114355132631687, 0.000000000000000000, 1.154545454545453431 ) ) ;
#350 = FACE_OUTER_BOUND ( 'NONE', #184, .T. ) ;
#351 = CARTESIAN_POINT ( 'NONE',  ( 1.200000000000126743, 0.000000000000000000, 37.99999999999999289 ) ) ;
#352 = EDGE_LOOP ( 'NONE', ( #76 ) ) ;
#353 = AXIS2_PLACEMENT_3D ( 'NONE', #167, #294, #22 ) ;
#354 = VERTEX_POINT ( 'NONE', #255 ) ;
#355 = AXIS2_PLACEMENT_3D ( 'NONE', #157, #279, #9 ) ;
#356 = FACE_BOUND ( 'NONE', #357, .T. ) ;
#357 = EDGE_LOOP ( 'NONE', ( #252 ) ) ;
#358 = ORIENTED_EDGE ( 'NONE', *, *, #391, .T. ) ;
#359 = VERTEX_POINT ( 'NONE', #43 ) ;
#360 = APPROVAL_DATE_TIME ( #232, #114 ) ;
#361 = AXIS2_PLACEMENT_3D ( 'NONE', #336, #59, #304 ) ;
#362 = APPROVAL_PERSON_ORGANIZATION ( #88, #366, #331 ) ;
#363 = CLOSED_SHELL ( 'NONE', ( #347, #311, #292, #241, #191, #338, #263, #72, #132, #316, #395, #246, #216, #341, #231, #152 ) ) ;
#364 = CALENDAR_DATE ( 2023, 28, 9 ) ;
#365 = EDGE_LOOP ( 'NONE', ( #242 ) ) ;
#366 = APPROVAL ( #84, 'UNSPECIFIED' ) ;
#367 = DIRECTION ( 'NONE',  ( 3.491481338843133355E-15, -0.000000000000000000, 1.000000000000000000 ) ) ;
#368 = PERSON_AND_ORGANIZATION_ROLE ( 'creator' ) ;
#369 = DIRECTION ( 'NONE',  ( 3.491481338843133355E-15, -0.000000000000000000, 1.000000000000000000 ) ) ;
#370 = FACE_BOUND ( 'NONE', #297, .T. ) ;
#371 = PERSON_AND_ORGANIZATION ( #178, #218 ) ;
#372 = ORIENTED_EDGE ( 'NONE', *, *, #325, .T. ) ;
#373 = CIRCLE ( 'NONE', #55, 0.9117114355132591719 ) ;
#374 = FACE_OUTER_BOUND ( 'NONE', #56, .T. ) ;
#375 = CC_DESIGN_PERSON_AND_ORGANIZATION_ASSIGNMENT ( #170, #120, ( #376 ) ) ;
#376 = PRODUCT ( '966649', '966649', '', ( #259 ) ) ;
#377 = EDGE_LOOP ( 'NONE', ( #31 ) ) ;
#378 = CARTESIAN_POINT ( 'NONE',  ( 1.326762908760390423E-13, 0.000000000000000000, 38.00000000000000000 ) ) ;
#379 = CIRCLE ( 'NONE', #96, 0.9117114355132592829 ) ;
#380 = CIRCLE ( 'NONE', #227, 0.7900000000000000355 ) ;
#381 = FACE_BOUND ( 'NONE', #230, .T. ) ;
#382 = AXIS2_PLACEMENT_3D ( 'NONE', #288, #225, #74 ) ;
#383 = DIRECTION ( 'NONE',  ( 3.491481338843133355E-15, -0.000000000000000000, 1.000000000000000000 ) ) ;
#384 = CARTESIAN_POINT ( 'NONE',  ( 0.8240741737109653631, 0.000000000000000000, 10.45881904510251026 ) ) ;
#385 = VERTEX_POINT ( 'NONE', #48 ) ;
#386 = CARTESIAN_POINT ( 'NONE',  ( 1.326762908760390423E-13, 0.000000000000000000, 38.00000000000000000 ) ) ;
#387 = FACE_OUTER_BOUND ( 'NONE', #67, .T. ) ;
#388 = AXIS2_PLACEMENT_3D ( 'NONE', #87, #177, #150 ) ;
#389 = DIRECTION ( 'NONE',  ( 1.000000000000000000, 0.000000000000000000, -5.573408758158417039E-15 ) ) ;
#390 = ORIENTED_EDGE ( 'NONE', *, *, #249, .T. ) ;
#391 = EDGE_CURVE ( 'NONE', #385, #385, #73, .T. ) ;
#392 = DIRECTION ( 'NONE',  ( 0.000000000000000000, 0.000000000000000000, 1.000000000000000000 ) ) ;
#393 = DESIGN_CONTEXT ( 'detailed design', #203, 'design' ) ;
#394 = PERSON_AND_ORGANIZATION ( #178, #218 ) ;
#395 = ADVANCED_FACE ( 'NONE', ( #387, #117 ), #85, .T. ) ;
ENDSEC;
END-ISO-10303-21;
