ISO-10303-21;
HEADER;
FILE_DESCRIPTION (( 'STEP AP203' ),
    '1' );
FILE_NAME ('966648.step',
    '2023-09-28T06:23:27',
    ( '' ),
    ( '' ),
    'SwSTEP 2.0',
    'SolidWorks 2022',
    '' );
FILE_SCHEMA (( 'CONFIG_CONTROL_DESIGN' ));
ENDSEC;

DATA;
#1 = CARTESIAN_POINT ( 'NONE',  ( 1.452456236958743728E-13, 0.000000000000000000, 41.60000000000000853 ) ) ;
#2 = FACE_BOUND ( 'NONE', #361, .T. ) ;
#3 = ORIENTED_EDGE ( 'NONE', *, *, #148, .F. ) ;
#4 = DIRECTION ( 'NONE',  ( 1.000000000000000000, 0.000000000000000000, -3.469446951953620105E-15 ) ) ;
#5 = PERSON_AND_ORGANIZATION ( #350, #115 ) ;
#6 = EDGE_LOOP ( 'NONE', ( #29 ) ) ;
#7 = FACE_OUTER_BOUND ( 'NONE', #55, .T. ) ;
#8 = PERSON_AND_ORGANIZATION ( #350, #115 ) ;
#9 = ADVANCED_FACE ( 'NONE', ( #61, #180 ), #137, .T. ) ;
#10 = CARTESIAN_POINT ( 'NONE',  ( 2.494226981436074790E-15, 0.000000000000000000, 0.7143750000000032019 ) ) ;
#11 =( GEOMETRIC_REPRESENTATION_CONTEXT ( 3 ) GLOBAL_UNCERTAINTY_ASSIGNED_CONTEXT ( ( #150 ) ) GLOBAL_UNIT_ASSIGNED_CONTEXT ( ( #270, #51, #388 ) ) REPRESENTATION_CONTEXT ( 'NONE', 'WORKASPACE' ) );
#12 = AXIS2_PLACEMENT_3D ( 'NONE', #90, #358, #236 ) ;
#13 = ADVANCED_FACE ( 'NONE', ( #141, #31 ), #264, .F. ) ;
#14 = ORIENTED_EDGE ( 'NONE', *, *, #121, .T. ) ;
#15 = VERTEX_POINT ( 'NONE', #318 ) ;
#16 = CARTESIAN_POINT ( 'NONE',  ( 0.5890741737109617127, 0.000000000000000000, 9.358819045102514167 ) ) ;
#17 = CIRCLE ( 'NONE', #53, 0.6883825790645851095 ) ;
#18 = CC_DESIGN_PERSON_AND_ORGANIZATION_ASSIGNMENT ( #5, #246, ( #287 ) ) ;
#19 = FACE_OUTER_BOUND ( 'NONE', #131, .T. ) ;
#20 = ORIENTED_EDGE ( 'NONE', *, *, #149, .T. ) ;
#21 = COORDINATED_UNIVERSAL_TIME_OFFSET ( 1, 0, .AHEAD. ) ;
#22 = DIRECTION ( 'NONE',  ( 3.491481338843133355E-15, -0.000000000000000000, 1.000000000000000000 ) ) ;
#23 = CYLINDRICAL_SURFACE ( 'NONE', #161, 1.054999999999999938 ) ;
#24 = DIRECTION ( 'NONE',  ( 3.491481338843133355E-15, -0.000000000000000000, 1.000000000000000000 ) ) ;
#25 = LOCAL_TIME ( 8, 23, 27.00000000000000000, #312 ) ;
#26 = DIRECTION ( 'NONE',  ( 1.000000000000000000, 0.000000000000000000, -3.494111266777929247E-15 ) ) ;
#27 = APPROVAL ( #293, 'UNSPECIFIED' ) ;
#28 = DIRECTION ( 'NONE',  ( -3.491481338843133355E-15, 0.000000000000000000, -1.000000000000000000 ) ) ;
#29 = ORIENTED_EDGE ( 'NONE', *, *, #359, .T. ) ;
#30 = DIRECTION ( 'NONE',  ( 1.000000000000000000, 0.000000000000000000, -3.494111266777929247E-15 ) ) ;
#31 = FACE_OUTER_BOUND ( 'NONE', #292, .T. ) ;
#32 = DIRECTION ( 'NONE',  ( 3.491481338843133355E-15, -0.000000000000000000, 1.000000000000000000 ) ) ;
#33 = PERSON_AND_ORGANIZATION_ROLE ( 'creator' ) ;
#34 = CONICAL_SURFACE ( 'NONE', #66, 0.5509010462138055342, 1.047197551196602072 ) ;
#35 = DIRECTION ( 'NONE',  ( 1.000000000000000000, 0.000000000000000000, -3.491481338843133750E-15 ) ) ;
#36 = CIRCLE ( 'NONE', #78, 1.054999999999999938 ) ;
#37 = DATE_AND_TIME ( #306, #134 ) ;
#38 = DIRECTION ( 'NONE',  ( 3.491481338843133355E-15, -0.000000000000000000, 1.000000000000000000 ) ) ;
#39 = DESIGN_CONTEXT ( 'detailed design', #140, 'design' ) ;
#40 = DIRECTION ( 'NONE',  ( -1.000000000000000000, 0.000000000000000000, 3.469446951953620105E-15 ) ) ;
#41 = PRODUCT_RELATED_PRODUCT_CATEGORY ( 'detail', '', ( #310 ) ) ;
#42 = EDGE_CURVE ( 'NONE', #167, #167, #365, .T. ) ;
#43 = DIRECTION ( 'NONE',  ( 1.000000000000000000, 0.000000000000000000, -3.464998755066290670E-15 ) ) ;
#44 = PERSON_AND_ORGANIZATION_ROLE ( 'creator' ) ;
#45 = AXIS2_PLACEMENT_3D ( 'NONE', #82, #201, #113 ) ;
#46 = AXIS2_PLACEMENT_3D ( 'NONE', #346, #214, #132 ) ;
#47 = CONICAL_SURFACE ( 'NONE', #297, 0.6883825790645851095, 1.047197551196602960 ) ;
#48 = VERTEX_POINT ( 'NONE', #197 ) ;
#49 = VERTEX_POINT ( 'NONE', #229 ) ;
#50 = ADVANCED_FACE ( 'NONE', ( #173, #294 ), #23, .T. ) ;
#51 =( NAMED_UNIT ( * ) PLANE_ANGLE_UNIT ( ) SI_UNIT ( $, .RADIAN. ) );
#52 = CC_DESIGN_PERSON_AND_ORGANIZATION_ASSIGNMENT ( #73, #44, ( #378 ) ) ;
#53 = AXIS2_PLACEMENT_3D ( 'NONE', #285, #338, #43 ) ;
#54 = TOROIDAL_SURFACE ( 'NONE', #210, 1.554999999999999050, 0.9999999999999997780 ) ;
#55 = EDGE_LOOP ( 'NONE', ( #111 ) ) ;
#56 = APPLICATION_PROTOCOL_DEFINITION ( 'international standard', 'config_control_design', 1994, #140 ) ;
#57 = FACE_OUTER_BOUND ( 'NONE', #355, .T. ) ;
#58 = DIRECTION ( 'NONE',  ( 3.491481338843133355E-15, -0.000000000000000000, 1.000000000000000000 ) ) ;
#59 = EDGE_LOOP ( 'NONE', ( #3 ) ) ;
#60 = DIRECTION ( 'NONE',  ( 1.000000000000000000, 0.000000000000000000, -3.469446951953614189E-15 ) ) ;
#61 = FACE_BOUND ( 'NONE', #138, .T. ) ;
#62 = DIRECTION ( 'NONE',  ( 3.491481338843133355E-15, -0.000000000000000000, 1.000000000000000000 ) ) ;
#63 = EDGE_LOOP ( 'NONE', ( #158 ) ) ;
#64 = DIRECTION ( 'NONE',  ( 1.000000000000000000, 0.000000000000000000, -3.516331370223257336E-15 ) ) ;
#65 = APPROVAL_STATUS ( 'not_yet_approved' ) ;
#66 = AXIS2_PLACEMENT_3D ( 'NONE', #94, #190, #370 ) ;
#67 = DIRECTION ( 'NONE',  ( 1.000000000000000000, 0.000000000000000000, -6.577150619817278397E-15 ) ) ;
#68 = PERSON_AND_ORGANIZATION ( #350, #115 ) ;
#69 = CARTESIAN_POINT ( 'NONE',  ( 0.000000000000000000, 0.000000000000000000, 0.000000000000000000 ) ) ;
#70 = COORDINATED_UNIVERSAL_TIME_OFFSET ( 1, 0, .AHEAD. ) ;
#71 = EDGE_CURVE ( 'NONE', #347, #347, #319, .T. ) ;
#72 = CARTESIAN_POINT ( 'NONE',  ( 3.177248018347253247E-14, 0.000000000000000000, 9.100000000000003197 ) ) ;
#73 = PERSON_AND_ORGANIZATION ( #350, #115 ) ;
#74 = CARTESIAN_POINT ( 'NONE',  ( 0.5509010462138055342, 0.000000000000000000, -1.923460722404660804E-15 ) ) ;
#75 = VERTEX_POINT ( 'NONE', #261 ) ;
#76 = LOCAL_TIME ( 8, 23, 27.00000000000000000, #372 ) ;
#77 = CIRCLE ( 'NONE', #46, 1.599999999999997646 ) ;
#78 = AXIS2_PLACEMENT_3D ( 'NONE', #291, #333, #177 ) ;
#79 = VERTEX_POINT ( 'NONE', #74 ) ;
#80 = EDGE_CURVE ( 'NONE', #382, #382, #212, .T. ) ;
#81 = VERTEX_POINT ( 'NONE', #389 ) ;
#82 = CARTESIAN_POINT ( 'NONE',  ( 1.200924102172913073E-15, 0.000000000000000000, 0.3439583333333315340 ) ) ;
#83 = PERSON_AND_ORGANIZATION ( #350, #115 ) ;
#84 = LOCAL_TIME ( 8, 23, 27.00000000000000000, #70 ) ;
#85 = ORIENTED_EDGE ( 'NONE', *, *, #42, .F. ) ;
#86 = APPROVAL_ROLE ( '' ) ;
#87 = EDGE_CURVE ( 'NONE', #48, #48, #263, .T. ) ;
#88 = CARTESIAN_POINT ( 'NONE',  ( 1.200924102172913073E-15, 0.000000000000000000, 0.3439583333333315340 ) ) ;
#89 = CARTESIAN_POINT ( 'NONE',  ( 1.466422162314116009E-13, 0.000000000000000000, 42.00000000000000000 ) ) ;
#90 = CARTESIAN_POINT ( 'NONE',  ( 1.466422162314116009E-13, 0.000000000000000000, 42.00000000000000000 ) ) ;
#91 = CARTESIAN_POINT ( 'NONE',  ( 4.434181300330779992E-15, 0.6883825790645851095, 1.270000000000000018 ) ) ;
#92 = ORIENTED_EDGE ( 'NONE', *, *, #195, .T. ) ;
#93 = AXIS2_PLACEMENT_3D ( 'NONE', #88, #328, #265 ) ;
#94 = CARTESIAN_POINT ( 'NONE',  ( 0.000000000000000000, 0.000000000000000000, 0.000000000000000000 ) ) ;
#95 = CARTESIAN_POINT ( 'NONE',  ( 1.466422162314116009E-13, 0.000000000000000000, 42.00000000000000000 ) ) ;
#96 = CALENDAR_DATE ( 2023, 28, 9 ) ;
#97 = CONICAL_SURFACE ( 'NONE', #217, 0.5890741737109290721, 0.2617993877991429130 ) ;
#98 = ADVANCED_FACE ( 'NONE', ( #240, #326 ), #54, .F. ) ;
#99 = DIRECTION ( 'NONE',  ( 3.491481338843133355E-15, -0.000000000000000000, 1.000000000000000000 ) ) ;
#100 = ORIENTED_EDGE ( 'NONE', *, *, #42, .T. ) ;
#101 = DIRECTION ( 'NONE',  ( 1.000000000000000000, 0.000000000000000000, -3.125627884642899880E-15 ) ) ;
#102 = DIRECTION ( 'NONE',  ( 3.491481338843133355E-15, -0.000000000000000000, 1.000000000000000000 ) ) ;
#103 = ADVANCED_FACE ( 'NONE', ( #172, #57 ), #257, .T. ) ;
#104 = CIRCLE ( 'NONE', #224, 0.5509010462138055342 ) ;
#105 = VERTEX_POINT ( 'NONE', #320 ) ;
#106 = ADVANCED_FACE ( 'NONE', ( #390, #19 ), #114, .T. ) ;
#107 = ADVANCED_FACE ( 'NONE', ( #112, #233 ), #213, .T. ) ;
#108 = EDGE_LOOP ( 'NONE', ( #352 ) ) ;
#109 = AXIS2_PLACEMENT_3D ( 'NONE', #203, #58, #295 ) ;
#110 = CARTESIAN_POINT ( 'NONE',  ( 1.055000000000001048, 0.000000000000000000, 0.2910416666666614804 ) ) ;
#111 = ORIENTED_EDGE ( 'NONE', *, *, #301, .T. ) ;
#112 = FACE_OUTER_BOUND ( 'NONE', #300, .T. ) ;
#113 = DIRECTION ( 'NONE',  ( -1.000000000000000000, 0.000000000000000000, 3.494111266777929247E-15 ) ) ;
#114 = CYLINDRICAL_SURFACE ( 'NONE', #12, 0.6883825790645851095 ) ;
#115 = ORGANIZATION ( 'UNSPECIFIED', 'UNSPECIFIED', '' ) ;
#116 = EDGE_LOOP ( 'NONE', ( #331 ) ) ;
#117 = ORIENTED_EDGE ( 'NONE', *, *, #195, .F. ) ;
#118 = ORIENTED_EDGE ( 'NONE', *, *, #87, .T. ) ;
#119 = DIRECTION ( 'NONE',  ( 1.000000000000000000, 0.000000000000000000, -3.491481338843132961E-15 ) ) ;
#120 = CC_DESIGN_APPROVAL ( #27, ( #378 ) ) ;
#121 = EDGE_CURVE ( 'NONE', #105, #105, #164, .T. ) ;
#122 = CARTESIAN_POINT ( 'NONE',  ( 3.267614204958515198E-14, 0.000000000000000000, 9.358819045102515943 ) ) ;
#123 = FACE_OUTER_BOUND ( 'NONE', #266, .T. ) ;
#124 = PERSON_AND_ORGANIZATION ( #350, #115 ) ;
#125 = EDGE_LOOP ( 'NONE', ( #14 ) ) ;
#126 = FACE_BOUND ( 'NONE', #125, .T. ) ;
#127 = PERSON_AND_ORGANIZATION ( #350, #115 ) ;
#128 = ORIENTED_EDGE ( 'NONE', *, *, #230, .F. ) ;
#129 = DIRECTION ( 'NONE',  ( 3.491481338843133355E-15, -0.000000000000000000, 1.000000000000000000 ) ) ;
#130 = PERSON_AND_ORGANIZATION_ROLE ( 'classification_officer' ) ;
#131 = EDGE_LOOP ( 'NONE', ( #20 ) ) ;
#132 = DIRECTION ( 'NONE',  ( 1.000000000000000000, 0.000000000000000000, -4.336808689942024047E-15 ) ) ;
#133 = VERTEX_POINT ( 'NONE', #165 ) ;
#134 = LOCAL_TIME ( 8, 23, 27.00000000000000000, #188 ) ;
#135 = EDGE_CURVE ( 'NONE', #133, #133, #185, .T. ) ;
#136 = ORIENTED_EDGE ( 'NONE', *, *, #135, .F. ) ;
#137 = CONICAL_SURFACE ( 'NONE', #45, 1.054999999999999938, 1.047197551196602960 ) ;
#138 = EDGE_LOOP ( 'NONE', ( #170 ) ) ;
#139 = CALENDAR_DATE ( 2023, 28, 9 ) ;
#140 = APPLICATION_CONTEXT ( 'configuration controlled 3d designs of mechanical parts and assemblies' ) ;
#141 = FACE_BOUND ( 'NONE', #327, .T. ) ;
#142 = DIRECTION ( 'NONE',  ( 0.000000000000000000, 0.000000000000000000, 1.000000000000000000 ) ) ;
#143 = CIRCLE ( 'NONE', #196, 0.6883825790645851095 ) ;
#144 = DIRECTION ( 'NONE',  ( -1.000000000000000000, 0.000000000000000000, 3.494111266777929247E-15 ) ) ;
#145 = CARTESIAN_POINT ( 'NONE',  ( 3.233257198157867116E-15, 0.000000000000000000, 0.9260416666666687613 ) ) ;
#146 = CARTESIAN_POINT ( 'NONE',  ( 1.939954318894705597E-15, 0.000000000000000000, 0.5556249999999971489 ) ) ;
#147 = EDGE_LOOP ( 'NONE', ( #234 ) ) ;
#148 = EDGE_CURVE ( 'NONE', #168, #168, #36, .T. ) ;
#149 = EDGE_CURVE ( 'NONE', #288, #288, #384, .T. ) ;
#150 = UNCERTAINTY_MEASURE_WITH_UNIT (LENGTH_MEASURE( 1.000000000000000082E-05 ), #270, 'distance_accuracy_value', 'NONE');
#151 = FACE_OUTER_BOUND ( 'NONE', #178, .T. ) ;
#152 = APPROVAL_PERSON_ORGANIZATION ( #204, #27, #86 ) ;
#153 = FACE_OUTER_BOUND ( 'NONE', #381, .T. ) ;
#154 = DIRECTION ( 'NONE',  ( 1.000000000000000000, 0.000000000000000000, -3.491481338843133355E-15 ) ) ;
#155 = DATE_AND_TIME ( #139, #341 ) ;
#156 = DIRECTION ( 'NONE',  ( -3.491481338843133355E-15, 0.000000000000000000, -1.000000000000000000 ) ) ;
#157 = APPROVAL_STATUS ( 'not_yet_approved' ) ;
#158 = ORIENTED_EDGE ( 'NONE', *, *, #230, .T. ) ;
#159 = DIRECTION ( 'NONE',  ( 3.491481338843133355E-15, -0.000000000000000000, 1.000000000000000000 ) ) ;
#160 = CALENDAR_DATE ( 2023, 28, 9 ) ;
#161 = AXIS2_PLACEMENT_3D ( 'NONE', #89, #205, #208 ) ;
#162 = CC_DESIGN_DATE_AND_TIME_ASSIGNMENT ( #37, #339, ( #378 ) ) ;
#163 = AXIS2_PLACEMENT_3D ( 'NONE', #1, #245, #40 ) ;
#164 = CIRCLE ( 'NONE', #371, 0.6883825790645851095 ) ;
#165 = CARTESIAN_POINT ( 'NONE',  ( 2.000000000000051070, 0.000000000000000000, 14.62446591452455991 ) ) ;
#166 = ADVANCED_FACE ( 'NONE', ( #273, #126 ), #47, .T. ) ;
#167 = VERTEX_POINT ( 'NONE', #16 ) ;
#168 = VERTEX_POINT ( 'NONE', #110 ) ;
#169 = ADVANCED_BREP_SHAPE_REPRESENTATION ( '966648', ( #313, #283 ), #11 ) ;
#170 = ORIENTED_EDGE ( 'NONE', *, *, #149, .F. ) ;
#171 = PERSON_AND_ORGANIZATION_ROLE ( 'design_owner' ) ;
#172 = FACE_BOUND ( 'NONE', #241, .T. ) ;
#173 = FACE_OUTER_BOUND ( 'NONE', #334, .T. ) ;
#174 = CARTESIAN_POINT ( 'NONE',  ( 2.000000000000141664, 0.000000000000000000, 41.60000000000000142 ) ) ;
#175 = CARTESIAN_POINT ( 'NONE',  ( 3.418014752338315494E-15, 0.000000000000000000, 0.9789583333333351511 ) ) ;
#176 = DIRECTION ( 'NONE',  ( 3.491481338843133355E-15, -0.000000000000000000, 1.000000000000000000 ) ) ;
#177 = DIRECTION ( 'NONE',  ( 1.000000000000000000, 0.000000000000000000, -3.494111266777929247E-15 ) ) ;
#178 = EDGE_LOOP ( 'NONE', ( #272 ) ) ;
#179 = CARTESIAN_POINT ( 'NONE',  ( 3.177248018347251984E-14, 0.000000000000000000, 9.099999999999999645 ) ) ;
#180 = FACE_OUTER_BOUND ( 'NONE', #226, .T. ) ;
#181 = CYLINDRICAL_SURFACE ( 'NONE', #256, 0.5549999999999997158 ) ;
#182 = APPROVAL_DATE_TIME ( #375, #221 ) ;
#183 = DIRECTION ( 'NONE',  ( 3.491481338843133355E-15, -0.000000000000000000, 1.000000000000000000 ) ) ;
#184 = AXIS2_PLACEMENT_3D ( 'NONE', #259, #228, #321 ) ;
#185 = CIRCLE ( 'NONE', #324, 2.000000000000000000 ) ;
#186 = FACE_OUTER_BOUND ( 'NONE', #147, .T. ) ;
#187 = FACE_BOUND ( 'NONE', #249, .T. ) ;
#188 = COORDINATED_UNIVERSAL_TIME_OFFSET ( 1, 0, .AHEAD. ) ;
#189 = ORIENTED_EDGE ( 'NONE', *, *, #238, .F. ) ;
#190 = DIRECTION ( 'NONE',  ( 3.491481338843133355E-15, -0.000000000000000000, 1.000000000000000000 ) ) ;
#191 = DATE_AND_TIME ( #160, #25 ) ;
#192 = AXIS2_PLACEMENT_3D ( 'NONE', #91, #237, #298 ) ;
#193 = ORIENTED_EDGE ( 'NONE', *, *, #80, .T. ) ;
#194 = CARTESIAN_POINT ( 'NONE',  ( 1.055000000000003491, 0.000000000000000000, 0.9789583333333314874 ) ) ;
#195 = EDGE_CURVE ( 'NONE', #15, #15, #17, .T. ) ;
#196 = AXIS2_PLACEMENT_3D ( 'NONE', #315, #183, #305 ) ;
#197 = CARTESIAN_POINT ( 'NONE',  ( 1.055000000000001270, 0.000000000000000000, 0.3439583333333278703 ) ) ;
#198 = EDGE_LOOP ( 'NONE', ( #309 ) ) ;
#199 = CARTESIAN_POINT ( 'NONE',  ( 1.055000000000003268, 0.000000000000000000, 0.9260416666666650976 ) ) ;
#200 = DIRECTION ( 'NONE',  ( 1.000000000000000000, 0.000000000000000000, 0.000000000000000000 ) ) ;
#201 = DIRECTION ( 'NONE',  ( -3.491481338843133355E-15, 0.000000000000000000, -1.000000000000000000 ) ) ;
#202 = APPROVAL_PERSON_ORGANIZATION ( #8, #221, #279 ) ;
#203 = CARTESIAN_POINT ( 'NONE',  ( 3.267614204958515198E-14, 0.000000000000000000, 9.358819045102515943 ) ) ;
#204 = PERSON_AND_ORGANIZATION ( #350, #115 ) ;
#205 = DIRECTION ( 'NONE',  ( 3.491481338843133355E-15, -0.000000000000000000, 1.000000000000000000 ) ) ;
#206 = DIRECTION ( 'NONE',  ( 3.491481338843133355E-15, -0.000000000000000000, 1.000000000000000000 ) ) ;
#207 = ADVANCED_FACE ( 'NONE', ( #307 ), #282, .F. ) ;
#208 = DIRECTION ( 'NONE',  ( 1.000000000000000000, 0.000000000000000000, -6.577150619817278397E-15 ) ) ;
#209 = CIRCLE ( 'NONE', #216, 0.5550000000000000488 ) ;
#210 = AXIS2_PLACEMENT_3D ( 'NONE', #179, #24, #119 ) ;
#211 = ORIENTED_EDGE ( 'NONE', *, *, #359, .F. ) ;
#212 = CIRCLE ( 'NONE', #386, 1.054999999999999938 ) ;
#213 = CYLINDRICAL_SURFACE ( 'NONE', #260, 0.6883825790645851095 ) ;
#214 = DIRECTION ( 'NONE',  ( 3.491481338843133355E-15, -0.000000000000000000, 1.000000000000000000 ) ) ;
#215 = CARTESIAN_POINT ( 'NONE',  ( 1.452456236958743728E-13, 0.000000000000000000, 41.60000000000000853 ) ) ;
#216 = AXIS2_PLACEMENT_3D ( 'NONE', #376, #38, #64 ) ;
#217 = AXIS2_PLACEMENT_3D ( 'NONE', #122, #244, #367 ) ;
#218 = FACE_OUTER_BOUND ( 'NONE', #198, .T. ) ;
#219 = DIRECTION ( 'NONE',  ( 1.000000000000000000, 0.000000000000000000, 0.000000000000000000 ) ) ;
#220 = APPROVAL_ROLE ( '' ) ;
#221 = APPROVAL ( #65, 'UNSPECIFIED' ) ;
#222 = CC_DESIGN_PERSON_AND_ORGANIZATION_ASSIGNMENT ( #68, #130, ( #391 ) ) ;
#223 = CARTESIAN_POINT ( 'NONE',  ( -3.512164257703769919E-33, 0.000000000000000000, -1.005923823401413107E-18 ) ) ;
#224 = AXIS2_PLACEMENT_3D ( 'NONE', #69, #102, #35 ) ;
#225 = EDGE_LOOP ( 'NONE', ( #373 ) ) ;
#226 = EDGE_LOOP ( 'NONE', ( #118 ) ) ;
#227 = CARTESIAN_POINT ( 'NONE',  ( 0.6883825790645869969, 0.000000000000000000, 0.5556249999999947065 ) ) ;
#228 = DIRECTION ( 'NONE',  ( 3.491481338843133355E-15, -0.000000000000000000, 1.000000000000000000 ) ) ;
#229 = CARTESIAN_POINT ( 'NONE',  ( 0.5550000000000310241, 0.000000000000000000, 9.100000000000001421 ) ) ;
#230 = EDGE_CURVE ( 'NONE', #351, #351, #77, .T. ) ;
#231 = EDGE_LOOP ( 'NONE', ( #136 ) ) ;
#232 = APPLICATION_PROTOCOL_DEFINITION ( 'international standard', 'config_control_design', 1994, #286 ) ;
#233 = FACE_OUTER_BOUND ( 'NONE', #6, .T. ) ;
#234 = ORIENTED_EDGE ( 'NONE', *, *, #301, .F. ) ;
#235 = CARTESIAN_POINT ( 'NONE',  ( 0.000000000000000000, 0.000000000000000000, 0.000000000000000000 ) ) ;
#236 = DIRECTION ( 'NONE',  ( 1.000000000000000000, 0.000000000000000000, 0.000000000000000000 ) ) ;
#237 = DIRECTION ( 'NONE',  ( -3.491481338843133355E-15, 0.000000000000000000, -1.000000000000000000 ) ) ;
#238 = EDGE_CURVE ( 'NONE', #75, #75, #209, .T. ) ;
#239 = EDGE_LOOP ( 'NONE', ( #395 ) ) ;
#240 = FACE_OUTER_BOUND ( 'NONE', #268, .T. ) ;
#241 = EDGE_LOOP ( 'NONE', ( #211 ) ) ;
#242 = DIRECTION ( 'NONE',  ( 1.000000000000000000, 0.000000000000000000, -3.464998755066290670E-15 ) ) ;
#243 = AXIS2_PLACEMENT_3D ( 'NONE', #255, #156, #343 ) ;
#244 = DIRECTION ( 'NONE',  ( 3.491481338843133355E-15, -0.000000000000000000, 1.000000000000000000 ) ) ;
#245 = DIRECTION ( 'NONE',  ( -3.491481338843133355E-15, 0.000000000000000000, -1.000000000000000000 ) ) ;
#246 = PERSON_AND_ORGANIZATION_ROLE ( 'design_supplier' ) ;
#247 = ORIENTED_EDGE ( 'NONE', *, *, #87, .F. ) ;
#248 = FACE_OUTER_BOUND ( 'NONE', #59, .T. ) ;
#249 = EDGE_LOOP ( 'NONE', ( #100 ) ) ;
#250 = AXIS2_PLACEMENT_3D ( 'NONE', #146, #62, #299 ) ;
#251 = EDGE_CURVE ( 'NONE', #49, #49, #380, .T. ) ;
#252 = DIRECTION ( 'NONE',  ( 3.491481338843133355E-15, -0.000000000000000000, 1.000000000000000000 ) ) ;
#253 = DATE_TIME_ROLE ( 'classification_date' ) ;
#254 = ADVANCED_FACE ( 'NONE', ( #151 ), #311, .F. ) ;
#255 = CARTESIAN_POINT ( 'NONE',  ( 1.466422162314116262E-13, 1.599999999999997646, 42.00000000000000711 ) ) ;
#256 = AXIS2_PLACEMENT_3D ( 'NONE', #276, #280, #219 ) ;
#257 = CONICAL_SURFACE ( 'NONE', #363, 1.054999999999999938, 1.047197551196602960 ) ;
#258 = PRODUCT_DEFINITION_SHAPE ( 'NONE', 'NONE',  #378 ) ;
#259 = CARTESIAN_POINT ( 'NONE',  ( 1.466422162314116009E-13, 0.000000000000000000, 42.00000000000000000 ) ) ;
#260 = AXIS2_PLACEMENT_3D ( 'NONE', #337, #356, #271 ) ;
#261 = CARTESIAN_POINT ( 'NONE',  ( 0.5550000000000044897, 0.000000000000000000, 1.269999999999998241 ) ) ;
#262 = CC_DESIGN_DATE_AND_TIME_ASSIGNMENT ( #191, #253, ( #391 ) ) ;
#263 = CIRCLE ( 'NONE', #93, 1.054999999999999938 ) ;
#264 = PLANE ( 'NONE',  #192 ) ;
#265 = DIRECTION ( 'NONE',  ( 1.000000000000000000, 0.000000000000000000, -3.494111266777929247E-15 ) ) ;
#266 = EDGE_LOOP ( 'NONE', ( #357 ) ) ;
#267 = VERTEX_POINT ( 'NONE', #174 ) ;
#268 = EDGE_LOOP ( 'NONE', ( #85 ) ) ;
#269 = AXIS2_PLACEMENT_3D ( 'NONE', #95, #99, #67 ) ;
#270 =( LENGTH_UNIT ( ) NAMED_UNIT ( * ) SI_UNIT ( .MILLI., .METRE. ) );
#271 = DIRECTION ( 'NONE',  ( 1.000000000000000000, 0.000000000000000000, 0.000000000000000000 ) ) ;
#272 = ORIENTED_EDGE ( 'NONE', *, *, #277, .F. ) ;
#273 = FACE_OUTER_BOUND ( 'NONE', #108, .T. ) ;
#274 = EDGE_LOOP ( 'NONE', ( #314 ) ) ;
#275 = AXIS2_PLACEMENT_3D ( 'NONE', #223, #32, #154 ) ;
#276 = CARTESIAN_POINT ( 'NONE',  ( 1.466422162314116009E-13, 0.000000000000000000, 42.00000000000000000 ) ) ;
#277 = EDGE_CURVE ( 'NONE', #79, #79, #104, .T. ) ;
#278 = CYLINDRICAL_SURFACE ( 'NONE', #269, 1.054999999999999938 ) ;
#279 = APPROVAL_ROLE ( '' ) ;
#280 = DIRECTION ( 'NONE',  ( 3.491481338843133355E-15, -0.000000000000000000, 1.000000000000000000 ) ) ;
#281 = APPROVAL_DATE_TIME ( #155, #27 ) ;
#282 = PLANE ( 'NONE',  #243 ) ;
#283 = AXIS2_PLACEMENT_3D ( 'NONE', #235, #142, #200 ) ;
#284 = EDGE_LOOP ( 'NONE', ( #193 ) ) ;
#285 = CARTESIAN_POINT ( 'NONE',  ( 4.434181300330779992E-15, 0.000000000000000000, 1.270000000000000240 ) ) ;
#286 = APPLICATION_CONTEXT ( 'configuration controlled 3d designs of mechanical parts and assemblies' ) ;
#287 = PRODUCT_DEFINITION_FORMATION_WITH_SPECIFIED_SOURCE ( 'ANY', '', #310, .NOT_KNOWN. ) ;
#288 = VERTEX_POINT ( 'NONE', #227 ) ;
#289 = CYLINDRICAL_SURFACE ( 'NONE', #184, 1.999999999999998224 ) ;
#290 = ADVANCED_FACE ( 'NONE', ( #366, #123 ), #181, .T. ) ;
#291 = CARTESIAN_POINT ( 'NONE',  ( 1.016166547992464893E-15, 0.000000000000000000, 0.2910416666666651442 ) ) ;
#292 = EDGE_LOOP ( 'NONE', ( #92 ) ) ;
#293 = APPROVAL_STATUS ( 'not_yet_approved' ) ;
#294 = FACE_OUTER_BOUND ( 'NONE', #116, .T. ) ;
#295 = DIRECTION ( 'NONE',  ( 1.000000000000000000, 0.000000000000000000, -2.944830300484488504E-15 ) ) ;
#296 = CARTESIAN_POINT ( 'NONE',  ( 2.494226981436074790E-15, 0.000000000000000000, 0.7143750000000032019 ) ) ;
#297 = AXIS2_PLACEMENT_3D ( 'NONE', #10, #252, #344 ) ;
#298 = DIRECTION ( 'NONE',  ( -1.000000000000000000, 0.000000000000000000, 3.491481338843133355E-15 ) ) ;
#299 = DIRECTION ( 'NONE',  ( 1.000000000000000000, 0.000000000000000000, -3.464998755066290670E-15 ) ) ;
#300 = EDGE_LOOP ( 'NONE', ( #117 ) ) ;
#301 = EDGE_CURVE ( 'NONE', #267, #267, #383, .T. ) ;
#302 = FACE_BOUND ( 'NONE', #392, .T. ) ;
#303 = DATE_AND_TIME ( #96, #76 ) ;
#304 = APPROVAL_PERSON_ORGANIZATION ( #127, #323, #220 ) ;
#305 = DIRECTION ( 'NONE',  ( 1.000000000000000000, 0.000000000000000000, -3.464998755066290670E-15 ) ) ;
#306 = CALENDAR_DATE ( 2023, 28, 9 ) ;
#307 = FACE_OUTER_BOUND ( 'NONE', #63, .T. ) ;
#308 = ADVANCED_FACE ( 'NONE', ( #302, #7 ), #354, .T. ) ;
#309 = ORIENTED_EDGE ( 'NONE', *, *, #135, .T. ) ;
#310 = PRODUCT ( '966648', '966648', '', ( #325 ) ) ;
#311 = PLANE ( 'NONE',  #275 ) ;
#312 = COORDINATED_UNIVERSAL_TIME_OFFSET ( 1, 0, .AHEAD. ) ;
#313 = MANIFOLD_SOLID_BREP ( 'Corps-Déplacer/Copier1', #385 ) ;
#314 = ORIENTED_EDGE ( 'NONE', *, *, #251, .T. ) ;
#315 = CARTESIAN_POINT ( 'NONE',  ( 4.157044969060107820E-15, 0.000000000000000000, 1.190625000000000711 ) ) ;
#316 = AXIS2_PLACEMENT_3D ( 'NONE', #72, #159, #101 ) ;
#317 = SHAPE_DEFINITION_REPRESENTATION ( #258, #169 ) ;
#318 = CARTESIAN_POINT ( 'NONE',  ( 0.6883825790645895504, 0.000000000000000000, 1.269999999999998019 ) ) ;
#319 = CIRCLE ( 'NONE', #336, 1.054999999999999938 ) ;
#320 = CARTESIAN_POINT ( 'NONE',  ( 0.6883825790645875520, 0.000000000000000000, 0.7143750000000008704 ) ) ;
#321 = DIRECTION ( 'NONE',  ( 1.000000000000000000, 0.000000000000000000, -3.469446951953617344E-15 ) ) ;
#322 = ADVANCED_FACE ( 'NONE', ( #374, #187 ), #97, .T. ) ;
#323 = APPROVAL ( #157, 'UNSPECIFIED' ) ;
#324 = AXIS2_PLACEMENT_3D ( 'NONE', #330, #22, #60 ) ;
#325 = MECHANICAL_CONTEXT ( 'NONE', #286, 'mechanical' ) ;
#326 = FACE_OUTER_BOUND ( 'NONE', #274, .T. ) ;
#327 = EDGE_LOOP ( 'NONE', ( #189 ) ) ;
#328 = DIRECTION ( 'NONE',  ( 3.491481338843133355E-15, -0.000000000000000000, 1.000000000000000000 ) ) ;
#329 = CARTESIAN_POINT ( 'NONE',  ( 3.418014752338315494E-15, 0.000000000000000000, 0.9789583333333351511 ) ) ;
#330 = CARTESIAN_POINT ( 'NONE',  ( 5.106104983111000394E-14, 0.000000000000000000, 14.62446591452456701 ) ) ;
#331 = ORIENTED_EDGE ( 'NONE', *, *, #148, .T. ) ;
#332 = AXIS2_PLACEMENT_3D ( 'NONE', #215, #129, #4 ) ;
#333 = DIRECTION ( 'NONE',  ( 3.491481338843133355E-15, -0.000000000000000000, 1.000000000000000000 ) ) ;
#334 = EDGE_LOOP ( 'NONE', ( #247 ) ) ;
#335 = ADVANCED_FACE ( 'NONE', ( #248, #2 ), #34, .T. ) ;
#336 = AXIS2_PLACEMENT_3D ( 'NONE', #329, #176, #26 ) ;
#337 = CARTESIAN_POINT ( 'NONE',  ( 1.466422162314116009E-13, 0.000000000000000000, 42.00000000000000000 ) ) ;
#338 = DIRECTION ( 'NONE',  ( 3.491481338843133355E-15, -0.000000000000000000, 1.000000000000000000 ) ) ;
#339 = DATE_TIME_ROLE ( 'creation_date' ) ;
#340 = CC_DESIGN_PERSON_AND_ORGANIZATION_ASSIGNMENT ( #124, #33, ( #287 ) ) ;
#341 = LOCAL_TIME ( 8, 23, 27.00000000000000000, #21 ) ;
#342 = FACE_OUTER_BOUND ( 'NONE', #284, .T. ) ;
#343 = DIRECTION ( 'NONE',  ( -1.000000000000000000, 0.000000000000000000, 3.491481338843133355E-15 ) ) ;
#344 = DIRECTION ( 'NONE',  ( 1.000000000000000000, 0.000000000000000000, -3.464998755066290670E-15 ) ) ;
#345 = APPROVAL_DATE_TIME ( #303, #323 ) ;
#346 = CARTESIAN_POINT ( 'NONE',  ( 1.466422162314116262E-13, 0.000000000000000000, 42.00000000000000711 ) ) ;
#347 = VERTEX_POINT ( 'NONE', #194 ) ;
#348 = CARTESIAN_POINT ( 'NONE',  ( 1.600000000000144196, 0.000000000000000000, 42.00000000000000000 ) ) ;
#349 = CC_DESIGN_APPROVAL ( #323, ( #391 ) ) ;
#350 = PERSON ( 'UNSPECIFIED', 'UNSPECIFIED', 'UNSPECIFIED', ('UNSPECIFIED'), ('UNSPECIFIED'), ('UNSPECIFIED') ) ;
#351 = VERTEX_POINT ( 'NONE', #348 ) ;
#352 = ORIENTED_EDGE ( 'NONE', *, *, #80, .F. ) ;
#353 = ORIENTED_EDGE ( 'NONE', *, *, #71, .T. ) ;
#354 = CONICAL_SURFACE ( 'NONE', #163, 1.999999999999996669, 0.7853981633974412846 ) ;
#355 = EDGE_LOOP ( 'NONE', ( #353 ) ) ;
#356 = DIRECTION ( 'NONE',  ( 3.491481338843133355E-15, -0.000000000000000000, 1.000000000000000000 ) ) ;
#357 = ORIENTED_EDGE ( 'NONE', *, *, #238, .T. ) ;
#358 = DIRECTION ( 'NONE',  ( 3.491481338843133355E-15, -0.000000000000000000, 1.000000000000000000 ) ) ;
#359 = EDGE_CURVE ( 'NONE', #81, #81, #143, .T. ) ;
#360 = ADVANCED_FACE ( 'NONE', ( #153, #342 ), #278, .T. ) ;
#361 = EDGE_LOOP ( 'NONE', ( #387 ) ) ;
#362 = CC_DESIGN_SECURITY_CLASSIFICATION ( #391, ( #287 ) ) ;
#363 = AXIS2_PLACEMENT_3D ( 'NONE', #175, #28, #144 ) ;
#364 = DIRECTION ( 'NONE',  ( 3.491481338843133355E-15, -0.000000000000000000, 1.000000000000000000 ) ) ;
#365 = CIRCLE ( 'NONE', #109, 0.5890741737109290721 ) ;
#366 = FACE_OUTER_BOUND ( 'NONE', #225, .T. ) ;
#367 = DIRECTION ( 'NONE',  ( 1.000000000000000000, 0.000000000000000000, -2.944830300484488504E-15 ) ) ;
#368 = SECURITY_CLASSIFICATION_LEVEL ( 'unclassified' ) ;
#369 = CC_DESIGN_APPROVAL ( #221, ( #287 ) ) ;
#370 = DIRECTION ( 'NONE',  ( 1.000000000000000000, 0.000000000000000000, -3.491481338843133750E-15 ) ) ;
#371 = AXIS2_PLACEMENT_3D ( 'NONE', #296, #206, #242 ) ;
#372 = COORDINATED_UNIVERSAL_TIME_OFFSET ( 1, 0, .AHEAD. ) ;
#373 = ORIENTED_EDGE ( 'NONE', *, *, #251, .F. ) ;
#374 = FACE_OUTER_BOUND ( 'NONE', #231, .T. ) ;
#375 = DATE_AND_TIME ( #377, #84 ) ;
#376 = CARTESIAN_POINT ( 'NONE',  ( 4.434181300330779992E-15, 0.000000000000000000, 1.270000000000000240 ) ) ;
#377 = CALENDAR_DATE ( 2023, 28, 9 ) ;
#378 = PRODUCT_DEFINITION ( 'UNKNOWN', '', #287, #39 ) ;
#379 = CC_DESIGN_PERSON_AND_ORGANIZATION_ASSIGNMENT ( #83, #171, ( #310 ) ) ;
#380 = CIRCLE ( 'NONE', #316, 0.5549999999999992717 ) ;
#381 = EDGE_LOOP ( 'NONE', ( #393 ) ) ;
#382 = VERTEX_POINT ( 'NONE', #199 ) ;
#383 = CIRCLE ( 'NONE', #332, 1.999999999999996669 ) ;
#384 = CIRCLE ( 'NONE', #250, 0.6883825790645851095 ) ;
#385 = CLOSED_SHELL ( 'NONE', ( #254, #335, #50, #9, #106, #166, #360, #103, #107, #13, #290, #98, #322, #394, #308, #207 ) ) ;
#386 = AXIS2_PLACEMENT_3D ( 'NONE', #145, #364, #30 ) ;
#387 = ORIENTED_EDGE ( 'NONE', *, *, #277, .T. ) ;
#388 =( NAMED_UNIT ( * ) SI_UNIT ( $, .STERADIAN. ) SOLID_ANGLE_UNIT ( ) );
#389 = CARTESIAN_POINT ( 'NONE',  ( 0.6883825790645892173, 0.000000000000000000, 1.190624999999998268 ) ) ;
#390 = FACE_OUTER_BOUND ( 'NONE', #239, .T. ) ;
#391 = SECURITY_CLASSIFICATION ( '', '', #368 ) ;
#392 = EDGE_LOOP ( 'NONE', ( #128 ) ) ;
#393 = ORIENTED_EDGE ( 'NONE', *, *, #71, .F. ) ;
#394 = ADVANCED_FACE ( 'NONE', ( #186, #218 ), #289, .T. ) ;
#395 = ORIENTED_EDGE ( 'NONE', *, *, #121, .F. ) ;
ENDSEC;
END-ISO-10303-21;
