ISO-10303-21;
HEADER;
FILE_DESCRIPTION (( 'STEP AP203' ),
    '1' );
FILE_NAME ('966646.step',
    '2023-09-28T06:23:26',
    ( '' ),
    ( '' ),
    'SwSTEP 2.0',
    'SolidWorks 2022',
    '' );
FILE_SCHEMA (( 'CONFIG_CONTROL_DESIGN' ));
ENDSEC;

DATA;
#1 = AXIS2_PLACEMENT_3D ( 'NONE', #351, #160, #10 ) ;
#2 = AXIS2_PLACEMENT_3D ( 'NONE', #336, #112, #386 ) ;
#3 = DIRECTION ( 'NONE',  ( 3.491481338843133355E-15, -0.000000000000000000, 1.000000000000000000 ) ) ;
#4 = EDGE_LOOP ( 'NONE', ( #11 ) ) ;
#5 = EDGE_CURVE ( 'NONE', #242, #242, #365, .T. ) ;
#6 = CARTESIAN_POINT ( 'NONE',  ( 1.452456236958743728E-13, 0.000000000000000000, 41.60000000000000853 ) ) ;
#7 = EDGE_LOOP ( 'NONE', ( #132 ) ) ;
#8 = DIRECTION ( 'NONE',  ( 1.000000000000000000, 0.000000000000000000, -3.532242371898476155E-15 ) ) ;
#9 = APPLICATION_CONTEXT ( 'configuration controlled 3d designs of mechanical parts and assemblies' ) ;
#10 = DIRECTION ( 'NONE',  ( -1.000000000000000000, 0.000000000000000000, 3.491481338843133355E-15 ) ) ;
#11 = ORIENTED_EDGE ( 'NONE', *, *, #266, .T. ) ;
#12 = AXIS2_PLACEMENT_3D ( 'NONE', #175, #113, #240 ) ;
#13 = DIRECTION ( 'NONE',  ( 3.491481338843133355E-15, -0.000000000000000000, 1.000000000000000000 ) ) ;
#14 = CIRCLE ( 'NONE', #68, 1.104999999999999982 ) ;
#15 = DIRECTION ( 'NONE',  ( 1.000000000000000000, 0.000000000000000000, -3.045848138800908470E-15 ) ) ;
#16 = CALENDAR_DATE ( 2023, 28, 9 ) ;
#17 = APPROVAL_ROLE ( '' ) ;
#18 = FACE_OUTER_BOUND ( 'NONE', #92, .T. ) ;
#19 = AXIS2_PLACEMENT_3D ( 'NONE', #346, #162, #310 ) ;
#20 = APPROVAL_STATUS ( 'not_yet_approved' ) ;
#21 = PERSON_AND_ORGANIZATION_ROLE ( 'classification_officer' ) ;
#22 = PERSON_AND_ORGANIZATION ( #131, #326 ) ;
#23 = AXIS2_PLACEMENT_3D ( 'NONE', #268, #200, #385 ) ;
#24 = LOCAL_TIME ( 8, 23, 26.00000000000000000, #80 ) ;
#25 = APPROVAL_STATUS ( 'not_yet_approved' ) ;
#26 = CARTESIAN_POINT ( 'NONE',  ( 1.665000000000001146, 0.000000000000000000, 0.3233796296296260198 ) ) ;
#27 = FACE_BOUND ( 'NONE', #62, .T. ) ;
#28 = ADVANCED_FACE ( 'NONE', ( #315, #321 ), #293, .F. ) ;
#29 = DIRECTION ( 'NONE',  ( 1.000000000000000000, 0.000000000000000000, -3.448350467743265405E-15 ) ) ;
#30 = FACE_OUTER_BOUND ( 'NONE', #284, .T. ) ;
#31 = FACE_OUTER_BOUND ( 'NONE', #309, .T. ) ;
#32 = FACE_OUTER_BOUND ( 'NONE', #7, .T. ) ;
#33 = EDGE_CURVE ( 'NONE', #233, #233, #126, .T. ) ;
#34 = PRODUCT_DEFINITION_SHAPE ( 'NONE', 'NONE',  #224 ) ;
#35 = CARTESIAN_POINT ( 'NONE',  ( 2.000000000000059064, 0.000000000000000000, 16.87183797036163213 ) ) ;
#36 = DIRECTION ( 'NONE',  ( 1.000000000000000000, 0.000000000000000000, -3.139770997243093597E-15 ) ) ;
#37 = EDGE_LOOP ( 'NONE', ( #253 ) ) ;
#38 = DIRECTION ( 'NONE',  ( 3.491481338843133355E-15, -0.000000000000000000, 1.000000000000000000 ) ) ;
#39 = ORIENTED_EDGE ( 'NONE', *, *, #394, .F. ) ;
#40 = FACE_OUTER_BOUND ( 'NONE', #219, .T. ) ;
#41 = EDGE_LOOP ( 'NONE', ( #395 ) ) ;
#42 = FACE_BOUND ( 'NONE', #59, .T. ) ;
#43 = DIRECTION ( 'NONE',  ( 3.491481338843133355E-15, -0.000000000000000000, 1.000000000000000000 ) ) ;
#44 = MANIFOLD_SOLID_BREP ( 'Corps-Déplacer/Copier1', #192 ) ;
#45 = EDGE_LOOP ( 'NONE', ( #289 ) ) ;
#46 = CIRCLE ( 'NONE', #168, 1.665000000000000036 ) ;
#47 = ADVANCED_FACE ( 'NONE', ( #166, #42 ), #390, .T. ) ;
#48 = PERSON_AND_ORGANIZATION ( #131, #326 ) ;
#49 = DIRECTION ( 'NONE',  ( 3.491481338843133355E-15, -0.000000000000000000, 1.000000000000000000 ) ) ;
#50 = APPROVAL ( #227, 'UNSPECIFIED' ) ;
#51 = DATE_AND_TIME ( #75, #178 ) ;
#52 = AXIS2_PLACEMENT_3D ( 'NONE', #156, #257, #285 ) ;
#53 = PRODUCT_DEFINITION_FORMATION_WITH_SPECIFIED_SOURCE ( 'ANY', '', #78, .NOT_KNOWN. ) ;
#54 = EDGE_CURVE ( 'NONE', #81, #81, #252, .T. ) ;
#55 = CARTESIAN_POINT ( 'NONE',  ( 4.678584994049799958E-14, 0.000000000000000000, 13.40000000000000213 ) ) ;
#56 = EDGE_CURVE ( 'NONE', #144, #144, #354, .T. ) ;
#57 =( GEOMETRIC_REPRESENTATION_CONTEXT ( 3 ) GLOBAL_UNCERTAINTY_ASSIGNED_CONTEXT ( ( #194 ) ) GLOBAL_UNIT_ASSIGNED_CONTEXT ( ( #85, #341, #58 ) ) REPRESENTATION_CONTEXT ( 'NONE', 'WORKASPACE' ) );
#58 =( NAMED_UNIT ( * ) SI_UNIT ( $, .STERADIAN. ) SOLID_ANGLE_UNIT ( ) );
#59 = EDGE_LOOP ( 'NONE', ( #248 ) ) ;
#60 = ORIENTED_EDGE ( 'NONE', *, *, #5, .T. ) ;
#61 = CIRCLE ( 'NONE', #246, 1.104999999999998650 ) ;
#62 = EDGE_LOOP ( 'NONE', ( #60 ) ) ;
#63 = DIRECTION ( 'NONE',  ( 1.000000000000000000, 0.000000000000000000, -3.491481338843133355E-15 ) ) ;
#64 = ORIENTED_EDGE ( 'NONE', *, *, #266, .F. ) ;
#65 = CYLINDRICAL_SURFACE ( 'NONE', #264, 1.665000000000000036 ) ;
#66 = DIRECTION ( 'NONE',  ( 1.000000000000000000, 0.000000000000000000, -3.491481338843133355E-15 ) ) ;
#67 = CARTESIAN_POINT ( 'NONE',  ( 4.768951180661061278E-14, 0.000000000000000000, 13.65881904510251488 ) ) ;
#68 = AXIS2_PLACEMENT_3D ( 'NONE', #287, #3, #8 ) ;
#69 = MECHANICAL_CONTEXT ( 'NONE', #255, 'mechanical' ) ;
#70 = ADVANCED_FACE ( 'NONE', ( #114, #27 ), #381, .T. ) ;
#71 = EDGE_LOOP ( 'NONE', ( #196 ) ) ;
#72 = APPLICATION_PROTOCOL_DEFINITION ( 'international standard', 'config_control_design', 1994, #255 ) ;
#73 = DATE_AND_TIME ( #352, #87 ) ;
#74 = AXIS2_PLACEMENT_3D ( 'NONE', #270, #393, #359 ) ;
#75 = CALENDAR_DATE ( 2023, 28, 9 ) ;
#76 = FACE_OUTER_BOUND ( 'NONE', #183, .T. ) ;
#77 = EDGE_CURVE ( 'NONE', #202, #202, #46, .T. ) ;
#78 = PRODUCT ( '966646', '966646', '', ( #69 ) ) ;
#79 = VERTEX_POINT ( 'NONE', #241 ) ;
#80 = COORDINATED_UNIVERSAL_TIME_OFFSET ( 1, 0, .AHEAD. ) ;
#81 = VERTEX_POINT ( 'NONE', #26 ) ;
#82 = EDGE_CURVE ( 'NONE', #332, #332, #236, .T. ) ;
#83 = CARTESIAN_POINT ( 'NONE',  ( 1.665000000000001368, 0.000000000000000000, 0.3821759259259189245 ) ) ;
#84 = FACE_BOUND ( 'NONE', #99, .T. ) ;
#85 =( LENGTH_UNIT ( ) NAMED_UNIT ( * ) SI_UNIT ( .MILLI., .METRE. ) );
#86 = FACE_BOUND ( 'NONE', #157, .T. ) ;
#87 = LOCAL_TIME ( 8, 23, 26.00000000000000000, #263 ) ;
#88 = ORIENTED_EDGE ( 'NONE', *, *, #261, .T. ) ;
#89 = CARTESIAN_POINT ( 'NONE',  ( -2.275247650587756347E-32, 0.000000000000000000, -6.516568269391456902E-18 ) ) ;
#90 = CARTESIAN_POINT ( 'NONE',  ( 2.771363312706746567E-15, 0.000000000000000000, 0.7937500000000028422 ) ) ;
#91 = ORIENTED_EDGE ( 'NONE', *, *, #82, .F. ) ;
#92 = EDGE_LOOP ( 'NONE', ( #123 ) ) ;
#93 = AXIS2_PLACEMENT_3D ( 'NONE', #374, #13, #251 ) ;
#94 = DIRECTION ( 'NONE',  ( 1.000000000000000000, 0.000000000000000000, -3.469446951953620105E-15 ) ) ;
#95 = DIRECTION ( 'NONE',  ( 1.000000000000000000, 0.000000000000000000, -3.491481338843133750E-15 ) ) ;
#96 = DIRECTION ( 'NONE',  ( 3.491481338843133355E-15, -0.000000000000000000, 1.000000000000000000 ) ) ;
#97 = CONICAL_SURFACE ( 'NONE', #163, 1.999999999999996669, 0.7853981633974412846 ) ;
#98 = AXIS2_PLACEMENT_3D ( 'NONE', #176, #180, #384 ) ;
#99 = EDGE_LOOP ( 'NONE', ( #316 ) ) ;
#100 = APPROVAL_DATE_TIME ( #296, #151 ) ;
#101 = PERSON_AND_ORGANIZATION ( #131, #326 ) ;
#102 = APPROVAL_DATE_TIME ( #73, #218 ) ;
#103 = DIRECTION ( 'NONE',  ( -3.491481338843133355E-15, 0.000000000000000000, -1.000000000000000000 ) ) ;
#104 = SECURITY_CLASSIFICATION ( '', '', #380 ) ;
#105 = PERSON_AND_ORGANIZATION ( #131, #326 ) ;
#106 = ADVANCED_FACE ( 'NONE', ( #86, #30 ), #97, .T. ) ;
#107 = CARTESIAN_POINT ( 'NONE',  ( 4.926868111478650221E-15, 0.000000000000000000, 1.411111111111112981 ) ) ;
#108 = APPROVAL_DATE_TIME ( #282, #50 ) ;
#109 = FACE_OUTER_BOUND ( 'NONE', #276, .T. ) ;
#110 = DIRECTION ( 'NONE',  ( 3.491481338843133355E-15, -0.000000000000000000, 1.000000000000000000 ) ) ;
#111 = CARTESIAN_POINT ( 'NONE',  ( 1.452456236958743728E-13, 0.000000000000000000, 41.60000000000000853 ) ) ;
#112 = DIRECTION ( 'NONE',  ( 3.491481338843133355E-15, -0.000000000000000000, 1.000000000000000000 ) ) ;
#113 = DIRECTION ( 'NONE',  ( 3.491481338843133355E-15, -0.000000000000000000, 1.000000000000000000 ) ) ;
#114 = FACE_OUTER_BOUND ( 'NONE', #344, .T. ) ;
#115 = VERTEX_POINT ( 'NONE', #281 ) ;
#116 = APPROVAL_PERSON_ORGANIZATION ( #299, #151, #17 ) ;
#117 = VERTEX_POINT ( 'NONE', #184 ) ;
#118 = ORIENTED_EDGE ( 'NONE', *, *, #261, .F. ) ;
#119 = CYLINDRICAL_SURFACE ( 'NONE', #52, 1.999999999999998224 ) ;
#120 = ORIENTED_EDGE ( 'NONE', *, *, #164, .F. ) ;
#121 = DIRECTION ( 'NONE',  ( 1.000000000000000000, 0.000000000000000000, -4.336808689942024047E-15 ) ) ;
#122 = EDGE_LOOP ( 'NONE', ( #229 ) ) ;
#123 = ORIENTED_EDGE ( 'NONE', *, *, #77, .T. ) ;
#124 = CARTESIAN_POINT ( 'NONE',  ( 3.592507997953188402E-15, 0.000000000000000000, 1.028935185185188228 ) ) ;
#125 = EDGE_CURVE ( 'NONE', #358, #358, #61, .T. ) ;
#126 = CIRCLE ( 'NONE', #259, 1.139074173710928450 ) ;
#127 = CIRCLE ( 'NONE', #280, 1.257647310071761559 ) ;
#128 = ORIENTED_EDGE ( 'NONE', *, *, #301, .F. ) ;
#129 = PLANE ( 'NONE',  #329 ) ;
#130 = FACE_OUTER_BOUND ( 'NONE', #215, .T. ) ;
#131 = PERSON ( 'UNSPECIFIED', 'UNSPECIFIED', 'UNSPECIFIED', ('UNSPECIFIED'), ('UNSPECIFIED'), ('UNSPECIFIED') ) ;
#132 = ORIENTED_EDGE ( 'NONE', *, *, #56, .T. ) ;
#133 = PERSON_AND_ORGANIZATION_ROLE ( 'creator' ) ;
#134 = EDGE_LOOP ( 'NONE', ( #120 ) ) ;
#135 = AXIS2_PLACEMENT_3D ( 'NONE', #243, #305, #238 ) ;
#136 = ADVANCED_FACE ( 'NONE', ( #392, #181 ), #208, .T. ) ;
#137 = CC_DESIGN_APPROVAL ( #50, ( #53 ) ) ;
#138 = CALENDAR_DATE ( 2023, 28, 9 ) ;
#139 = PERSON_AND_ORGANIZATION ( #131, #326 ) ;
#140 = DIRECTION ( 'NONE',  ( -1.000000000000000000, 0.000000000000000000, 3.483772746424893919E-15 ) ) ;
#141 = ADVANCED_FACE ( 'NONE', ( #84, #32 ), #361, .T. ) ;
#142 = DATE_TIME_ROLE ( 'creation_date' ) ;
#143 = CIRCLE ( 'NONE', #302, 1.257647310071761337 ) ;
#144 = VERTEX_POINT ( 'NONE', #267 ) ;
#145 = FACE_OUTER_BOUND ( 'NONE', #368, .T. ) ;
#146 = DIRECTION ( 'NONE',  ( 3.491481338843133355E-15, -0.000000000000000000, 1.000000000000000000 ) ) ;
#147 = VERTEX_POINT ( 'NONE', #311 ) ;
#148 = VERTEX_POINT ( 'NONE', #155 ) ;
#149 = EDGE_LOOP ( 'NONE', ( #372 ) ) ;
#150 = FACE_OUTER_BOUND ( 'NONE', #37, .T. ) ;
#151 = APPROVAL ( #20, 'UNSPECIFIED' ) ;
#152 = EDGE_LOOP ( 'NONE', ( #185 ) ) ;
#153 = FACE_OUTER_BOUND ( 'NONE', #71, .T. ) ;
#154 = APPROVAL_PERSON_ORGANIZATION ( #101, #218, #230 ) ;
#155 = CARTESIAN_POINT ( 'NONE',  ( 2.000000000000141664, 0.000000000000000000, 41.60000000000000142 ) ) ;
#156 = CARTESIAN_POINT ( 'NONE',  ( 1.466422162314116009E-13, 0.000000000000000000, 42.00000000000000000 ) ) ;
#157 = EDGE_LOOP ( 'NONE', ( #64 ) ) ;
#158 = ADVANCED_FACE ( 'NONE', ( #150, #254 ), #65, .T. ) ;
#159 = CYLINDRICAL_SURFACE ( 'NONE', #93, 1.104999999999999316 ) ;
#160 = DIRECTION ( 'NONE',  ( -3.491481338843133355E-15, 0.000000000000000000, -1.000000000000000000 ) ) ;
#161 = ORIENTED_EDGE ( 'NONE', *, *, #164, .T. ) ;
#162 = DIRECTION ( 'NONE',  ( 3.491481338843133355E-15, -0.000000000000000000, 1.000000000000000000 ) ) ;
#163 = AXIS2_PLACEMENT_3D ( 'NONE', #111, #363, #333 ) ;
#164 = EDGE_CURVE ( 'NONE', #362, #362, #231, .T. ) ;
#165 = COORDINATED_UNIVERSAL_TIME_OFFSET ( 1, 0, .AHEAD. ) ;
#166 = FACE_OUTER_BOUND ( 'NONE', #134, .T. ) ;
#167 = APPLICATION_PROTOCOL_DEFINITION ( 'international standard', 'config_control_design', 1994, #9 ) ;
#168 = AXIS2_PLACEMENT_3D ( 'NONE', #235, #273, #389 ) ;
#169 = CONICAL_SURFACE ( 'NONE', #272, 1.665000000000000036, 1.047197551196599852 ) ;
#170 = COORDINATED_UNIVERSAL_TIME_OFFSET ( 1, 0, .AHEAD. ) ;
#171 = CARTESIAN_POINT ( 'NONE',  ( 1.139074173710975968, 0.000000000000000000, 13.65881904510251132 ) ) ;
#172 = AXIS2_PLACEMENT_3D ( 'NONE', #228, #103, #195 ) ;
#173 = DIRECTION ( 'NONE',  ( 1.000000000000000000, 0.000000000000000000, -3.516331370223258125E-15 ) ) ;
#174 = CARTESIAN_POINT ( 'NONE',  ( 4.618938854511228370E-15, 0.000000000000000000, 1.322916666666666741 ) ) ;
#175 = CARTESIAN_POINT ( 'NONE',  ( 2.771363312706746567E-15, 0.000000000000000000, 0.7937500000000028422 ) ) ;
#176 = CARTESIAN_POINT ( 'NONE',  ( 1.466422162314116009E-13, 0.000000000000000000, 42.00000000000000000 ) ) ;
#177 = DIRECTION ( 'NONE',  ( 3.491481338843133355E-15, -0.000000000000000000, 1.000000000000000000 ) ) ;
#178 = LOCAL_TIME ( 8, 23, 26.00000000000000000, #170 ) ;
#179 = DIRECTION ( 'NONE',  ( 0.000000000000000000, 0.000000000000000000, 1.000000000000000000 ) ) ;
#180 = DIRECTION ( 'NONE',  ( 3.491481338843133355E-15, -0.000000000000000000, 1.000000000000000000 ) ) ;
#181 = FACE_BOUND ( 'NONE', #149, .T. ) ;
#182 = ADVANCED_FACE ( 'NONE', ( #40, #130 ), #119, .T. ) ;
#183 = EDGE_LOOP ( 'NONE', ( #370 ) ) ;
#184 = CARTESIAN_POINT ( 'NONE',  ( 1.600000000000144196, 0.000000000000000000, 42.00000000000000000 ) ) ;
#185 = ORIENTED_EDGE ( 'NONE', *, *, #33, .F. ) ;
#186 = DIRECTION ( 'NONE',  ( 3.491481338843133355E-15, -0.000000000000000000, 1.000000000000000000 ) ) ;
#187 = AXIS2_PLACEMENT_3D ( 'NONE', #6, #43, #94 ) ;
#188 = CARTESIAN_POINT ( 'NONE',  ( 1.466422162314116009E-13, 0.000000000000000000, 42.00000000000000000 ) ) ;
#189 = EDGE_LOOP ( 'NONE', ( #128 ) ) ;
#190 = PRODUCT_RELATED_PRODUCT_CATEGORY ( 'detail', '', ( #78 ) ) ;
#191 = FACE_OUTER_BOUND ( 'NONE', #122, .T. ) ;
#192 = CLOSED_SHELL ( 'NONE', ( #283, #70, #158, #330, #378, #136, #366, #141, #387, #28, #234, #291, #47, #182, #106, #327 ) ) ;
#193 = PERSON_AND_ORGANIZATION ( #131, #326 ) ;
#194 = UNCERTAINTY_MEASURE_WITH_UNIT (LENGTH_MEASURE( 1.000000000000000082E-05 ), #85, 'distance_accuracy_value', 'NONE');
#195 = DIRECTION ( 'NONE',  ( -1.000000000000000000, 0.000000000000000000, 3.491481338843133355E-15 ) ) ;
#196 = ORIENTED_EDGE ( 'NONE', *, *, #125, .T. ) ;
#197 = DIRECTION ( 'NONE',  ( -3.491481338843133355E-15, 0.000000000000000000, -1.000000000000000000 ) ) ;
#198 = SHAPE_DEFINITION_REPRESENTATION ( #34, #353 ) ;
#199 = CARTESIAN_POINT ( 'NONE',  ( 1.104890051348673907, 0.000000000000000000, -3.857702995757326786E-15 ) ) ;
#200 = DIRECTION ( 'NONE',  ( 3.491481338843133355E-15, -0.000000000000000000, 1.000000000000000000 ) ) ;
#201 = CC_DESIGN_PERSON_AND_ORGANIZATION_ASSIGNMENT ( #22, #21, ( #104 ) ) ;
#202 = VERTEX_POINT ( 'NONE', #83 ) ;
#203 = DIRECTION ( 'NONE',  ( 3.491481338843133355E-15, -0.000000000000000000, 1.000000000000000000 ) ) ;
#204 = CC_DESIGN_PERSON_AND_ORGANIZATION_ASSIGNMENT ( #139, #325, ( #53 ) ) ;
#205 = CARTESIAN_POINT ( 'NONE',  ( 1.257647310071763780, 0.000000000000000000, 0.6173611111111056982 ) ) ;
#206 = DIRECTION ( 'NONE',  ( -3.491481338843133355E-15, 0.000000000000000000, -1.000000000000000000 ) ) ;
#207 = DIRECTION ( 'NONE',  ( 3.491481338843133355E-15, -0.000000000000000000, 1.000000000000000000 ) ) ;
#208 = CONICAL_SURFACE ( 'NONE', #12, 1.257647310071761337, 1.047197551196599852 ) ;
#209 = AXIS2_PLACEMENT_3D ( 'NONE', #124, #317, #290 ) ;
#210 = ORIENTED_EDGE ( 'NONE', *, *, #56, .F. ) ;
#211 = DIRECTION ( 'NONE',  ( 3.491481338843133355E-15, -0.000000000000000000, 1.000000000000000000 ) ) ;
#212 = CARTESIAN_POINT ( 'NONE',  ( 1.257647310071766666, 0.000000000000000000, 1.411111111111108540 ) ) ;
#213 = EDGE_LOOP ( 'NONE', ( #342 ) ) ;
#214 = EDGE_CURVE ( 'NONE', #79, #79, #143, .T. ) ;
#215 = EDGE_LOOP ( 'NONE', ( #161 ) ) ;
#216 = AXIS2_PLACEMENT_3D ( 'NONE', #275, #206, #306 ) ;
#217 = AXIS2_PLACEMENT_3D ( 'NONE', #338, #179, #324 ) ;
#218 = APPROVAL ( #25, 'UNSPECIFIED' ) ;
#219 = EDGE_LOOP ( 'NONE', ( #118 ) ) ;
#220 = EDGE_LOOP ( 'NONE', ( #258 ) ) ;
#221 = CARTESIAN_POINT ( 'NONE',  ( 1.466422162314116262E-13, 0.000000000000000000, 42.00000000000000711 ) ) ;
#222 = CALENDAR_DATE ( 2023, 28, 9 ) ;
#223 = FACE_OUTER_BOUND ( 'NONE', #4, .T. ) ;
#224 = PRODUCT_DEFINITION ( 'UNKNOWN', '', #53, #297 ) ;
#225 = CARTESIAN_POINT ( 'NONE',  ( 1.334360113525461819E-15, 0.000000000000000000, 0.3821759259259246977 ) ) ;
#226 = APPROVAL_PERSON_ORGANIZATION ( #383, #50, #307 ) ;
#227 = APPROVAL_STATUS ( 'not_yet_approved' ) ;
#228 = CARTESIAN_POINT ( 'NONE',  ( 1.466422162314116262E-13, 1.599999999999997646, 42.00000000000000711 ) ) ;
#229 = ORIENTED_EDGE ( 'NONE', *, *, #301, .T. ) ;
#230 = APPROVAL_ROLE ( '' ) ;
#231 = CIRCLE ( 'NONE', #19, 2.000000000000000000 ) ;
#232 = CYLINDRICAL_SURFACE ( 'NONE', #298, 1.664999999999999813 ) ;
#233 = VERTEX_POINT ( 'NONE', #171 ) ;
#234 = ADVANCED_FACE ( 'NONE', ( #279, #191 ), #159, .T. ) ;
#235 = CARTESIAN_POINT ( 'NONE',  ( 1.334360113525461819E-15, 0.000000000000000000, 0.3821759259259246977 ) ) ;
#236 = CIRCLE ( 'NONE', #135, 1.257647310071761559 ) ;
#237 = CYLINDRICAL_SURFACE ( 'NONE', #98, 1.257647310071761337 ) ;
#238 = DIRECTION ( 'NONE',  ( 1.000000000000000000, 0.000000000000000000, -3.534559229436846527E-15 ) ) ;
#239 = CARTESIAN_POINT ( 'NONE',  ( 1.466422162314116009E-13, 0.000000000000000000, 42.00000000000000000 ) ) ;
#240 = DIRECTION ( 'NONE',  ( 1.000000000000000000, 0.000000000000000000, -3.534559229436846922E-15 ) ) ;
#241 = CARTESIAN_POINT ( 'NONE',  ( 1.257647310071764224, 0.000000000000000000, 0.7937499999999982903 ) ) ;
#242 = VERTEX_POINT ( 'NONE', #199 ) ;
#243 = CARTESIAN_POINT ( 'NONE',  ( 2.155504798771903259E-15, 0.000000000000000000, 0.6173611111111101390 ) ) ;
#244 = VERTEX_POINT ( 'NONE', #212 ) ;
#245 = EDGE_LOOP ( 'NONE', ( #278 ) ) ;
#246 = AXIS2_PLACEMENT_3D ( 'NONE', #55, #177, #36 ) ;
#247 = CIRCLE ( 'NONE', #335, 1.599999999999997646 ) ;
#248 = ORIENTED_EDGE ( 'NONE', *, *, #33, .T. ) ;
#249 = FACE_OUTER_BOUND ( 'NONE', #41, .T. ) ;
#250 = ORIENTED_EDGE ( 'NONE', *, *, #54, .T. ) ;
#251 = DIRECTION ( 'NONE',  ( 1.000000000000000000, 0.000000000000000000, -6.279541994486183250E-15 ) ) ;
#252 = CIRCLE ( 'NONE', #74, 1.665000000000000036 ) ;
#253 = ORIENTED_EDGE ( 'NONE', *, *, #77, .F. ) ;
#254 = FACE_OUTER_BOUND ( 'NONE', #350, .T. ) ;
#255 = APPLICATION_CONTEXT ( 'configuration controlled 3d designs of mechanical parts and assemblies' ) ;
#256 = CARTESIAN_POINT ( 'NONE',  ( 4.768951180661061278E-14, 0.000000000000000000, 13.65881904510251488 ) ) ;
#257 = DIRECTION ( 'NONE',  ( 3.491481338843133355E-15, -0.000000000000000000, 1.000000000000000000 ) ) ;
#258 = ORIENTED_EDGE ( 'NONE', *, *, #394, .T. ) ;
#259 = AXIS2_PLACEMENT_3D ( 'NONE', #67, #49, #15 ) ;
#260 = CIRCLE ( 'NONE', #187, 1.999999999999996669 ) ;
#261 = EDGE_CURVE ( 'NONE', #148, #148, #260, .T. ) ;
#262 = DATE_TIME_ROLE ( 'classification_date' ) ;
#263 = COORDINATED_UNIVERSAL_TIME_OFFSET ( 1, 0, .AHEAD. ) ;
#264 = AXIS2_PLACEMENT_3D ( 'NONE', #188, #186, #371 ) ;
#265 = DIRECTION ( 'NONE',  ( 3.491481338843133355E-15, -0.000000000000000000, 1.000000000000000000 ) ) ;
#266 = EDGE_CURVE ( 'NONE', #117, #117, #247, .T. ) ;
#267 = CARTESIAN_POINT ( 'NONE',  ( 1.665000000000003810, 0.000000000000000000, 1.087731481481475360 ) ) ;
#268 = CARTESIAN_POINT ( 'NONE',  ( 0.000000000000000000, 0.000000000000000000, 0.000000000000000000 ) ) ;
#269 = FACE_OUTER_BOUND ( 'NONE', #213, .T. ) ;
#270 = CARTESIAN_POINT ( 'NONE',  ( 1.129073942213863292E-15, 0.000000000000000000, 0.3233796296296317929 ) ) ;
#271 = AXIS2_PLACEMENT_3D ( 'NONE', #337, #146, #173 ) ;
#272 = AXIS2_PLACEMENT_3D ( 'NONE', #225, #197, #140 ) ;
#273 = DIRECTION ( 'NONE',  ( 3.491481338843133355E-15, -0.000000000000000000, 1.000000000000000000 ) ) ;
#274 = DIRECTION ( 'NONE',  ( 1.000000000000000000, 0.000000000000000000, -3.448350467743264616E-15 ) ) ;
#275 = CARTESIAN_POINT ( 'NONE',  ( 3.797794169264786929E-15, 0.000000000000000000, 1.087731481481481133 ) ) ;
#276 = EDGE_LOOP ( 'NONE', ( #373 ) ) ;
#277 = CC_DESIGN_PERSON_AND_ORGANIZATION_ASSIGNMENT ( #48, #133, ( #224 ) ) ;
#278 = ORIENTED_EDGE ( 'NONE', *, *, #323, .T. ) ;
#279 = FACE_OUTER_BOUND ( 'NONE', #339, .T. ) ;
#280 = AXIS2_PLACEMENT_3D ( 'NONE', #107, #265, #274 ) ;
#281 = CARTESIAN_POINT ( 'NONE',  ( 1.257647310071766000, 0.000000000000000000, 1.322916666666662300 ) ) ;
#282 = DATE_AND_TIME ( #222, #24 ) ;
#283 = ADVANCED_FACE ( 'NONE', ( #249 ), #129, .F. ) ;
#284 = EDGE_LOOP ( 'NONE', ( #88 ) ) ;
#285 = DIRECTION ( 'NONE',  ( 1.000000000000000000, 0.000000000000000000, -3.469446951953617344E-15 ) ) ;
#286 = CC_DESIGN_PERSON_AND_ORGANIZATION_ASSIGNMENT ( #105, #356, ( #53 ) ) ;
#287 = CARTESIAN_POINT ( 'NONE',  ( 4.926868111478650221E-15, 0.000000000000000000, 1.411111111111112981 ) ) ;
#288 = DIRECTION ( 'NONE',  ( 3.491481338843133355E-15, -0.000000000000000000, 1.000000000000000000 ) ) ;
#289 = ORIENTED_EDGE ( 'NONE', *, *, #323, .F. ) ;
#290 = DIRECTION ( 'NONE',  ( 1.000000000000000000, 0.000000000000000000, -3.516331370223258125E-15 ) ) ;
#291 = ADVANCED_FACE ( 'NONE', ( #340, #153 ), #319, .F. ) ;
#292 = LOCAL_TIME ( 8, 23, 26.00000000000000000, #294 ) ;
#293 = PLANE ( 'NONE',  #1 ) ;
#294 = COORDINATED_UNIVERSAL_TIME_OFFSET ( 1, 0, .AHEAD. ) ;
#295 = CC_DESIGN_DATE_AND_TIME_ASSIGNMENT ( #300, #142, ( #224 ) ) ;
#296 = DATE_AND_TIME ( #138, #391 ) ;
#297 = DESIGN_CONTEXT ( 'detailed design', #9, 'design' ) ;
#298 = AXIS2_PLACEMENT_3D ( 'NONE', #239, #207, #304 ) ;
#299 = PERSON_AND_ORGANIZATION ( #131, #326 ) ;
#300 = DATE_AND_TIME ( #16, #292 ) ;
#301 = EDGE_CURVE ( 'NONE', #147, #147, #14, .T. ) ;
#302 = AXIS2_PLACEMENT_3D ( 'NONE', #90, #38, #377 ) ;
#303 = CIRCLE ( 'NONE', #209, 1.664999999999999813 ) ;
#304 = DIRECTION ( 'NONE',  ( 1.000000000000000000, 0.000000000000000000, -4.167503846190527651E-15 ) ) ;
#305 = DIRECTION ( 'NONE',  ( 3.491481338843133355E-15, -0.000000000000000000, 1.000000000000000000 ) ) ;
#306 = DIRECTION ( 'NONE',  ( -1.000000000000000000, 0.000000000000000000, 3.516331370223258125E-15 ) ) ;
#307 = APPROVAL_ROLE ( '' ) ;
#308 = CARTESIAN_POINT ( 'NONE',  ( 1.105000000000045501, 0.000000000000000000, 13.39999999999999858 ) ) ;
#309 = EDGE_LOOP ( 'NONE', ( #39 ) ) ;
#310 = DIRECTION ( 'NONE',  ( 1.000000000000000000, 0.000000000000000000, -3.469446951953614189E-15 ) ) ;
#311 = CARTESIAN_POINT ( 'NONE',  ( 1.105000000000005089, 0.000000000000000000, 1.411111111111108984 ) ) ;
#312 = AXIS2_PLACEMENT_3D ( 'NONE', #256, #203, #328 ) ;
#313 = CC_DESIGN_APPROVAL ( #151, ( #224 ) ) ;
#314 = DIRECTION ( 'NONE',  ( 3.491481338843133355E-15, -0.000000000000000000, 1.000000000000000000 ) ) ;
#315 = FACE_BOUND ( 'NONE', #189, .T. ) ;
#316 = ORIENTED_EDGE ( 'NONE', *, *, #360, .F. ) ;
#317 = DIRECTION ( 'NONE',  ( 3.491481338843133355E-15, -0.000000000000000000, 1.000000000000000000 ) ) ;
#318 = CARTESIAN_POINT ( 'NONE',  ( 4.678584994049799327E-14, 0.000000000000000000, 13.40000000000000036 ) ) ;
#319 = TOROIDAL_SURFACE ( 'NONE', #382, 2.104999999999998206, 0.9999999999999997780 ) ;
#320 = PERSON_AND_ORGANIZATION_ROLE ( 'design_owner' ) ;
#321 = FACE_OUTER_BOUND ( 'NONE', #220, .T. ) ;
#322 = ORIENTED_EDGE ( 'NONE', *, *, #125, .F. ) ;
#323 = EDGE_CURVE ( 'NONE', #331, #331, #303, .T. ) ;
#324 = DIRECTION ( 'NONE',  ( 1.000000000000000000, 0.000000000000000000, 0.000000000000000000 ) ) ;
#325 = PERSON_AND_ORGANIZATION_ROLE ( 'design_supplier' ) ;
#326 = ORGANIZATION ( 'UNSPECIFIED', 'UNSPECIFIED', '' ) ;
#327 = ADVANCED_FACE ( 'NONE', ( #223 ), #347, .F. ) ;
#328 = DIRECTION ( 'NONE',  ( 1.000000000000000000, 0.000000000000000000, -3.045848138800908470E-15 ) ) ;
#329 = AXIS2_PLACEMENT_3D ( 'NONE', #89, #211, #63 ) ;
#330 = ADVANCED_FACE ( 'NONE', ( #379, #18 ), #169, .T. ) ;
#331 = VERTEX_POINT ( 'NONE', #369 ) ;
#332 = VERTEX_POINT ( 'NONE', #205 ) ;
#333 = DIRECTION ( 'NONE',  ( -1.000000000000000000, 0.000000000000000000, 3.469446951953620105E-15 ) ) ;
#334 = AXIS2_PLACEMENT_3D ( 'NONE', #375, #288, #95 ) ;
#335 = AXIS2_PLACEMENT_3D ( 'NONE', #221, #96, #121 ) ;
#336 = CARTESIAN_POINT ( 'NONE',  ( 1.466422162314116009E-13, 0.000000000000000000, 42.00000000000000000 ) ) ;
#337 = CARTESIAN_POINT ( 'NONE',  ( 3.797794169264786929E-15, 0.000000000000000000, 1.087731481481481133 ) ) ;
#338 = CARTESIAN_POINT ( 'NONE',  ( 0.000000000000000000, 0.000000000000000000, 0.000000000000000000 ) ) ;
#339 = EDGE_LOOP ( 'NONE', ( #322 ) ) ;
#340 = FACE_OUTER_BOUND ( 'NONE', #152, .T. ) ;
#341 =( NAMED_UNIT ( * ) PLANE_ANGLE_UNIT ( ) SI_UNIT ( $, .RADIAN. ) );
#342 = ORIENTED_EDGE ( 'NONE', *, *, #214, .F. ) ;
#343 = CC_DESIGN_APPROVAL ( #218, ( #104 ) ) ;
#344 = EDGE_LOOP ( 'NONE', ( #376 ) ) ;
#345 = EDGE_LOOP ( 'NONE', ( #91 ) ) ;
#346 = CARTESIAN_POINT ( 'NONE',  ( 5.890770742550267494E-14, 0.000000000000000000, 16.87183797036163924 ) ) ;
#347 = PLANE ( 'NONE',  #172 ) ;
#348 = CC_DESIGN_SECURITY_CLASSIFICATION ( #104, ( #53 ) ) ;
#349 = CC_DESIGN_PERSON_AND_ORGANIZATION_ASSIGNMENT ( #193, #320, ( #78 ) ) ;
#350 = EDGE_LOOP ( 'NONE', ( #250 ) ) ;
#351 = CARTESIAN_POINT ( 'NONE',  ( 4.926868111478641543E-15, 1.257647310071761559, 1.411111111111110317 ) ) ;
#352 = CALENDAR_DATE ( 2023, 28, 9 ) ;
#353 = ADVANCED_BREP_SHAPE_REPRESENTATION ( '966646', ( #44, #217 ), #57 ) ;
#354 = CIRCLE ( 'NONE', #271, 1.664999999999999813 ) ;
#355 = CIRCLE ( 'NONE', #367, 1.257647310071761337 ) ;
#356 = PERSON_AND_ORGANIZATION_ROLE ( 'creator' ) ;
#357 = CYLINDRICAL_SURFACE ( 'NONE', #2, 1.257647310071761337 ) ;
#358 = VERTEX_POINT ( 'NONE', #308 ) ;
#359 = DIRECTION ( 'NONE',  ( 1.000000000000000000, 0.000000000000000000, -3.483772746424893919E-15 ) ) ;
#360 = EDGE_CURVE ( 'NONE', #115, #115, #355, .T. ) ;
#361 = CONICAL_SURFACE ( 'NONE', #216, 1.664999999999999813, 1.047197551196599852 ) ;
#362 = VERTEX_POINT ( 'NONE', #35 ) ;
#363 = DIRECTION ( 'NONE',  ( -3.491481338843133355E-15, 0.000000000000000000, -1.000000000000000000 ) ) ;
#364 = FACE_OUTER_BOUND ( 'NONE', #245, .T. ) ;
#365 = CIRCLE ( 'NONE', #334, 1.104890051348673907 ) ;
#366 = ADVANCED_FACE ( 'NONE', ( #145, #364 ), #232, .T. ) ;
#367 = AXIS2_PLACEMENT_3D ( 'NONE', #174, #110, #29 ) ;
#368 = EDGE_LOOP ( 'NONE', ( #210 ) ) ;
#369 = CARTESIAN_POINT ( 'NONE',  ( 1.665000000000003588, 0.000000000000000000, 1.028935185185182455 ) ) ;
#370 = ORIENTED_EDGE ( 'NONE', *, *, #360, .T. ) ;
#371 = DIRECTION ( 'NONE',  ( 1.000000000000000000, 0.000000000000000000, -4.167503846190527651E-15 ) ) ;
#372 = ORIENTED_EDGE ( 'NONE', *, *, #214, .T. ) ;
#373 = ORIENTED_EDGE ( 'NONE', *, *, #82, .T. ) ;
#374 = CARTESIAN_POINT ( 'NONE',  ( 1.466422162314116009E-13, 0.000000000000000000, 42.00000000000000000 ) ) ;
#375 = CARTESIAN_POINT ( 'NONE',  ( 0.000000000000000000, 0.000000000000000000, 0.000000000000000000 ) ) ;
#376 = ORIENTED_EDGE ( 'NONE', *, *, #54, .F. ) ;
#377 = DIRECTION ( 'NONE',  ( 1.000000000000000000, 0.000000000000000000, -3.534559229436846922E-15 ) ) ;
#378 = ADVANCED_FACE ( 'NONE', ( #269, #109 ), #357, .T. ) ;
#379 = FACE_BOUND ( 'NONE', #345, .T. ) ;
#380 = SECURITY_CLASSIFICATION_LEVEL ( 'unclassified' ) ;
#381 = CONICAL_SURFACE ( 'NONE', #23, 1.104890051348673907, 1.047197551196596077 ) ;
#382 = AXIS2_PLACEMENT_3D ( 'NONE', #318, #314, #66 ) ;
#383 = PERSON_AND_ORGANIZATION ( #131, #326 ) ;
#384 = DIRECTION ( 'NONE',  ( 1.000000000000000000, 0.000000000000000000, -5.517360748389224964E-15 ) ) ;
#385 = DIRECTION ( 'NONE',  ( 1.000000000000000000, 0.000000000000000000, -3.491481338843133750E-15 ) ) ;
#386 = DIRECTION ( 'NONE',  ( 1.000000000000000000, 0.000000000000000000, -5.517360748389224964E-15 ) ) ;
#387 = ADVANCED_FACE ( 'NONE', ( #31, #76 ), #237, .T. ) ;
#388 = CC_DESIGN_DATE_AND_TIME_ASSIGNMENT ( #51, #262, ( #104 ) ) ;
#389 = DIRECTION ( 'NONE',  ( 1.000000000000000000, 0.000000000000000000, -3.483772746424893919E-15 ) ) ;
#390 = CONICAL_SURFACE ( 'NONE', #312, 1.139074173710928450, 0.2617993877991423024 ) ;
#391 = LOCAL_TIME ( 8, 23, 26.00000000000000000, #165 ) ;
#392 = FACE_OUTER_BOUND ( 'NONE', #45, .T. ) ;
#393 = DIRECTION ( 'NONE',  ( 3.491481338843133355E-15, -0.000000000000000000, 1.000000000000000000 ) ) ;
#394 = EDGE_CURVE ( 'NONE', #244, #244, #127, .T. ) ;
#395 = ORIENTED_EDGE ( 'NONE', *, *, #5, .F. ) ;
ENDSEC;
END-ISO-10303-21;
