ISO-10303-21;
HEADER;
FILE_DESCRIPTION (( 'STEP AP203' ),
    '1' );
FILE_NAME ('966645.step',
    '2023-09-28T06:23:26',
    ( '' ),
    ( '' ),
    'SwSTEP 2.0',
    'SolidWorks 2022',
    '' );
FILE_SCHEMA (( 'CONFIG_CONTROL_DESIGN' ));
ENDSEC;

DATA;
#1 = AXIS2_PLACEMENT_3D ( 'NONE', #83, #231, #292 ) ;
#2 = DIRECTION ( 'NONE',  ( 3.491481338843133355E-15, -0.000000000000000000, 1.000000000000000000 ) ) ;
#3 = CONICAL_SURFACE ( 'NONE', #198, 1.295000000000000151, 1.047197551196602960 ) ;
#4 = CC_DESIGN_PERSON_AND_ORGANIZATION_ASSIGNMENT ( #258, #347, ( #350 ) ) ;
#5 = EDGE_LOOP ( 'NONE', ( #158 ) ) ;
#6 = DIRECTION ( 'NONE',  ( 1.000000000000000000, 0.000000000000000000, -5.358219230816392807E-15 ) ) ;
#7 = CARTESIAN_POINT ( 'NONE',  ( 0.6650000000000055866, 0.000000000000000000, 1.587499999999996358 ) ) ;
#8 = EDGE_CURVE ( 'NONE', #18, #18, #336, .T. ) ;
#9 = UNCERTAINTY_MEASURE_WITH_UNIT (LENGTH_MEASURE( 1.000000000000000082E-05 ), #309, 'distance_accuracy_value', 'NONE');
#10 = FACE_BOUND ( 'NONE', #5, .T. ) ;
#11 = APPROVAL_ROLE ( '' ) ;
#12 = CYLINDRICAL_SURFACE ( 'NONE', #391, 0.6649999999999995914 ) ;
#13 = CARTESIAN_POINT ( 'NONE',  ( 0.000000000000000000, 0.000000000000000000, 0.000000000000000000 ) ) ;
#14 = APPROVAL_PERSON_ORGANIZATION ( #69, #232, #11 ) ;
#15 = EDGE_LOOP ( 'NONE', ( #196 ) ) ;
#16 = CIRCLE ( 'NONE', #94, 0.6650000000000000355 ) ;
#17 = FACE_OUTER_BOUND ( 'NONE', #229, .T. ) ;
#18 = VERTEX_POINT ( 'NONE', #351 ) ;
#19 = MECHANICAL_CONTEXT ( 'NONE', #147, 'mechanical' ) ;
#20 = EDGE_LOOP ( 'NONE', ( #207 ) ) ;
#21 = AXIS2_PLACEMENT_3D ( 'NONE', #212, #303, #365 ) ;
#22 = CARTESIAN_POINT ( 'NONE',  ( 0.8367282238307371944, 0.000000000000000000, 1.587499999999995914 ) ) ;
#23 = DIRECTION ( 'NONE',  ( -3.491481338843133355E-15, 0.000000000000000000, -1.000000000000000000 ) ) ;
#24 = FACE_OUTER_BOUND ( 'NONE', #77, .T. ) ;
#25 = CIRCLE ( 'NONE', #31, 0.6990741737109289478 ) ;
#26 = FACE_OUTER_BOUND ( 'NONE', #392, .T. ) ;
#27 = ADVANCED_FACE ( 'NONE', ( #217, #24 ), #117, .F. ) ;
#28 = CARTESIAN_POINT ( 'NONE',  ( 0.8367282238307347519, 0.000000000000000000, 0.8929687499999976463 ) ) ;
#29 = ORIENTED_EDGE ( 'NONE', *, *, #171, .F. ) ;
#30 = ORIENTED_EDGE ( 'NONE', *, *, #367, .T. ) ;
#31 = AXIS2_PLACEMENT_3D ( 'NONE', #49, #162, #243 ) ;
#32 = CARTESIAN_POINT ( 'NONE',  ( 1.501155127716147307E-15, 0.000000000000000000, 0.4299479166666661523 ) ) ;
#33 = EDGE_CURVE ( 'NONE', #140, #140, #36, .T. ) ;
#34 = CARTESIAN_POINT ( 'NONE',  ( 3.945373912892741323E-14, 0.000000000000000000, 11.30000000000000071 ) ) ;
#35 = DIRECTION ( 'NONE',  ( -1.000000000000000000, 0.000000000000000000, 3.491481338843133355E-15 ) ) ;
#36 = CIRCLE ( 'NONE', #174, 1.294999999999999929 ) ;
#37 = CC_DESIGN_APPROVAL ( #101, ( #133 ) ) ;
#38 = DIRECTION ( 'NONE',  ( 1.000000000000000000, 0.000000000000000000, -2.608606730792194432E-15 ) ) ;
#39 = DIRECTION ( 'NONE',  ( 3.491481338843133355E-15, -0.000000000000000000, 1.000000000000000000 ) ) ;
#40 = PERSON_AND_ORGANIZATION ( #50, #168 ) ;
#41 = DIRECTION ( 'NONE',  ( 3.491481338843133355E-15, -0.000000000000000000, 1.000000000000000000 ) ) ;
#42 = SECURITY_CLASSIFICATION_LEVEL ( 'unclassified' ) ;
#43 = MANIFOLD_SOLID_BREP ( 'Corps-Déplacer/Copier1', #194 ) ;
#44 = CIRCLE ( 'NONE', #380, 0.6649999999999991473 ) ;
#45 = CIRCLE ( 'NONE', #156, 1.295000000000000151 ) ;
#46 = ADVANCED_FACE ( 'NONE', ( #95, #262 ), #315, .T. ) ;
#47 = DIRECTION ( 'NONE',  ( 1.000000000000000000, 0.000000000000000000, -2.481458393418099385E-15 ) ) ;
#48 = PERSON_AND_ORGANIZATION ( #50, #168 ) ;
#49 = CARTESIAN_POINT ( 'NONE',  ( 4.035740099504003905E-14, 0.000000000000000000, 11.55881904510251701 ) ) ;
#50 = PERSON ( 'UNSPECIFIED', 'UNSPECIFIED', 'UNSPECIFIED', ('UNSPECIFIED'), ('UNSPECIFIED'), ('UNSPECIFIED') ) ;
#51 = PERSON_AND_ORGANIZATION ( #50, #168 ) ;
#52 = AXIS2_PLACEMENT_3D ( 'NONE', #89, #295, #358 ) ;
#53 =( GEOMETRIC_REPRESENTATION_CONTEXT ( 3 ) GLOBAL_UNCERTAINTY_ASSIGNED_CONTEXT ( ( #9 ) ) GLOBAL_UNIT_ASSIGNED_CONTEXT ( ( #309, #219, #99 ) ) REPRESENTATION_CONTEXT ( 'NONE', 'WORKASPACE' ) );
#54 = DIRECTION ( 'NONE',  ( -1.000000000000000000, 0.000000000000000000, 3.469446951953620105E-15 ) ) ;
#55 = PLANE ( 'NONE',  #218 ) ;
#56 = AXIS2_PLACEMENT_3D ( 'NONE', #175, #116, #58 ) ;
#57 = ADVANCED_FACE ( 'NONE', ( #265, #383 ), #390, .T. ) ;
#58 = DIRECTION ( 'NONE',  ( 1.000000000000000000, 0.000000000000000000, -4.336808689942024047E-15 ) ) ;
#59 = PRODUCT_DEFINITION_SHAPE ( 'NONE', 'NONE',  #139 ) ;
#60 = ORIENTED_EDGE ( 'NONE', *, *, #379, .F. ) ;
#61 = CARTESIAN_POINT ( 'NONE',  ( 0.6650000000000385603, 0.000000000000000000, 11.29999999999999893 ) ) ;
#62 = EDGE_CURVE ( 'NONE', #202, #202, #226, .T. ) ;
#63 = ORIENTED_EDGE ( 'NONE', *, *, #185, .F. ) ;
#64 = APPROVAL_STATUS ( 'not_yet_approved' ) ;
#65 = ORIENTED_EDGE ( 'NONE', *, *, #62, .T. ) ;
#66 = FACE_OUTER_BOUND ( 'NONE', #20, .T. ) ;
#67 = EDGE_LOOP ( 'NONE', ( #377 ) ) ;
#68 = CARTESIAN_POINT ( 'NONE',  ( 5.542726625413474202E-15, 0.8367282238307316433, 1.587499999999999911 ) ) ;
#69 = PERSON_AND_ORGANIZATION ( #50, #168 ) ;
#70 = PRODUCT_RELATED_PRODUCT_CATEGORY ( 'detail', '', ( #272 ) ) ;
#71 = APPROVAL_PERSON_ORGANIZATION ( #48, #266, #321 ) ;
#72 = DATE_AND_TIME ( #345, #122 ) ;
#73 = CARTESIAN_POINT ( 'NONE',  ( 5.542726625413469468E-15, 0.000000000000000000, 1.587499999999998579 ) ) ;
#74 = ORIENTED_EDGE ( 'NONE', *, *, #294, .T. ) ;
#75 = DESIGN_CONTEXT ( 'detailed design', #84, 'design' ) ;
#76 = CYLINDRICAL_SURFACE ( 'NONE', #80, 1.999999999999998224 ) ;
#77 = EDGE_LOOP ( 'NONE', ( #277 ) ) ;
#78 = DIRECTION ( 'NONE',  ( 3.491481338843133355E-15, -0.000000000000000000, 1.000000000000000000 ) ) ;
#79 = CALENDAR_DATE ( 2023, 28, 9 ) ;
#80 = AXIS2_PLACEMENT_3D ( 'NONE', #257, #41, #311 ) ;
#81 = ADVANCED_FACE ( 'NONE', ( #324, #305 ), #108, .T. ) ;
#82 = COORDINATED_UNIVERSAL_TIME_OFFSET ( 1, 0, .AHEAD. ) ;
#83 = CARTESIAN_POINT ( 'NONE',  ( 3.117783726795081063E-15, 0.000000000000000000, 0.8929687500000005329 ) ) ;
#84 = APPLICATION_CONTEXT ( 'configuration controlled 3d designs of mechanical parts and assemblies' ) ;
#85 = DIRECTION ( 'NONE',  ( 1.000000000000000000, 0.000000000000000000, -3.491481338843132961E-15 ) ) ;
#86 = ADVANCED_FACE ( 'NONE', ( #239 ), #55, .F. ) ;
#87 = DIRECTION ( 'NONE',  ( 3.491481338843133355E-15, -0.000000000000000000, 1.000000000000000000 ) ) ;
#88 = CIRCLE ( 'NONE', #195, 1.999999999999996669 ) ;
#89 = CARTESIAN_POINT ( 'NONE',  ( -4.692601782201551086E-33, 0.000000000000000000, -1.344014567683869487E-18 ) ) ;
#90 = EDGE_LOOP ( 'NONE', ( #118 ) ) ;
#91 = ADVANCED_FACE ( 'NONE', ( #159 ), #278, .F. ) ;
#92 = EDGE_LOOP ( 'NONE', ( #304 ) ) ;
#93 = ORIENTED_EDGE ( 'NONE', *, *, #141, .F. ) ;
#94 = AXIS2_PLACEMENT_3D ( 'NONE', #235, #376, #100 ) ;
#95 = FACE_BOUND ( 'NONE', #134, .T. ) ;
#96 = EDGE_LOOP ( 'NONE', ( #65 ) ) ;
#97 = PLANE ( 'NONE',  #208 ) ;
#98 = DIRECTION ( 'NONE',  ( 1.000000000000000000, 0.000000000000000000, -3.498562355538586269E-15 ) ) ;
#99 =( NAMED_UNIT ( * ) SI_UNIT ( $, .STERADIAN. ) SOLID_ANGLE_UNIT ( ) );
#100 = DIRECTION ( 'NONE',  ( 1.000000000000000000, 0.000000000000000000, -3.586834254839262463E-15 ) ) ;
#101 = APPROVAL ( #64, 'UNSPECIFIED' ) ;
#102 = APPROVAL_STATUS ( 'not_yet_approved' ) ;
#103 = CC_DESIGN_SECURITY_CLASSIFICATION ( #133, ( #350 ) ) ;
#104 = EDGE_LOOP ( 'NONE', ( #150 ) ) ;
#105 = DIRECTION ( 'NONE',  ( 1.000000000000000000, 0.000000000000000000, -3.498562355538586269E-15 ) ) ;
#106 = DIRECTION ( 'NONE',  ( 3.491481338843133355E-15, -0.000000000000000000, 1.000000000000000000 ) ) ;
#107 = CALENDAR_DATE ( 2023, 28, 9 ) ;
#108 = CONICAL_SURFACE ( 'NONE', #325, 0.6648763077672571464, 1.047197551196595855 ) ;
#109 = AXIS2_PLACEMENT_3D ( 'NONE', #13, #263, #138 ) ;
#110 = CARTESIAN_POINT ( 'NONE',  ( 5.196306211325134973E-15, 0.000000000000000000, 1.488281250000000888 ) ) ;
#111 = AXIS2_PLACEMENT_3D ( 'NONE', #32, #344, #346 ) ;
#112 = DIRECTION ( 'NONE',  ( 3.491481338843133355E-15, -0.000000000000000000, 1.000000000000000000 ) ) ;
#113 = ADVANCED_FACE ( 'NONE', ( #26, #387 ), #326, .T. ) ;
#114 = VERTEX_POINT ( 'NONE', #237 ) ;
#115 = CALENDAR_DATE ( 2023, 28, 9 ) ;
#116 = DIRECTION ( 'NONE',  ( 3.491481338843133355E-15, -0.000000000000000000, 1.000000000000000000 ) ) ;
#117 = TOROIDAL_SURFACE ( 'NONE', #172, 1.664999999999998925, 0.9999999999999997780 ) ;
#118 = ORIENTED_EDGE ( 'NONE', *, *, #8, .T. ) ;
#119 = FACE_OUTER_BOUND ( 'NONE', #205, .T. ) ;
#120 = CALENDAR_DATE ( 2023, 28, 9 ) ;
#121 = CARTESIAN_POINT ( 'NONE',  ( 1.466422162314116009E-13, 0.000000000000000000, 42.00000000000000000 ) ) ;
#122 = LOCAL_TIME ( 8, 23, 26.00000000000000000, #136 ) ;
#123 = SHAPE_DEFINITION_REPRESENTATION ( #59, #317 ) ;
#124 = DIRECTION ( 'NONE',  ( 1.000000000000000000, 0.000000000000000000, -3.491481338843133750E-15 ) ) ;
#125 = EDGE_LOOP ( 'NONE', ( #29 ) ) ;
#126 = DIRECTION ( 'NONE',  ( 3.491481338843133355E-15, -0.000000000000000000, 1.000000000000000000 ) ) ;
#127 = VERTEX_POINT ( 'NONE', #371 ) ;
#128 = FACE_OUTER_BOUND ( 'NONE', #338, .T. ) ;
#129 = DATE_AND_TIME ( #79, #210 ) ;
#130 = VERTEX_POINT ( 'NONE', #7 ) ;
#131 = EDGE_CURVE ( 'NONE', #178, #178, #181, .T. ) ;
#132 = APPLICATION_PROTOCOL_DEFINITION ( 'international standard', 'config_control_design', 1994, #147 ) ;
#133 = SECURITY_CLASSIFICATION ( '', '', #42 ) ;
#134 = EDGE_LOOP ( 'NONE', ( #209 ) ) ;
#135 = DIRECTION ( 'NONE',  ( 1.000000000000000000, 0.000000000000000000, -3.491481338843132961E-15 ) ) ;
#136 = COORDINATED_UNIVERSAL_TIME_OFFSET ( 1, 0, .AHEAD. ) ;
#137 = CARTESIAN_POINT ( 'NONE',  ( 4.272518440422894663E-15, 0.000000000000000000, 1.223697916666668828 ) ) ;
#138 = DIRECTION ( 'NONE',  ( 1.000000000000000000, 0.000000000000000000, 0.000000000000000000 ) ) ;
#139 = PRODUCT_DEFINITION ( 'UNKNOWN', '', #350, #75 ) ;
#140 = VERTEX_POINT ( 'NONE', #293 ) ;
#141 = EDGE_CURVE ( 'NONE', #299, #299, #154, .T. ) ;
#142 = CARTESIAN_POINT ( 'NONE',  ( 1.501155127716147307E-15, 0.000000000000000000, 0.4299479166666661523 ) ) ;
#143 = AXIS2_PLACEMENT_3D ( 'NONE', #183, #279, #374 ) ;
#144 = DIRECTION ( 'NONE',  ( 3.491481338843133355E-15, -0.000000000000000000, 1.000000000000000000 ) ) ;
#145 = EDGE_LOOP ( 'NONE', ( #63 ) ) ;
#146 = VERTEX_POINT ( 'NONE', #334 ) ;
#147 = APPLICATION_CONTEXT ( 'configuration controlled 3d designs of mechanical parts and assemblies' ) ;
#148 = CIRCLE ( 'NONE', #316, 2.000000000000000000 ) ;
#149 = DIRECTION ( 'NONE',  ( 3.491481338843133355E-15, -0.000000000000000000, 1.000000000000000000 ) ) ;
#150 = ORIENTED_EDGE ( 'NONE', *, *, #141, .T. ) ;
#151 = ADVANCED_FACE ( 'NONE', ( #204, #330 ), #298, .T. ) ;
#152 = DIRECTION ( 'NONE',  ( 1.000000000000000000, 0.000000000000000000, -3.469446951953614189E-15 ) ) ;
#153 = ORIENTED_EDGE ( 'NONE', *, *, #238, .F. ) ;
#154 = CIRCLE ( 'NONE', #166, 1.294999999999999929 ) ;
#155 = APPROVAL_ROLE ( '' ) ;
#156 = AXIS2_PLACEMENT_3D ( 'NONE', #348, #78, #320 ) ;
#157 = FACE_OUTER_BOUND ( 'NONE', #67, .T. ) ;
#158 = ORIENTED_EDGE ( 'NONE', *, *, #62, .F. ) ;
#159 = FACE_OUTER_BOUND ( 'NONE', #274, .T. ) ;
#160 = DIRECTION ( 'NONE',  ( 3.491481338843133355E-15, -0.000000000000000000, 1.000000000000000000 ) ) ;
#161 = COORDINATED_UNIVERSAL_TIME_OFFSET ( 1, 0, .AHEAD. ) ;
#162 = DIRECTION ( 'NONE',  ( 3.491481338843133355E-15, -0.000000000000000000, 1.000000000000000000 ) ) ;
#163 = EDGE_LOOP ( 'NONE', ( #375 ) ) ;
#164 = ADVANCED_FACE ( 'NONE', ( #252, #370 ), #97, .F. ) ;
#165 = PERSON_AND_ORGANIZATION_ROLE ( 'creator' ) ;
#166 = AXIS2_PLACEMENT_3D ( 'NONE', #388, #214, #177 ) ;
#167 = PERSON_AND_ORGANIZATION ( #50, #168 ) ;
#168 = ORGANIZATION ( 'UNSPECIFIED', 'UNSPECIFIED', '' ) ;
#169 = CARTESIAN_POINT ( 'NONE',  ( 2.424942898618388011E-15, 0.000000000000000000, 0.6945312499999980460 ) ) ;
#170 = CYLINDRICAL_SURFACE ( 'NONE', #248, 0.8367282238307316433 ) ;
#171 = EDGE_CURVE ( 'NONE', #386, #386, #44, .T. ) ;
#172 = AXIS2_PLACEMENT_3D ( 'NONE', #34, #2, #124 ) ;
#173 = CIRCLE ( 'NONE', #21, 1.295000000000000151 ) ;
#174 = AXIS2_PLACEMENT_3D ( 'NONE', #142, #250, #368 ) ;
#175 = CARTESIAN_POINT ( 'NONE',  ( 1.466422162314116262E-13, 0.000000000000000000, 42.00000000000000711 ) ) ;
#176 = ORIENTED_EDGE ( 'NONE', *, *, #131, .T. ) ;
#177 = DIRECTION ( 'NONE',  ( 1.000000000000000000, 0.000000000000000000, -3.474470282482504822E-15 ) ) ;
#178 = VERTEX_POINT ( 'NONE', #206 ) ;
#179 = EDGE_LOOP ( 'NONE', ( #153 ) ) ;
#180 = CARTESIAN_POINT ( 'NONE',  ( 2.000000000000057288, 0.000000000000000000, 16.41394032569197492 ) ) ;
#181 = CIRCLE ( 'NONE', #56, 1.599999999999997646 ) ;
#182 = ORIENTED_EDGE ( 'NONE', *, *, #185, .T. ) ;
#183 = CARTESIAN_POINT ( 'NONE',  ( 1.466422162314116009E-13, 0.000000000000000000, 42.00000000000000000 ) ) ;
#184 = ORIENTED_EDGE ( 'NONE', *, *, #225, .T. ) ;
#185 = EDGE_CURVE ( 'NONE', #296, #296, #269, .T. ) ;
#186 = EDGE_LOOP ( 'NONE', ( #93 ) ) ;
#187 = EDGE_LOOP ( 'NONE', ( #182 ) ) ;
#188 = DIRECTION ( 'NONE',  ( -1.000000000000000000, 0.000000000000000000, 3.491481338843133355E-15 ) ) ;
#189 = FACE_OUTER_BOUND ( 'NONE', #90, .T. ) ;
#190 = VERTEX_POINT ( 'NONE', #342 ) ;
#191 = DIRECTION ( 'NONE',  ( 1.000000000000000000, 0.000000000000000000, 0.000000000000000000 ) ) ;
#192 = CC_DESIGN_DATE_AND_TIME_ASSIGNMENT ( #290, #349, ( #139 ) ) ;
#193 = CARTESIAN_POINT ( 'NONE',  ( 4.035740099504003905E-14, 0.000000000000000000, 11.55881904510251701 ) ) ;
#194 = CLOSED_SHELL ( 'NONE', ( #91, #81, #113, #287, #395, #57, #271, #331, #151, #164, #353, #27, #389, #322, #46, #86 ) ) ;
#195 = AXIS2_PLACEMENT_3D ( 'NONE', #223, #106, #224 ) ;
#196 = ORIENTED_EDGE ( 'NONE', *, *, #359, .F. ) ;
#197 = DIRECTION ( 'NONE',  ( 1.000000000000000000, 0.000000000000000000, -3.368985972000120024E-15 ) ) ;
#198 = AXIS2_PLACEMENT_3D ( 'NONE', #137, #23, #260 ) ;
#199 = DIRECTION ( 'NONE',  ( -3.491481338843133355E-15, 0.000000000000000000, -1.000000000000000000 ) ) ;
#200 = VERTEX_POINT ( 'NONE', #180 ) ;
#201 = CARTESIAN_POINT ( 'NONE',  ( 0.000000000000000000, 0.000000000000000000, 0.000000000000000000 ) ) ;
#202 = VERTEX_POINT ( 'NONE', #332 ) ;
#203 = AXIS2_PLACEMENT_3D ( 'NONE', #121, #126, #339 ) ;
#204 = FACE_OUTER_BOUND ( 'NONE', #335, .T. ) ;
#205 = EDGE_LOOP ( 'NONE', ( #369 ) ) ;
#206 = CARTESIAN_POINT ( 'NONE',  ( 1.600000000000144196, 0.000000000000000000, 42.00000000000000000 ) ) ;
#207 = ORIENTED_EDGE ( 'NONE', *, *, #379, .T. ) ;
#208 = AXIS2_PLACEMENT_3D ( 'NONE', #68, #341, #188 ) ;
#209 = ORIENTED_EDGE ( 'NONE', *, *, #131, .F. ) ;
#210 = LOCAL_TIME ( 8, 23, 26.00000000000000000, #313 ) ;
#211 = DATE_TIME_ROLE ( 'classification_date' ) ;
#212 = CARTESIAN_POINT ( 'NONE',  ( 4.272518440422894663E-15, 0.000000000000000000, 1.223697916666668828 ) ) ;
#213 = EDGE_LOOP ( 'NONE', ( #176 ) ) ;
#214 = DIRECTION ( 'NONE',  ( 3.491481338843133355E-15, -0.000000000000000000, 1.000000000000000000 ) ) ;
#215 = EDGE_CURVE ( 'NONE', #146, #146, #25, .T. ) ;
#216 = FACE_OUTER_BOUND ( 'NONE', #163, .T. ) ;
#217 = FACE_OUTER_BOUND ( 'NONE', #364, .T. ) ;
#218 = AXIS2_PLACEMENT_3D ( 'NONE', #360, #236, #35 ) ;
#219 =( NAMED_UNIT ( * ) PLANE_ANGLE_UNIT ( ) SI_UNIT ( $, .RADIAN. ) );
#220 = AXIS2_PLACEMENT_3D ( 'NONE', #193, #318, #47 ) ;
#221 = FACE_BOUND ( 'NONE', #276, .T. ) ;
#222 = CC_DESIGN_PERSON_AND_ORGANIZATION_ASSIGNMENT ( #51, #343, ( #139 ) ) ;
#223 = CARTESIAN_POINT ( 'NONE',  ( 1.452456236958743728E-13, 0.000000000000000000, 41.60000000000000853 ) ) ;
#224 = DIRECTION ( 'NONE',  ( 1.000000000000000000, 0.000000000000000000, -3.469446951953620105E-15 ) ) ;
#225 = EDGE_CURVE ( 'NONE', #114, #114, #173, .T. ) ;
#226 = CIRCLE ( 'NONE', #255, 0.8367282238307316433 ) ;
#227 = PERSON_AND_ORGANIZATION ( #50, #168 ) ;
#228 = CARTESIAN_POINT ( 'NONE',  ( 1.452456236958743728E-13, 0.000000000000000000, 41.60000000000000853 ) ) ;
#229 = EDGE_LOOP ( 'NONE', ( #300 ) ) ;
#230 = CC_DESIGN_PERSON_AND_ORGANIZATION_ASSIGNMENT ( #167, #356, ( #133 ) ) ;
#231 = DIRECTION ( 'NONE',  ( 3.491481338843133355E-15, -0.000000000000000000, 1.000000000000000000 ) ) ;
#232 = APPROVAL ( #102, 'UNSPECIFIED' ) ;
#233 = CONICAL_SURFACE ( 'NONE', #220, 0.6990741737109289478, 0.2617993877991428020 ) ;
#234 = CARTESIAN_POINT ( 'NONE',  ( 0.6648763077672571464, 0.000000000000000000, -2.321403221208301824E-15 ) ) ;
#235 = CARTESIAN_POINT ( 'NONE',  ( 5.542726625413469468E-15, 0.000000000000000000, 1.587499999999998579 ) ) ;
#236 = DIRECTION ( 'NONE',  ( -3.491481338843133355E-15, 0.000000000000000000, -1.000000000000000000 ) ) ;
#237 = CARTESIAN_POINT ( 'NONE',  ( 1.295000000000004370, 0.000000000000000000, 1.223697916666664387 ) ) ;
#238 = EDGE_CURVE ( 'NONE', #200, #200, #148, .T. ) ;
#239 = FACE_OUTER_BOUND ( 'NONE', #213, .T. ) ;
#240 = EDGE_LOOP ( 'NONE', ( #74 ) ) ;
#241 = CC_DESIGN_DATE_AND_TIME_ASSIGNMENT ( #245, #211, ( #133 ) ) ;
#242 = ORIENTED_EDGE ( 'NONE', *, *, #323, .F. ) ;
#243 = DIRECTION ( 'NONE',  ( 1.000000000000000000, 0.000000000000000000, -2.481458393418099385E-15 ) ) ;
#244 = ORIENTED_EDGE ( 'NONE', *, *, #215, .F. ) ;
#245 = DATE_AND_TIME ( #120, #291 ) ;
#246 = APPROVAL_DATE_TIME ( #329, #101 ) ;
#247 = AXIS2_PLACEMENT_3D ( 'NONE', #169, #253, #98 ) ;
#248 = AXIS2_PLACEMENT_3D ( 'NONE', #310, #39, #261 ) ;
#249 = PERSON_AND_ORGANIZATION ( #50, #168 ) ;
#250 = DIRECTION ( 'NONE',  ( 3.491481338843133355E-15, -0.000000000000000000, 1.000000000000000000 ) ) ;
#251 = EDGE_LOOP ( 'NONE', ( #60 ) ) ;
#252 = FACE_BOUND ( 'NONE', #15, .T. ) ;
#253 = DIRECTION ( 'NONE',  ( 3.491481338843133355E-15, -0.000000000000000000, 1.000000000000000000 ) ) ;
#254 = FACE_OUTER_BOUND ( 'NONE', #125, .T. ) ;
#255 = AXIS2_PLACEMENT_3D ( 'NONE', #110, #354, #197 ) ;
#256 = AXIS2_PLACEMENT_3D ( 'NONE', #73, #149, #393 ) ;
#257 = CARTESIAN_POINT ( 'NONE',  ( 1.466422162314116009E-13, 0.000000000000000000, 42.00000000000000000 ) ) ;
#258 = PERSON_AND_ORGANIZATION ( #50, #168 ) ;
#259 = ORIENTED_EDGE ( 'NONE', *, *, #33, .F. ) ;
#260 = DIRECTION ( 'NONE',  ( -1.000000000000000000, 0.000000000000000000, 3.516331370223257336E-15 ) ) ;
#261 = DIRECTION ( 'NONE',  ( 1.000000000000000000, 0.000000000000000000, 0.000000000000000000 ) ) ;
#262 = FACE_OUTER_BOUND ( 'NONE', #394, .T. ) ;
#263 = DIRECTION ( 'NONE',  ( 0.000000000000000000, 0.000000000000000000, 1.000000000000000000 ) ) ;
#264 = CIRCLE ( 'NONE', #327, 0.6648763077672571464 ) ;
#265 = FACE_OUTER_BOUND ( 'NONE', #251, .T. ) ;
#266 = APPROVAL ( #352, 'UNSPECIFIED' ) ;
#267 = VERTEX_POINT ( 'NONE', #22 ) ;
#268 = FACE_OUTER_BOUND ( 'NONE', #179, .T. ) ;
#269 = CIRCLE ( 'NONE', #307, 0.8367282238307316433 ) ;
#270 = LOCAL_TIME ( 8, 23, 26.00000000000000000, #281 ) ;
#271 = ADVANCED_FACE ( 'NONE', ( #157, #66 ), #306, .T. ) ;
#272 = PRODUCT ( '966645', '966645', '', ( #19 ) ) ;
#273 = CARTESIAN_POINT ( 'NONE',  ( 1.466422162314116009E-13, 0.000000000000000000, 42.00000000000000000 ) ) ;
#274 = EDGE_LOOP ( 'NONE', ( #242 ) ) ;
#275 = CONICAL_SURFACE ( 'NONE', #111, 1.294999999999999929, 1.047197551196602738 ) ;
#276 = EDGE_LOOP ( 'NONE', ( #314 ) ) ;
#277 = ORIENTED_EDGE ( 'NONE', *, *, #171, .T. ) ;
#278 = PLANE ( 'NONE',  #52 ) ;
#279 = DIRECTION ( 'NONE',  ( 3.491481338843133355E-15, -0.000000000000000000, 1.000000000000000000 ) ) ;
#280 = CC_DESIGN_APPROVAL ( #232, ( #350 ) ) ;
#281 = COORDINATED_UNIVERSAL_TIME_OFFSET ( 1, 0, .AHEAD. ) ;
#282 = FACE_BOUND ( 'NONE', #361, .T. ) ;
#283 = CC_DESIGN_PERSON_AND_ORGANIZATION_ASSIGNMENT ( #227, #382, ( #272 ) ) ;
#284 = CARTESIAN_POINT ( 'NONE',  ( 3.117783726795081063E-15, 0.000000000000000000, 0.8929687500000005329 ) ) ;
#285 = DIRECTION ( 'NONE',  ( 3.491481338843133355E-15, -0.000000000000000000, 1.000000000000000000 ) ) ;
#286 = CARTESIAN_POINT ( 'NONE',  ( 0.000000000000000000, 0.000000000000000000, 0.000000000000000000 ) ) ;
#287 = ADVANCED_FACE ( 'NONE', ( #282, #216 ), #275, .T. ) ;
#288 = FACE_OUTER_BOUND ( 'NONE', #145, .T. ) ;
#289 = CC_DESIGN_PERSON_AND_ORGANIZATION_ASSIGNMENT ( #40, #165, ( #350 ) ) ;
#290 = DATE_AND_TIME ( #107, #301 ) ;
#291 = LOCAL_TIME ( 8, 23, 26.00000000000000000, #82 ) ;
#292 = DIRECTION ( 'NONE',  ( 1.000000000000000000, 0.000000000000000000, -3.498562355538586269E-15 ) ) ;
#293 = CARTESIAN_POINT ( 'NONE',  ( 1.295000000000001483, 0.000000000000000000, 0.4299479166666616559 ) ) ;
#294 = EDGE_CURVE ( 'NONE', #267, #267, #381, .T. ) ;
#295 = DIRECTION ( 'NONE',  ( 3.491481338843133355E-15, -0.000000000000000000, 1.000000000000000000 ) ) ;
#296 = VERTEX_POINT ( 'NONE', #28 ) ;
#297 = EDGE_LOOP ( 'NONE', ( #362 ) ) ;
#298 = CYLINDRICAL_SURFACE ( 'NONE', #203, 0.8367282238307316433 ) ;
#299 = VERTEX_POINT ( 'NONE', #328 ) ;
#300 = ORIENTED_EDGE ( 'NONE', *, *, #359, .T. ) ;
#301 = LOCAL_TIME ( 8, 23, 26.00000000000000000, #161 ) ;
#302 = ORIENTED_EDGE ( 'NONE', *, *, #294, .F. ) ;
#303 = DIRECTION ( 'NONE',  ( 3.491481338843133355E-15, -0.000000000000000000, 1.000000000000000000 ) ) ;
#304 = ORIENTED_EDGE ( 'NONE', *, *, #238, .T. ) ;
#305 = FACE_BOUND ( 'NONE', #297, .T. ) ;
#306 = CYLINDRICAL_SURFACE ( 'NONE', #143, 1.295000000000000151 ) ;
#307 = AXIS2_PLACEMENT_3D ( 'NONE', #284, #112, #105 ) ;
#308 = DIRECTION ( 'NONE',  ( 3.491481338843133355E-15, -0.000000000000000000, 1.000000000000000000 ) ) ;
#309 =( LENGTH_UNIT ( ) NAMED_UNIT ( * ) SI_UNIT ( .MILLI., .METRE. ) );
#310 = CARTESIAN_POINT ( 'NONE',  ( 1.466422162314116009E-13, 0.000000000000000000, 42.00000000000000000 ) ) ;
#311 = DIRECTION ( 'NONE',  ( 1.000000000000000000, 0.000000000000000000, -3.469446951953617344E-15 ) ) ;
#312 = APPROVAL_DATE_TIME ( #72, #266 ) ;
#313 = COORDINATED_UNIVERSAL_TIME_OFFSET ( 1, 0, .AHEAD. ) ;
#314 = ORIENTED_EDGE ( 'NONE', *, *, #215, .T. ) ;
#315 = CONICAL_SURFACE ( 'NONE', #385, 1.999999999999996669, 0.7853981633974412846 ) ;
#316 = AXIS2_PLACEMENT_3D ( 'NONE', #340, #285, #152 ) ;
#317 = ADVANCED_BREP_SHAPE_REPRESENTATION ( '966645', ( #43, #109 ), #53 ) ;
#318 = DIRECTION ( 'NONE',  ( 3.491481338843133355E-15, -0.000000000000000000, 1.000000000000000000 ) ) ;
#319 = APPLICATION_PROTOCOL_DEFINITION ( 'international standard', 'config_control_design', 1994, #84 ) ;
#320 = DIRECTION ( 'NONE',  ( 1.000000000000000000, 0.000000000000000000, -3.516331370223257336E-15 ) ) ;
#321 = APPROVAL_ROLE ( '' ) ;
#322 = ADVANCED_FACE ( 'NONE', ( #119, #363 ), #76, .T. ) ;
#323 = EDGE_CURVE ( 'NONE', #384, #384, #264, .T. ) ;
#324 = FACE_OUTER_BOUND ( 'NONE', #186, .T. ) ;
#325 = AXIS2_PLACEMENT_3D ( 'NONE', #201, #144, #85 ) ;
#326 = CYLINDRICAL_SURFACE ( 'NONE', #355, 1.294999999999999929 ) ;
#327 = AXIS2_PLACEMENT_3D ( 'NONE', #286, #160, #135 ) ;
#328 = CARTESIAN_POINT ( 'NONE',  ( 1.295000000000001261, 0.000000000000000000, 0.3638020833333321380 ) ) ;
#329 = DATE_AND_TIME ( #115, #270 ) ;
#330 = FACE_OUTER_BOUND ( 'NONE', #96, .T. ) ;
#331 = ADVANCED_FACE ( 'NONE', ( #10, #128 ), #3, .T. ) ;
#332 = CARTESIAN_POINT ( 'NONE',  ( 0.8367282238307368614, 0.000000000000000000, 1.488281249999998002 ) ) ;
#333 = ORIENTED_EDGE ( 'NONE', *, *, #8, .F. ) ;
#334 = CARTESIAN_POINT ( 'NONE',  ( 0.6990741737109692489, 0.000000000000000000, 11.55881904510251523 ) ) ;
#335 = EDGE_LOOP ( 'NONE', ( #302 ) ) ;
#336 = CIRCLE ( 'NONE', #247, 0.8367282238307316433 ) ;
#337 = APPROVAL_PERSON_ORGANIZATION ( #249, #101, #155 ) ;
#338 = EDGE_LOOP ( 'NONE', ( #184 ) ) ;
#339 = DIRECTION ( 'NONE',  ( 1.000000000000000000, 0.000000000000000000, 0.000000000000000000 ) ) ;
#340 = CARTESIAN_POINT ( 'NONE',  ( 5.730896634403834062E-14, 0.000000000000000000, 16.41394032569198203 ) ) ;
#341 = DIRECTION ( 'NONE',  ( -3.491481338843133355E-15, 0.000000000000000000, -1.000000000000000000 ) ) ;
#342 = CARTESIAN_POINT ( 'NONE',  ( 1.295000000000004370, 0.000000000000000000, 1.157552083333327930 ) ) ;
#343 = PERSON_AND_ORGANIZATION_ROLE ( 'creator' ) ;
#344 = DIRECTION ( 'NONE',  ( -3.491481338843133355E-15, 0.000000000000000000, -1.000000000000000000 ) ) ;
#345 = CALENDAR_DATE ( 2023, 28, 9 ) ;
#346 = DIRECTION ( 'NONE',  ( -1.000000000000000000, 0.000000000000000000, 3.474470282482504822E-15 ) ) ;
#347 = PERSON_AND_ORGANIZATION_ROLE ( 'design_supplier' ) ;
#348 = CARTESIAN_POINT ( 'NONE',  ( 4.041571497697321767E-15, 0.000000000000000000, 1.157552083333332593 ) ) ;
#349 = DATE_TIME_ROLE ( 'creation_date' ) ;
#350 = PRODUCT_DEFINITION_FORMATION_WITH_SPECIFIED_SOURCE ( 'ANY', '', #272, .NOT_KNOWN. ) ;
#351 = CARTESIAN_POINT ( 'NONE',  ( 0.8367282238307339748, 0.000000000000000000, 0.6945312499999951594 ) ) ;
#352 = APPROVAL_STATUS ( 'not_yet_approved' ) ;
#353 = ADVANCED_FACE ( 'NONE', ( #254, #17 ), #12, .T. ) ;
#354 = DIRECTION ( 'NONE',  ( 3.491481338843133355E-15, -0.000000000000000000, 1.000000000000000000 ) ) ;
#355 = AXIS2_PLACEMENT_3D ( 'NONE', #273, #87, #6 ) ;
#356 = PERSON_AND_ORGANIZATION_ROLE ( 'classification_officer' ) ;
#357 = CARTESIAN_POINT ( 'NONE',  ( 3.945373912892741323E-14, 0.000000000000000000, 11.30000000000000071 ) ) ;
#358 = DIRECTION ( 'NONE',  ( 1.000000000000000000, 0.000000000000000000, -3.491481338843133355E-15 ) ) ;
#359 = EDGE_CURVE ( 'NONE', #130, #130, #16, .T. ) ;
#360 = CARTESIAN_POINT ( 'NONE',  ( 1.466422162314116262E-13, 1.599999999999997646, 42.00000000000000711 ) ) ;
#361 = EDGE_LOOP ( 'NONE', ( #333 ) ) ;
#362 = ORIENTED_EDGE ( 'NONE', *, *, #323, .T. ) ;
#363 = FACE_OUTER_BOUND ( 'NONE', #92, .T. ) ;
#364 = EDGE_LOOP ( 'NONE', ( #244 ) ) ;
#365 = DIRECTION ( 'NONE',  ( 1.000000000000000000, 0.000000000000000000, -3.516331370223257336E-15 ) ) ;
#366 = CC_DESIGN_APPROVAL ( #266, ( #139 ) ) ;
#367 = EDGE_CURVE ( 'NONE', #127, #127, #88, .T. ) ;
#368 = DIRECTION ( 'NONE',  ( 1.000000000000000000, 0.000000000000000000, -3.474470282482504822E-15 ) ) ;
#369 = ORIENTED_EDGE ( 'NONE', *, *, #367, .F. ) ;
#370 = FACE_OUTER_BOUND ( 'NONE', #240, .T. ) ;
#371 = CARTESIAN_POINT ( 'NONE',  ( 2.000000000000141664, 0.000000000000000000, 41.60000000000000142 ) ) ;
#372 = CARTESIAN_POINT ( 'NONE',  ( 1.466422162314116009E-13, 0.000000000000000000, 42.00000000000000000 ) ) ;
#373 = APPROVAL_DATE_TIME ( #129, #232 ) ;
#374 = DIRECTION ( 'NONE',  ( 1.000000000000000000, 0.000000000000000000, -5.358219230816392018E-15 ) ) ;
#375 = ORIENTED_EDGE ( 'NONE', *, *, #33, .T. ) ;
#376 = DIRECTION ( 'NONE',  ( 3.491481338843133355E-15, -0.000000000000000000, 1.000000000000000000 ) ) ;
#377 = ORIENTED_EDGE ( 'NONE', *, *, #225, .F. ) ;
#378 = DIRECTION ( 'NONE',  ( 3.491481338843133355E-15, -0.000000000000000000, 1.000000000000000000 ) ) ;
#379 = EDGE_CURVE ( 'NONE', #190, #190, #45, .T. ) ;
#380 = AXIS2_PLACEMENT_3D ( 'NONE', #357, #308, #38 ) ;
#381 = CIRCLE ( 'NONE', #256, 0.8367282238307316433 ) ;
#382 = PERSON_AND_ORGANIZATION_ROLE ( 'design_owner' ) ;
#383 = FACE_BOUND ( 'NONE', #187, .T. ) ;
#384 = VERTEX_POINT ( 'NONE', #234 ) ;
#385 = AXIS2_PLACEMENT_3D ( 'NONE', #228, #199, #54 ) ;
#386 = VERTEX_POINT ( 'NONE', #61 ) ;
#387 = FACE_OUTER_BOUND ( 'NONE', #104, .T. ) ;
#388 = CARTESIAN_POINT ( 'NONE',  ( 1.270208184990599260E-15, 0.000000000000000000, 0.3638020833333366344 ) ) ;
#389 = ADVANCED_FACE ( 'NONE', ( #268, #221 ), #233, .T. ) ;
#390 = CONICAL_SURFACE ( 'NONE', #1, 0.8367282238307316433, 1.047197551196602960 ) ;
#391 = AXIS2_PLACEMENT_3D ( 'NONE', #372, #378, #191 ) ;
#392 = EDGE_LOOP ( 'NONE', ( #259 ) ) ;
#393 = DIRECTION ( 'NONE',  ( 1.000000000000000000, 0.000000000000000000, -3.368985972000120024E-15 ) ) ;
#394 = EDGE_LOOP ( 'NONE', ( #30 ) ) ;
#395 = ADVANCED_FACE ( 'NONE', ( #288, #189 ), #170, .T. ) ;
ENDSEC;
END-ISO-10303-21;
