ISO-10303-21;
HEADER;
FILE_DESCRIPTION (( 'STEP AP203' ),
    '1' );
FILE_NAME ('966644.step',
    '2023-09-28T06:23:25',
    ( '' ),
    ( '' ),
    'SwSTEP 2.0',
    'SolidWorks 2022',
    '' );
FILE_SCHEMA (( 'CONFIG_CONTROL_DESIGN' ));
ENDSEC;

DATA;
#1 = ORIENTED_EDGE ( 'NONE', *, *, #156, .F. ) ;
#2 = ADVANCED_FACE ( 'NONE', ( #106, #104 ), #11, .T. ) ;
#3 = ORIENTED_EDGE ( 'NONE', *, *, #223, .F. ) ;
#4 = EDGE_LOOP ( 'NONE', ( #282 ) ) ;
#5 = APPROVAL ( #119, 'UNSPECIFIED' ) ;
#6 = EDGE_LOOP ( 'NONE', ( #69 ) ) ;
#7 = DIRECTION ( 'NONE',  ( 3.491481338843133355E-15, -0.000000000000000000, 1.000000000000000000 ) ) ;
#8 = ORIENTED_EDGE ( 'NONE', *, *, #193, .F. ) ;
#9 = EDGE_LOOP ( 'NONE', ( #33 ) ) ;
#10 = DIRECTION ( 'NONE',  ( 3.491481338843133355E-15, -0.000000000000000000, 1.000000000000000000 ) ) ;
#11 = CONICAL_SURFACE ( 'NONE', #280, 2.999999999999994227, 0.7853981633974501664 ) ;
#12 = EDGE_LOOP ( 'NONE', ( #260 ) ) ;
#13 = CARTESIAN_POINT ( 'NONE',  ( 2.199633243471174140E-13, 0.000000000000000000, 63.00000000000000000 ) ) ;
#14 = ADVANCED_FACE ( 'NONE', ( #341, #348 ), #368, .T. ) ;
#15 = ORIENTED_EDGE ( 'NONE', *, *, #167, .F. ) ;
#16 = DIRECTION ( 'NONE',  ( 1.000000000000000000, 0.000000000000000000, -3.540251991789402700E-15 ) ) ;
#17 = CARTESIAN_POINT ( 'NONE',  ( 6.334544714758250145E-15, 0.000000000000000000, 1.814285714285712725 ) ) ;
#18 = CIRCLE ( 'NONE', #38, 2.205000000000000071 ) ;
#19 = DIRECTION ( 'NONE',  ( 3.491481338843133355E-15, -0.000000000000000000, 1.000000000000000000 ) ) ;
#20 = CARTESIAN_POINT ( 'NONE',  ( 1.681260827235124378, 0.000000000000000000, 0.7937499999999969580 ) ) ;
#21 = VERTEX_POINT ( 'NONE', #20 ) ;
#22 = CARTESIAN_POINT ( 'NONE',  ( 1.519074173710990738, 0.000000000000000000, 17.85881904510251061 ) ) ;
#23 = CC_DESIGN_PERSON_AND_ORGANIZATION_ASSIGNMENT ( #243, #308, ( #103 ) ) ;
#24 = CIRCLE ( 'NONE', #364, 2.204999999999999627 ) ;
#25 = PERSON_AND_ORGANIZATION ( #347, #389 ) ;
#26 = FACE_OUTER_BOUND ( 'NONE', #289, .T. ) ;
#27 = APPROVAL_DATE_TIME ( #276, #95 ) ;
#28 = APPROVAL_PERSON_ORGANIZATION ( #271, #95, #91 ) ;
#29 = DIRECTION ( 'NONE',  ( 0.000000000000000000, 0.000000000000000000, 1.000000000000000000 ) ) ;
#30 = CYLINDRICAL_SURFACE ( 'NONE', #123, 1.484999999999998987 ) ;
#31 = ADVANCED_FACE ( 'NONE', ( #315, #190 ), #240, .F. ) ;
#32 = APPROVAL_STATUS ( 'not_yet_approved' ) ;
#33 = ORIENTED_EDGE ( 'NONE', *, *, #80, .T. ) ;
#34 = PLANE ( 'NONE',  #313 ) ;
#35 = FACE_BOUND ( 'NONE', #138, .T. ) ;
#36 = AXIS2_PLACEMENT_3D ( 'NONE', #362, #185, #211 ) ;
#37 = CC_DESIGN_PERSON_AND_ORGANIZATION_ASSIGNMENT ( #118, #279, ( #103 ) ) ;
#38 = AXIS2_PLACEMENT_3D ( 'NONE', #378, #141, #352 ) ;
#39 = FACE_BOUND ( 'NONE', #67, .T. ) ;
#40 = DIRECTION ( 'NONE',  ( 3.491481338843133355E-15, -0.000000000000000000, 1.000000000000000000 ) ) ;
#41 = CARTESIAN_POINT ( 'NONE',  ( 6.145007156363915967E-14, 0.000000000000000000, 17.60000000000000142 ) ) ;
#42 = EDGE_LOOP ( 'NONE', ( #287 ) ) ;
#43 = FACE_BOUND ( 'NONE', #96, .T. ) ;
#44 = CARTESIAN_POINT ( 'NONE',  ( 6.334544714758256456E-15, 1.681260827235121491, 1.814285714285714501 ) ) ;
#45 = DIRECTION ( 'NONE',  ( 1.000000000000000000, 0.000000000000000000, -5.782411586589384066E-15 ) ) ;
#46 = ADVANCED_FACE ( 'NONE', ( #218 ), #34, .F. ) ;
#47 = CARTESIAN_POINT ( 'NONE',  ( 1.681260827235125266, 0.000000000000000000, 1.020535714285710993 ) ) ;
#48 = AXIS2_PLACEMENT_3D ( 'NONE', #234, #137, #226 ) ;
#49 = VERTEX_POINT ( 'NONE', #384 ) ;
#50 = AXIS2_PLACEMENT_3D ( 'NONE', #179, #19, #328 ) ;
#51 = CYLINDRICAL_SURFACE ( 'NONE', #50, 2.205000000000000071 ) ;
#52 = CIRCLE ( 'NONE', #187, 3.000000000000000000 ) ;
#53 = ADVANCED_FACE ( 'NONE', ( #39, #284 ), #321, .F. ) ;
#54 = SECURITY_CLASSIFICATION ( '', '', #82 ) ;
#55 = COORDINATED_UNIVERSAL_TIME_OFFSET ( 1, 0, .AHEAD. ) ;
#56 = COORDINATED_UNIVERSAL_TIME_OFFSET ( 1, 0, .AHEAD. ) ;
#57 = CARTESIAN_POINT ( 'NONE',  ( 3.563181402051528427E-15, 0.000000000000000000, 1.020535714285716988 ) ) ;
#58 = DATE_AND_TIME ( #88, #360 ) ;
#59 = DIRECTION ( 'NONE',  ( -1.000000000000000000, 0.000000000000000000, 3.491481338843133355E-15 ) ) ;
#60 = LOCAL_TIME ( 8, 23, 25.00000000000000000, #55 ) ;
#61 = EDGE_LOOP ( 'NONE', ( #342 ) ) ;
#62 = AXIS2_PLACEMENT_3D ( 'NONE', #259, #7, #346 ) ;
#63 = CARTESIAN_POINT ( 'NONE',  ( 2.199633243471174140E-13, 0.000000000000000000, 63.00000000000000000 ) ) ;
#64 = CC_DESIGN_PERSON_AND_ORGANIZATION_ASSIGNMENT ( #309, #333, ( #101 ) ) ;
#65 = ADVANCED_FACE ( 'NONE', ( #85, #26 ), #30, .T. ) ;
#66 = CARTESIAN_POINT ( 'NONE',  ( 2.178684355438115214E-13, 0.000000000000000000, 62.39999999999999858 ) ) ;
#67 = EDGE_LOOP ( 'NONE', ( #92 ) ) ;
#68 = DIRECTION ( 'NONE',  ( 3.491481338843133355E-15, -0.000000000000000000, 1.000000000000000000 ) ) ;
#69 = ORIENTED_EDGE ( 'NONE', *, *, #327, .F. ) ;
#70 = EDGE_CURVE ( 'NONE', #75, #75, #358, .T. ) ;
#71 = DIRECTION ( 'NONE',  ( 1.000000000000000000, 0.000000000000000000, -4.567844035526117125E-15 ) ) ;
#72 = FACE_OUTER_BOUND ( 'NONE', #369, .T. ) ;
#73 = AXIS2_PLACEMENT_3D ( 'NONE', #44, #168, #59 ) ;
#74 = FACE_OUTER_BOUND ( 'NONE', #311, .T. ) ;
#75 = VERTEX_POINT ( 'NONE', #47 ) ;
#76 = FACE_OUTER_BOUND ( 'NONE', #12, .T. ) ;
#77 = AXIS2_PLACEMENT_3D ( 'NONE', #112, #144, #296 ) ;
#78 = CARTESIAN_POINT ( 'NONE',  ( 1.485000000000006315, 0.000000000000000000, 1.814285714285707618 ) ) ;
#79 = VERTEX_POINT ( 'NONE', #148 ) ;
#80 = EDGE_CURVE ( 'NONE', #111, #111, #204, .T. ) ;
#81 = FACE_OUTER_BOUND ( 'NONE', #219, .T. ) ;
#82 = SECURITY_CLASSIFICATION_LEVEL ( 'unclassified' ) ;
#83 =( GEOMETRIC_REPRESENTATION_CONTEXT ( 3 ) GLOBAL_UNCERTAINTY_ASSIGNED_CONTEXT ( ( #210 ) ) GLOBAL_UNIT_ASSIGNED_CONTEXT ( ( #114, #361, #181 ) ) REPRESENTATION_CONTEXT ( 'NONE', 'WORKASPACE' ) );
#84 = DIRECTION ( 'NONE',  ( 3.491481338843133355E-15, -0.000000000000000000, 1.000000000000000000 ) ) ;
#85 = FACE_OUTER_BOUND ( 'NONE', #6, .T. ) ;
#86 = EDGE_LOOP ( 'NONE', ( #89 ) ) ;
#87 = AXIS2_PLACEMENT_3D ( 'NONE', #172, #107, #374 ) ;
#88 = CALENDAR_DATE ( 2023, 28, 9 ) ;
#89 = ORIENTED_EDGE ( 'NONE', *, *, #227, .F. ) ;
#90 = DIRECTION ( 'NONE',  ( 1.000000000000000000, 0.000000000000000000, -3.482322098142214197E-15 ) ) ;
#91 = APPROVAL_ROLE ( '' ) ;
#92 = ORIENTED_EDGE ( 'NONE', *, *, #391, .F. ) ;
#93 = CARTESIAN_POINT ( 'NONE',  ( 3.563181402051528427E-15, 0.000000000000000000, 1.020535714285716988 ) ) ;
#94 = CC_DESIGN_APPROVAL ( #5, ( #54 ) ) ;
#95 = APPROVAL ( #32, 'UNSPECIFIED' ) ;
#96 = EDGE_LOOP ( 'NONE', ( #213 ) ) ;
#97 = EDGE_LOOP ( 'NONE', ( #3 ) ) ;
#98 = DIRECTION ( 'NONE',  ( 3.491481338843133355E-15, -0.000000000000000000, 1.000000000000000000 ) ) ;
#99 = ORIENTED_EDGE ( 'NONE', *, *, #241, .F. ) ;
#100 = FACE_OUTER_BOUND ( 'NONE', #339, .T. ) ;
#101 = PRODUCT_DEFINITION ( 'UNKNOWN', '', #103, #274 ) ;
#102 = AXIS2_PLACEMENT_3D ( 'NONE', #139, #105, #370 ) ;
#103 = PRODUCT_DEFINITION_FORMATION_WITH_SPECIFIED_SOURCE ( 'ANY', '', #270, .NOT_KNOWN. ) ;
#104 = FACE_OUTER_BOUND ( 'NONE', #278, .T. ) ;
#105 = DIRECTION ( 'NONE',  ( 3.491481338843133355E-15, -0.000000000000000000, 1.000000000000000000 ) ) ;
#106 = FACE_BOUND ( 'NONE', #305, .T. ) ;
#107 = DIRECTION ( 'NONE',  ( -3.491481338843133355E-15, 0.000000000000000000, -1.000000000000000000 ) ) ;
#108 = DIRECTION ( 'NONE',  ( 3.491481338843133355E-15, -0.000000000000000000, 1.000000000000000000 ) ) ;
#109 = AXIS2_PLACEMENT_3D ( 'NONE', #17, #203, #330 ) ;
#110 = FACE_OUTER_BOUND ( 'NONE', #154, .T. ) ;
#111 = VERTEX_POINT ( 'NONE', #238 ) ;
#112 = CARTESIAN_POINT ( 'NONE',  ( 6.235373342975177919E-14, 0.000000000000000000, 17.85881904510251772 ) ) ;
#113 = ADVANCED_BREP_SHAPE_REPRESENTATION ( '966644', ( #165, #250 ), #83 ) ;
#114 =( LENGTH_UNIT ( ) NAMED_UNIT ( * ) SI_UNIT ( .MILLI., .METRE. ) );
#115 = ORIENTED_EDGE ( 'NONE', *, *, #135, .T. ) ;
#116 = PRODUCT_DEFINITION_SHAPE ( 'NONE', 'NONE',  #101 ) ;
#117 = CARTESIAN_POINT ( 'NONE',  ( 1.681260827235127486, 0.000000000000000000, 1.700892857142853209 ) ) ;
#118 = PERSON_AND_ORGANIZATION ( #347, #389 ) ;
#119 = APPROVAL_STATUS ( 'not_yet_approved' ) ;
#120 = DATE_AND_TIME ( #334, #314 ) ;
#121 = ADVANCED_FACE ( 'NONE', ( #394, #247 ), #215, .T. ) ;
#122 = MECHANICAL_CONTEXT ( 'NONE', #173, 'mechanical' ) ;
#123 = AXIS2_PLACEMENT_3D ( 'NONE', #312, #207, #359 ) ;
#124 = ORIENTED_EDGE ( 'NONE', *, *, #223, .T. ) ;
#125 = DIRECTION ( 'NONE',  ( 1.000000000000000000, 0.000000000000000000, -3.491481338843133355E-15 ) ) ;
#126 = ORIENTED_EDGE ( 'NONE', *, *, #227, .T. ) ;
#127 = CARTESIAN_POINT ( 'NONE',  ( 1.715605860247046427E-15, 0.000000000000000000, 0.4913690476190529788 ) ) ;
#128 = ORIENTED_EDGE ( 'NONE', *, *, #167, .T. ) ;
#129 = CARTESIAN_POINT ( 'NONE',  ( 2.199633243471174140E-13, 0.000000000000000000, 63.00000000000000000 ) ) ;
#130 = AXIS2_PLACEMENT_3D ( 'NONE', #163, #351, #349 ) ;
#131 = DIRECTION ( 'NONE',  ( 3.491481338843133355E-15, -0.000000000000000000, 1.000000000000000000 ) ) ;
#132 = AXIS2_PLACEMENT_3D ( 'NONE', #63, #131, #373 ) ;
#133 = ORIENTED_EDGE ( 'NONE', *, *, #135, .F. ) ;
#134 = CARTESIAN_POINT ( 'NONE',  ( 8.165076821379354693E-14, 0.000000000000000000, 23.38570947105439402 ) ) ;
#135 = EDGE_CURVE ( 'NONE', #21, #21, #380, .T. ) ;
#136 = EDGE_LOOP ( 'NONE', ( #115 ) ) ;
#137 = DIRECTION ( 'NONE',  ( 3.491481338843133355E-15, -0.000000000000000000, 1.000000000000000000 ) ) ;
#138 = EDGE_LOOP ( 'NONE', ( #318 ) ) ;
#139 = CARTESIAN_POINT ( 'NONE',  ( 5.938635670085872034E-15, 0.000000000000000000, 1.700892857142859205 ) ) ;
#140 = AXIS2_PLACEMENT_3D ( 'NONE', #214, #195, #189 ) ;
#141 = DIRECTION ( 'NONE',  ( 3.491481338843133355E-15, -0.000000000000000000, 1.000000000000000000 ) ) ;
#142 = APPLICATION_CONTEXT ( 'configuration controlled 3d designs of mechanical parts and assemblies' ) ;
#143 = AXIS2_PLACEMENT_3D ( 'NONE', #266, #237, #198 ) ;
#144 = DIRECTION ( 'NONE',  ( 3.491481338843133355E-15, -0.000000000000000000, 1.000000000000000000 ) ) ;
#145 = ADVANCED_FACE ( 'NONE', ( #72 ), #316, .F. ) ;
#146 = VERTEX_POINT ( 'NONE', #22 ) ;
#147 = VERTEX_POINT ( 'NONE', #78 ) ;
#148 = CARTESIAN_POINT ( 'NONE',  ( 3.000000000000081712, 0.000000000000000000, 23.38570947105438336 ) ) ;
#149 = DATE_TIME_ROLE ( 'creation_date' ) ;
#150 = AXIS2_PLACEMENT_3D ( 'NONE', #285, #10, #45 ) ;
#151 = PERSON_AND_ORGANIZATION ( #347, #389 ) ;
#152 = COORDINATED_UNIVERSAL_TIME_OFFSET ( 1, 0, .AHEAD. ) ;
#153 = DATE_TIME_ROLE ( 'classification_date' ) ;
#154 = EDGE_LOOP ( 'NONE', ( #99 ) ) ;
#155 = DIRECTION ( 'NONE',  ( 1.000000000000000000, 0.000000000000000000, -3.482322098142214197E-15 ) ) ;
#156 = EDGE_CURVE ( 'NONE', #146, #146, #393, .T. ) ;
#157 = CIRCLE ( 'NONE', #62, 2.999999999999994227 ) ;
#158 = CALENDAR_DATE ( 2023, 28, 9 ) ;
#159 = EDGE_LOOP ( 'NONE', ( #15 ) ) ;
#160 = DIRECTION ( 'NONE',  ( 3.491481338843133355E-15, -0.000000000000000000, 1.000000000000000000 ) ) ;
#161 = AXIS2_PLACEMENT_3D ( 'NONE', #41, #337, #345 ) ;
#162 = EDGE_LOOP ( 'NONE', ( #171 ) ) ;
#163 = CARTESIAN_POINT ( 'NONE',  ( 4.882878217626147636E-15, 0.000000000000000000, 1.398511904761902347 ) ) ;
#164 = CARTESIAN_POINT ( 'NONE',  ( 6.235373342975177919E-14, 0.000000000000000000, 17.85881904510251772 ) ) ;
#165 = MANIFOLD_SOLID_BREP ( 'Corps-Déplacer/Copier1', #177 ) ;
#166 = FACE_BOUND ( 'NONE', #366, .T. ) ;
#167 = EDGE_CURVE ( 'NONE', #175, #175, #24, .T. ) ;
#168 = DIRECTION ( 'NONE',  ( -3.491481338843133355E-15, 0.000000000000000000, -1.000000000000000000 ) ) ;
#169 = FACE_OUTER_BOUND ( 'NONE', #86, .T. ) ;
#170 = CIRCLE ( 'NONE', #109, 1.485000000000000098 ) ;
#171 = ORIENTED_EDGE ( 'NONE', *, *, #344, .T. ) ;
#172 = CARTESIAN_POINT ( 'NONE',  ( 2.199633243471174140E-13, 2.399999999999988809, 63.00000000000000000 ) ) ;
#173 = APPLICATION_CONTEXT ( 'configuration controlled 3d designs of mechanical parts and assemblies' ) ;
#174 = ADVANCED_FACE ( 'NONE', ( #166, #322 ), #325, .T. ) ;
#175 = VERTEX_POINT ( 'NONE', #242 ) ;
#176 = DIRECTION ( 'NONE',  ( 3.491481338843133355E-15, -0.000000000000000000, 1.000000000000000000 ) ) ;
#177 = CLOSED_SHELL ( 'NONE', ( #46, #297, #304, #174, #245, #121, #14, #248, #307, #53, #65, #31, #377, #233, #2, #145 ) ) ;
#178 = FACE_OUTER_BOUND ( 'NONE', #97, .T. ) ;
#179 = CARTESIAN_POINT ( 'NONE',  ( 2.199633243471174140E-13, 0.000000000000000000, 63.00000000000000000 ) ) ;
#180 = FACE_OUTER_BOUND ( 'NONE', #162, .T. ) ;
#181 =( NAMED_UNIT ( * ) SI_UNIT ( $, .STERADIAN. ) SOLID_ANGLE_UNIT ( ) );
#182 = CALENDAR_DATE ( 2023, 28, 9 ) ;
#183 = CC_DESIGN_DATE_AND_TIME_ASSIGNMENT ( #120, #153, ( #54 ) ) ;
#184 = CC_DESIGN_APPROVAL ( #95, ( #103 ) ) ;
#185 = DIRECTION ( 'NONE',  ( 3.491481338843133355E-15, -0.000000000000000000, 1.000000000000000000 ) ) ;
#186 = APPROVAL_STATUS ( 'not_yet_approved' ) ;
#187 = AXIS2_PLACEMENT_3D ( 'NONE', #134, #40, #367 ) ;
#188 = ORIENTED_EDGE ( 'NONE', *, *, #156, .T. ) ;
#189 = DIRECTION ( 'NONE',  ( 1.000000000000000000, 0.000000000000000000, -3.482322098142214591E-15 ) ) ;
#190 = FACE_OUTER_BOUND ( 'NONE', #42, .T. ) ;
#191 = EDGE_LOOP ( 'NONE', ( #128 ) ) ;
#192 = CARTESIAN_POINT ( 'NONE',  ( 4.618938854511228370E-15, 0.000000000000000000, 1.322916666666666741 ) ) ;
#193 = EDGE_CURVE ( 'NONE', #331, #331, #231, .T. ) ;
#194 = CARTESIAN_POINT ( 'NONE',  ( 1.975435796421007861E-32, 0.000000000000000000, 5.657872990595872669E-18 ) ) ;
#195 = DIRECTION ( 'NONE',  ( 3.491481338843133355E-15, -0.000000000000000000, 1.000000000000000000 ) ) ;
#196 = DIRECTION ( 'NONE',  ( -1.000000000000000000, 0.000000000000000000, 3.491081825236771461E-15 ) ) ;
#197 = AXIS2_PLACEMENT_3D ( 'NONE', #268, #295, #199 ) ;
#198 = DIRECTION ( 'NONE',  ( 1.000000000000000000, 0.000000000000000000, -3.491481338843133750E-15 ) ) ;
#199 = DIRECTION ( 'NONE',  ( 1.000000000000000000, 0.000000000000000000, -2.336327913773480467E-15 ) ) ;
#200 = LOCAL_TIME ( 8, 23, 25.00000000000000000, #386 ) ;
#201 = CARTESIAN_POINT ( 'NONE',  ( 2.199633243471174140E-13, 0.000000000000000000, 63.00000000000000000 ) ) ;
#202 = CIRCLE ( 'NONE', #383, 2.204999999999999627 ) ;
#203 = DIRECTION ( 'NONE',  ( 3.491481338843133355E-15, -0.000000000000000000, 1.000000000000000000 ) ) ;
#204 = CIRCLE ( 'NONE', #36, 2.205000000000000071 ) ;
#205 = CIRCLE ( 'NONE', #281, 1.484858637448293717 ) ;
#206 = PERSON_AND_ORGANIZATION_ROLE ( 'classification_officer' ) ;
#207 = DIRECTION ( 'NONE',  ( 3.491481338843133355E-15, -0.000000000000000000, 1.000000000000000000 ) ) ;
#208 = APPROVAL ( #186, 'UNSPECIFIED' ) ;
#209 = APPLICATION_PROTOCOL_DEFINITION ( 'international standard', 'config_control_design', 1994, #142 ) ;
#210 = UNCERTAINTY_MEASURE_WITH_UNIT (LENGTH_MEASURE( 1.000000000000000082E-05 ), #114, 'distance_accuracy_value', 'NONE');
#211 = DIRECTION ( 'NONE',  ( 1.000000000000000000, 0.000000000000000000, -3.491081825236771461E-15 ) ) ;
#212 = APPROVAL_DATE_TIME ( #273, #208 ) ;
#213 = ORIENTED_EDGE ( 'NONE', *, *, #294, .T. ) ;
#214 = CARTESIAN_POINT ( 'NONE',  ( 2.771363312706746567E-15, 0.000000000000000000, 0.7937500000000028422 ) ) ;
#215 = CONICAL_SURFACE ( 'NONE', #332, 1.681260827235121713, 1.047197551196603849 ) ;
#216 = AXIS2_PLACEMENT_3D ( 'NONE', #201, #176, #298 ) ;
#217 = EDGE_LOOP ( 'NONE', ( #124 ) ) ;
#218 = FACE_OUTER_BOUND ( 'NONE', #4, .T. ) ;
#219 = EDGE_LOOP ( 'NONE', ( #229 ) ) ;
#220 = AXIS2_PLACEMENT_3D ( 'NONE', #13, #98, #323 ) ;
#221 = EDGE_LOOP ( 'NONE', ( #188 ) ) ;
#222 = CYLINDRICAL_SURFACE ( 'NONE', #220, 2.999999999999997335 ) ;
#223 = EDGE_CURVE ( 'NONE', #79, #79, #52, .T. ) ;
#224 = ORIENTED_EDGE ( 'NONE', *, *, #241, .T. ) ;
#225 = ORIENTED_EDGE ( 'NONE', *, *, #256, .F. ) ;
#226 = DIRECTION ( 'NONE',  ( 1.000000000000000000, 0.000000000000000000, -3.482322098142214591E-15 ) ) ;
#227 = EDGE_CURVE ( 'NONE', #269, #269, #157, .T. ) ;
#228 = DIRECTION ( 'NONE',  ( -3.491481338843133355E-15, 0.000000000000000000, -1.000000000000000000 ) ) ;
#229 = ORIENTED_EDGE ( 'NONE', *, *, #291, .T. ) ;
#230 = DIRECTION ( 'NONE',  ( -3.491481338843133355E-15, 0.000000000000000000, -1.000000000000000000 ) ) ;
#231 = CIRCLE ( 'NONE', #150, 2.399999999999988809 ) ;
#232 = ORIENTED_EDGE ( 'NONE', *, *, #391, .T. ) ;
#233 = ADVANCED_FACE ( 'NONE', ( #169, #288 ), #222, .T. ) ;
#234 = CARTESIAN_POINT ( 'NONE',  ( 6.334544714758250145E-15, 0.000000000000000000, 1.814285714285712725 ) ) ;
#235 = APPROVAL_PERSON_ORGANIZATION ( #388, #208, #390 ) ;
#236 = CC_DESIGN_PERSON_AND_ORGANIZATION_ASSIGNMENT ( #246, #336, ( #270 ) ) ;
#237 = DIRECTION ( 'NONE',  ( 3.491481338843133355E-15, -0.000000000000000000, 1.000000000000000000 ) ) ;
#238 = CARTESIAN_POINT ( 'NONE',  ( 2.205000000000001847, 0.000000000000000000, 0.4913690476190452627 ) ) ;
#239 = VERTEX_POINT ( 'NONE', #326 ) ;
#240 = TOROIDAL_SURFACE ( 'NONE', #161, 2.484999999999998543, 1.000000000000000444 ) ;
#241 = EDGE_CURVE ( 'NONE', #356, #356, #385, .T. ) ;
#242 = CARTESIAN_POINT ( 'NONE',  ( 2.205000000000004068, 0.000000000000000000, 1.322916666666658969 ) ) ;
#243 = PERSON_AND_ORGANIZATION ( #347, #389 ) ;
#244 = APPROVAL_ROLE ( '' ) ;
#245 = ADVANCED_FACE ( 'NONE', ( #263, #372 ), #290, .T. ) ;
#246 = PERSON_AND_ORGANIZATION ( #347, #389 ) ;
#247 = FACE_BOUND ( 'NONE', #61, .T. ) ;
#248 = ADVANCED_FACE ( 'NONE', ( #35, #74 ), #252, .T. ) ;
#249 = APPLICATION_PROTOCOL_DEFINITION ( 'international standard', 'config_control_design', 1994, #173 ) ;
#250 = AXIS2_PLACEMENT_3D ( 'NONE', #395, #29, #357 ) ;
#251 = AXIS2_PLACEMENT_3D ( 'NONE', #127, #230, #196 ) ;
#252 = CONICAL_SURFACE ( 'NONE', #130, 2.204999999999999627, 1.047197551196593857 ) ;
#253 = ORIENTED_EDGE ( 'NONE', *, *, #193, .T. ) ;
#254 = ORIENTED_EDGE ( 'NONE', *, *, #256, .T. ) ;
#255 = DIRECTION ( 'NONE',  ( 1.000000000000000000, 0.000000000000000000, 0.000000000000000000 ) ) ;
#256 = EDGE_CURVE ( 'NONE', #264, #264, #202, .T. ) ;
#257 = EDGE_LOOP ( 'NONE', ( #225 ) ) ;
#258 = ORIENTED_EDGE ( 'NONE', *, *, #70, .F. ) ;
#259 = CARTESIAN_POINT ( 'NONE',  ( 2.178684355438115214E-13, 0.000000000000000000, 62.39999999999999858 ) ) ;
#260 = ORIENTED_EDGE ( 'NONE', *, *, #80, .F. ) ;
#261 = DIRECTION ( 'NONE',  ( 3.491481338843133355E-15, -0.000000000000000000, 1.000000000000000000 ) ) ;
#262 = EDGE_LOOP ( 'NONE', ( #1 ) ) ;
#263 = FACE_OUTER_BOUND ( 'NONE', #335, .T. ) ;
#264 = VERTEX_POINT ( 'NONE', #353 ) ;
#265 = CC_DESIGN_APPROVAL ( #208, ( #101 ) ) ;
#266 = CARTESIAN_POINT ( 'NONE',  ( 0.000000000000000000, 0.000000000000000000, 0.000000000000000000 ) ) ;
#267 = CARTESIAN_POINT ( 'NONE',  ( 2.400000000000208633, 0.000000000000000000, 62.99999999999998579 ) ) ;
#268 = CARTESIAN_POINT ( 'NONE',  ( 6.145007156363917230E-14, 0.000000000000000000, 17.60000000000000497 ) ) ;
#269 = VERTEX_POINT ( 'NONE', #379 ) ;
#270 = PRODUCT ( '966644', '966644', '', ( #122 ) ) ;
#271 = PERSON_AND_ORGANIZATION ( #347, #389 ) ;
#272 = AXIS2_PLACEMENT_3D ( 'NONE', #164, #68, #71 ) ;
#273 = DATE_AND_TIME ( #182, #60 ) ;
#274 = DESIGN_CONTEXT ( 'detailed design', #142, 'design' ) ;
#275 = LOCAL_TIME ( 8, 23, 25.00000000000000000, #56 ) ;
#276 = DATE_AND_TIME ( #158, #200 ) ;
#277 = APPROVAL_DATE_TIME ( #58, #5 ) ;
#278 = EDGE_LOOP ( 'NONE', ( #126 ) ) ;
#279 = PERSON_AND_ORGANIZATION_ROLE ( 'creator' ) ;
#280 = AXIS2_PLACEMENT_3D ( 'NONE', #66, #228, #317 ) ;
#281 = AXIS2_PLACEMENT_3D ( 'NONE', #375, #108, #283 ) ;
#282 = ORIENTED_EDGE ( 'NONE', *, *, #294, .F. ) ;
#283 = DIRECTION ( 'NONE',  ( 1.000000000000000000, 0.000000000000000000, -3.491481338843133750E-15 ) ) ;
#284 = FACE_OUTER_BOUND ( 'NONE', #310, .T. ) ;
#285 = CARTESIAN_POINT ( 'NONE',  ( 2.199633243471174140E-13, 0.000000000000000000, 63.00000000000000000 ) ) ;
#286 = DIRECTION ( 'NONE',  ( 1.000000000000000000, 0.000000000000000000, -3.540251991789402700E-15 ) ) ;
#287 = ORIENTED_EDGE ( 'NONE', *, *, #327, .T. ) ;
#288 = FACE_OUTER_BOUND ( 'NONE', #217, .T. ) ;
#289 = EDGE_LOOP ( 'NONE', ( #232 ) ) ;
#290 = CYLINDRICAL_SURFACE ( 'NONE', #320, 1.681260827235121491 ) ;
#291 = EDGE_CURVE ( 'NONE', #355, #355, #299, .T. ) ;
#292 = FACE_BOUND ( 'NONE', #221, .T. ) ;
#293 = CC_DESIGN_PERSON_AND_ORGANIZATION_ASSIGNMENT ( #25, #206, ( #54 ) ) ;
#294 = EDGE_CURVE ( 'NONE', #376, #376, #205, .T. ) ;
#295 = DIRECTION ( 'NONE',  ( 3.491481338843133355E-15, -0.000000000000000000, 1.000000000000000000 ) ) ;
#296 = DIRECTION ( 'NONE',  ( 1.000000000000000000, 0.000000000000000000, -4.567844035526117125E-15 ) ) ;
#297 = ADVANCED_FACE ( 'NONE', ( #100, #43 ), #382, .T. ) ;
#298 = DIRECTION ( 'NONE',  ( 1.000000000000000000, 0.000000000000000000, 0.000000000000000000 ) ) ;
#299 = CIRCLE ( 'NONE', #102, 1.681260827235121713 ) ;
#300 = CYLINDRICAL_SURFACE ( 'NONE', #216, 1.681260827235121491 ) ;
#301 = AXIS2_PLACEMENT_3D ( 'NONE', #57, #84, #155 ) ;
#302 = CONICAL_SURFACE ( 'NONE', #77, 1.519074173710928344, 0.2617993877991430796 ) ;
#303 = CALENDAR_DATE ( 2023, 28, 9 ) ;
#304 = ADVANCED_FACE ( 'NONE', ( #76, #180 ), #51, .T. ) ;
#305 = EDGE_LOOP ( 'NONE', ( #8 ) ) ;
#306 = DATE_AND_TIME ( #303, #275 ) ;
#307 = ADVANCED_FACE ( 'NONE', ( #110, #81 ), #300, .T. ) ;
#308 = PERSON_AND_ORGANIZATION_ROLE ( 'design_supplier' ) ;
#309 = PERSON_AND_ORGANIZATION ( #347, #389 ) ;
#310 = EDGE_LOOP ( 'NONE', ( #224 ) ) ;
#311 = EDGE_LOOP ( 'NONE', ( #254 ) ) ;
#312 = CARTESIAN_POINT ( 'NONE',  ( 2.199633243471174140E-13, 0.000000000000000000, 63.00000000000000000 ) ) ;
#313 = AXIS2_PLACEMENT_3D ( 'NONE', #194, #160, #125 ) ;
#314 = LOCAL_TIME ( 8, 23, 25.00000000000000000, #152 ) ;
#315 = FACE_OUTER_BOUND ( 'NONE', #262, .T. ) ;
#316 = PLANE ( 'NONE',  #87 ) ;
#317 = DIRECTION ( 'NONE',  ( -1.000000000000000000, 0.000000000000000000, 4.625929269271494788E-15 ) ) ;
#318 = ORIENTED_EDGE ( 'NONE', *, *, #291, .F. ) ;
#319 = DIRECTION ( 'NONE',  ( 3.491481338843133355E-15, -0.000000000000000000, 1.000000000000000000 ) ) ;
#320 = AXIS2_PLACEMENT_3D ( 'NONE', #129, #261, #255 ) ;
#321 = PLANE ( 'NONE',  #73 ) ;
#322 = FACE_OUTER_BOUND ( 'NONE', #9, .T. ) ;
#323 = DIRECTION ( 'NONE',  ( 1.000000000000000000, 0.000000000000000000, -4.625929269271490055E-15 ) ) ;
#324 = CC_DESIGN_SECURITY_CLASSIFICATION ( #54, ( #103 ) ) ;
#325 = CONICAL_SURFACE ( 'NONE', #251, 2.205000000000000071, 1.047197551196604515 ) ;
#326 = CARTESIAN_POINT ( 'NONE',  ( 1.485000000000059384, 0.000000000000000000, 17.60000000000000142 ) ) ;
#327 = EDGE_CURVE ( 'NONE', #239, #239, #371, .T. ) ;
#328 = DIRECTION ( 'NONE',  ( 1.000000000000000000, 0.000000000000000000, -6.293781318736715035E-15 ) ) ;
#329 = APPROVAL_PERSON_ORGANIZATION ( #151, #5, #244 ) ;
#330 = DIRECTION ( 'NONE',  ( 1.000000000000000000, 0.000000000000000000, -3.504491870660216165E-15 ) ) ;
#331 = VERTEX_POINT ( 'NONE', #267 ) ;
#332 = AXIS2_PLACEMENT_3D ( 'NONE', #93, #365, #90 ) ;
#333 = PERSON_AND_ORGANIZATION_ROLE ( 'creator' ) ;
#334 = CALENDAR_DATE ( 2023, 28, 9 ) ;
#335 = EDGE_LOOP ( 'NONE', ( #258 ) ) ;
#336 = PERSON_AND_ORGANIZATION_ROLE ( 'design_owner' ) ;
#337 = DIRECTION ( 'NONE',  ( 3.491481338843133355E-15, -0.000000000000000000, 1.000000000000000000 ) ) ;
#338 = ORIENTED_EDGE ( 'NONE', *, *, #344, .F. ) ;
#339 = EDGE_LOOP ( 'NONE', ( #338 ) ) ;
#340 = CARTESIAN_POINT ( 'NONE',  ( 4.882878217626147636E-15, 0.000000000000000000, 1.398511904761902347 ) ) ;
#341 = FACE_OUTER_BOUND ( 'NONE', #257, .T. ) ;
#342 = ORIENTED_EDGE ( 'NONE', *, *, #70, .T. ) ;
#343 = DIRECTION ( 'NONE',  ( 3.491481338843133355E-15, -0.000000000000000000, 1.000000000000000000 ) ) ;
#344 = EDGE_CURVE ( 'NONE', #49, #49, #18, .T. ) ;
#345 = DIRECTION ( 'NONE',  ( 1.000000000000000000, 0.000000000000000000, -3.491481338843133750E-15 ) ) ;
#346 = DIRECTION ( 'NONE',  ( 1.000000000000000000, 0.000000000000000000, -4.625929269271494788E-15 ) ) ;
#347 = PERSON ( 'UNSPECIFIED', 'UNSPECIFIED', 'UNSPECIFIED', ('UNSPECIFIED'), ('UNSPECIFIED'), ('UNSPECIFIED') ) ;
#348 = FACE_OUTER_BOUND ( 'NONE', #191, .T. ) ;
#349 = DIRECTION ( 'NONE',  ( -1.000000000000000000, 0.000000000000000000, 3.540251991789402700E-15 ) ) ;
#350 = PRODUCT_RELATED_PRODUCT_CATEGORY ( 'detail', '', ( #270 ) ) ;
#351 = DIRECTION ( 'NONE',  ( -3.491481338843133355E-15, 0.000000000000000000, -1.000000000000000000 ) ) ;
#352 = DIRECTION ( 'NONE',  ( 1.000000000000000000, 0.000000000000000000, -3.491081825236771461E-15 ) ) ;
#353 = CARTESIAN_POINT ( 'NONE',  ( 2.205000000000004068, 0.000000000000000000, 1.398511904761894575 ) ) ;
#354 = CARTESIAN_POINT ( 'NONE',  ( 1.484858637448293717, 0.000000000000000000, -5.184356223470759594E-15 ) ) ;
#355 = VERTEX_POINT ( 'NONE', #117 ) ;
#356 = VERTEX_POINT ( 'NONE', #381 ) ;
#357 = DIRECTION ( 'NONE',  ( 1.000000000000000000, 0.000000000000000000, 0.000000000000000000 ) ) ;
#358 = CIRCLE ( 'NONE', #301, 1.681260827235121713 ) ;
#359 = DIRECTION ( 'NONE',  ( 1.000000000000000000, 0.000000000000000000, 0.000000000000000000 ) ) ;
#360 = LOCAL_TIME ( 8, 23, 25.00000000000000000, #363 ) ;
#361 =( NAMED_UNIT ( * ) PLANE_ANGLE_UNIT ( ) SI_UNIT ( $, .RADIAN. ) );
#362 = CARTESIAN_POINT ( 'NONE',  ( 1.715605860247046427E-15, 0.000000000000000000, 0.4913690476190529788 ) ) ;
#363 = COORDINATED_UNIVERSAL_TIME_OFFSET ( 1, 0, .AHEAD. ) ;
#364 = AXIS2_PLACEMENT_3D ( 'NONE', #192, #319, #286 ) ;
#365 = DIRECTION ( 'NONE',  ( 3.491481338843133355E-15, -0.000000000000000000, 1.000000000000000000 ) ) ;
#366 = EDGE_LOOP ( 'NONE', ( #133 ) ) ;
#367 = DIRECTION ( 'NONE',  ( 1.000000000000000000, 0.000000000000000000, -3.469446951953614189E-15 ) ) ;
#368 = CYLINDRICAL_SURFACE ( 'NONE', #132, 2.204999999999999627 ) ;
#369 = EDGE_LOOP ( 'NONE', ( #253 ) ) ;
#370 = DIRECTION ( 'NONE',  ( 1.000000000000000000, 0.000000000000000000, -3.482322098142214197E-15 ) ) ;
#371 = CIRCLE ( 'NONE', #197, 1.484999999999998099 ) ;
#372 = FACE_OUTER_BOUND ( 'NONE', #136, .T. ) ;
#373 = DIRECTION ( 'NONE',  ( 1.000000000000000000, 0.000000000000000000, -6.293781318736715824E-15 ) ) ;
#374 = DIRECTION ( 'NONE',  ( -1.000000000000000000, 0.000000000000000000, 3.491481338843133355E-15 ) ) ;
#375 = CARTESIAN_POINT ( 'NONE',  ( 0.000000000000000000, 0.000000000000000000, 0.000000000000000000 ) ) ;
#376 = VERTEX_POINT ( 'NONE', #354 ) ;
#377 = ADVANCED_FACE ( 'NONE', ( #178, #292 ), #302, .T. ) ;
#378 = CARTESIAN_POINT ( 'NONE',  ( 1.451666497132079040E-15, 0.000000000000000000, 0.4157738095238033837 ) ) ;
#379 = CARTESIAN_POINT ( 'NONE',  ( 3.000000000000212275, 0.000000000000000000, 62.39999999999998437 ) ) ;
#380 = CIRCLE ( 'NONE', #140, 1.681260827235121491 ) ;
#381 = CARTESIAN_POINT ( 'NONE',  ( 1.681260827235127708, 0.000000000000000000, 1.814285714285706952 ) ) ;
#382 = CONICAL_SURFACE ( 'NONE', #143, 1.484858637448293717, 1.047197551196606069 ) ;
#383 = AXIS2_PLACEMENT_3D ( 'NONE', #340, #343, #16 ) ;
#384 = CARTESIAN_POINT ( 'NONE',  ( 2.205000000000001403, 0.000000000000000000, 0.4157738095237956677 ) ) ;
#385 = CIRCLE ( 'NONE', #48, 1.681260827235121491 ) ;
#386 = COORDINATED_UNIVERSAL_TIME_OFFSET ( 1, 0, .AHEAD. ) ;
#387 = CC_DESIGN_DATE_AND_TIME_ASSIGNMENT ( #306, #149, ( #101 ) ) ;
#388 = PERSON_AND_ORGANIZATION ( #347, #389 ) ;
#389 = ORGANIZATION ( 'UNSPECIFIED', 'UNSPECIFIED', '' ) ;
#390 = APPROVAL_ROLE ( '' ) ;
#391 = EDGE_CURVE ( 'NONE', #147, #147, #170, .T. ) ;
#392 = SHAPE_DEFINITION_REPRESENTATION ( #116, #113 ) ;
#393 = CIRCLE ( 'NONE', #272, 1.519074173710928344 ) ;
#394 = FACE_OUTER_BOUND ( 'NONE', #159, .T. ) ;
#395 = CARTESIAN_POINT ( 'NONE',  ( 0.000000000000000000, 0.000000000000000000, 0.000000000000000000 ) ) ;
ENDSEC;
END-ISO-10303-21;
