ISO-10303-21;
HEADER;
FILE_DESCRIPTION (( 'STEP AP203' ),
    '1' );
FILE_NAME ('966641.step',
    '2023-09-28T06:23:25',
    ( '' ),
    ( '' ),
    'SwSTEP 2.0',
    'SolidWorks 2022',
    '' );
FILE_SCHEMA (( 'CONFIG_CONTROL_DESIGN' ));
ENDSEC;

DATA;
#1 = DIRECTION ( 'NONE',  ( 1.000000000000000000, 0.000000000000000000, 0.000000000000000000 ) ) ;
#2 = AXIS2_PLACEMENT_3D ( 'NONE', #234, #326, #1 ) ;
#3 = FACE_OUTER_BOUND ( 'NONE', #55, .T. ) ;
#4 = DIRECTION ( 'NONE',  ( 1.000000000000000000, 0.000000000000000000, -3.632928745501171101E-15 ) ) ;
#5 = FACE_OUTER_BOUND ( 'NONE', #247, .T. ) ;
#6 = PERSON_AND_ORGANIZATION_ROLE ( 'design_owner' ) ;
#7 = ORIENTED_EDGE ( 'NONE', *, *, #270, .T. ) ;
#8 = VERTEX_POINT ( 'NONE', #305 ) ;
#9 = EDGE_LOOP ( 'NONE', ( #379 ) ) ;
#10 = DIRECTION ( 'NONE',  ( 1.000000000000000000, 0.000000000000000000, -3.491481338843132961E-15 ) ) ;
#11 = AXIS2_PLACEMENT_3D ( 'NONE', #319, #287, #323 ) ;
#12 = EDGE_LOOP ( 'NONE', ( #252 ) ) ;
#13 = APPLICATION_PROTOCOL_DEFINITION ( 'international standard', 'config_control_design', 1994, #382 ) ;
#14 = FACE_OUTER_BOUND ( 'NONE', #242, .T. ) ;
#15 = EDGE_LOOP ( 'NONE', ( #231 ) ) ;
#16 = EDGE_CURVE ( 'NONE', #263, #263, #351, .T. ) ;
#17 = AXIS2_PLACEMENT_3D ( 'NONE', #150, #271, #64 ) ;
#18 = CARTESIAN_POINT ( 'NONE',  ( 2.771363312706746567E-15, 0.000000000000000000, 0.7937500000000028422 ) ) ;
#19 = ADVANCED_FACE ( 'NONE', ( #389, #22 ), #27, .T. ) ;
#20 = CARTESIAN_POINT ( 'NONE',  ( 2.199633243471174140E-13, 0.000000000000000000, 63.00000000000000000 ) ) ;
#21 = CARTESIAN_POINT ( 'NONE',  ( 2.106260827235123756, 0.000000000000000000, 0.7937499999999954037 ) ) ;
#22 = FACE_OUTER_BOUND ( 'NONE', #15, .T. ) ;
#23 = FACE_BOUND ( 'NONE', #73, .T. ) ;
#24 = CONICAL_SURFACE ( 'NONE', #285, 2.106260827235121535, 1.047197551196604515 ) ;
#25 = DIRECTION ( 'NONE',  ( 3.491481338843133355E-15, -0.000000000000000000, 1.000000000000000000 ) ) ;
#26 = VERTEX_POINT ( 'NONE', #267 ) ;
#27 = CYLINDRICAL_SURFACE ( 'NONE', #371, 2.999999999999997335 ) ;
#28 = DIRECTION ( 'NONE',  ( 3.491481338843133355E-15, -0.000000000000000000, 1.000000000000000000 ) ) ;
#29 = FACE_OUTER_BOUND ( 'NONE', #281, .T. ) ;
#30 = FACE_OUTER_BOUND ( 'NONE', #130, .T. ) ;
#31 = DIRECTION ( 'NONE',  ( 3.491481338843133355E-15, -0.000000000000000000, 1.000000000000000000 ) ) ;
#32 = AXIS2_PLACEMENT_3D ( 'NONE', #365, #96, #218 ) ;
#33 = DIRECTION ( 'NONE',  ( 3.491481338843133355E-15, -0.000000000000000000, 1.000000000000000000 ) ) ;
#34 = MECHANICAL_CONTEXT ( 'NONE', #46, 'mechanical' ) ;
#35 = CARTESIAN_POINT ( 'NONE',  ( 6.334544714758256456E-15, 2.106260827235121535, 1.814285714285714501 ) ) ;
#36 = ADVANCED_FACE ( 'NONE', ( #352, #81 ), #78, .T. ) ;
#37 = VERTEX_POINT ( 'NONE', #77 ) ;
#38 = DATE_AND_TIME ( #196, #62 ) ;
#39 = APPROVAL_STATUS ( 'not_yet_approved' ) ;
#40 = ORIENTED_EDGE ( 'NONE', *, *, #205, .T. ) ;
#41 = CARTESIAN_POINT ( 'NONE',  ( 2.199633243471174140E-13, 0.000000000000000000, 63.00000000000000000 ) ) ;
#42 = DIRECTION ( 'NONE',  ( 0.000000000000000000, 0.000000000000000000, 1.000000000000000000 ) ) ;
#43 = DIRECTION ( 'NONE',  ( 1.000000000000000000, 0.000000000000000000, -3.500314242932284634E-15 ) ) ;
#44 = ORIENTED_EDGE ( 'NONE', *, *, #390, .T. ) ;
#45 = CIRCLE ( 'NONE', #134, 1.909999999999999920 ) ;
#46 = APPLICATION_CONTEXT ( 'configuration controlled 3d designs of mechanical parts and assemblies' ) ;
#47 = PERSON_AND_ORGANIZATION ( #121, #164 ) ;
#48 = ORIENTED_EDGE ( 'NONE', *, *, #190, .F. ) ;
#49 = DIRECTION ( 'NONE',  ( 1.000000000000000000, 0.000000000000000000, -6.588826810225475380E-15 ) ) ;
#50 = ORIENTED_EDGE ( 'NONE', *, *, #284, .T. ) ;
#51 = PERSON_AND_ORGANIZATION ( #121, #164 ) ;
#52 = ORIENTED_EDGE ( 'NONE', *, *, #346, .F. ) ;
#53 = AXIS2_PLACEMENT_3D ( 'NONE', #41, #33, #225 ) ;
#54 = COORDINATED_UNIVERSAL_TIME_OFFSET ( 1, 0, .AHEAD. ) ;
#55 = EDGE_LOOP ( 'NONE', ( #266 ) ) ;
#56 = CARTESIAN_POINT ( 'NONE',  ( 5.938635670085872034E-15, 0.000000000000000000, 1.700892857142859205 ) ) ;
#57 = DIRECTION ( 'NONE',  ( 3.491481338843133355E-15, -0.000000000000000000, 1.000000000000000000 ) ) ;
#58 = ORIENTED_EDGE ( 'NONE', *, *, #16, .F. ) ;
#59 = AXIS2_PLACEMENT_3D ( 'NONE', #343, #171, #203 ) ;
#60 = APPROVAL ( #259, 'UNSPECIFIED' ) ;
#61 = APPROVAL_DATE_TIME ( #283, #240 ) ;
#62 = LOCAL_TIME ( 8, 23, 25.00000000000000000, #338 ) ;
#63 = DIRECTION ( 'NONE',  ( 1.000000000000000000, 0.000000000000000000, -3.500314242932283845E-15 ) ) ;
#64 = DIRECTION ( 'NONE',  ( -1.000000000000000000, 0.000000000000000000, 3.462851045200850754E-15 ) ) ;
#65 = CONICAL_SURFACE ( 'NONE', #94, 2.999999999999994227, 0.7853981633974501664 ) ;
#66 = FACE_OUTER_BOUND ( 'NONE', #88, .T. ) ;
#67 = PERSON_AND_ORGANIZATION ( #121, #164 ) ;
#68 = CARTESIAN_POINT ( 'NONE',  ( 2.199633243471174140E-13, 0.000000000000000000, 63.00000000000000000 ) ) ;
#69 = DIRECTION ( 'NONE',  ( 3.491481338843133355E-15, -0.000000000000000000, 1.000000000000000000 ) ) ;
#70 = EDGE_LOOP ( 'NONE', ( #58 ) ) ;
#71 = VERTEX_POINT ( 'NONE', #344 ) ;
#72 =( NAMED_UNIT ( * ) SI_UNIT ( $, .STERADIAN. ) SOLID_ANGLE_UNIT ( ) );
#73 = EDGE_LOOP ( 'NONE', ( #161 ) ) ;
#74 = CIRCLE ( 'NONE', #11, 2.999999999999994227 ) ;
#75 = ORIENTED_EDGE ( 'NONE', *, *, #199, .F. ) ;
#76 = EDGE_LOOP ( 'NONE', ( #237 ) ) ;
#77 = CARTESIAN_POINT ( 'NONE',  ( 2.106260827235127753, 0.000000000000000000, 1.700892857142851877 ) ) ;
#78 = CONICAL_SURFACE ( 'NONE', #300, 2.629999999999999893, 1.047197551196604737 ) ;
#79 = VERTEX_POINT ( 'NONE', #254 ) ;
#80 =( GEOMETRIC_REPRESENTATION_CONTEXT ( 3 ) GLOBAL_UNCERTAINTY_ASSIGNED_CONTEXT ( ( #181 ) ) GLOBAL_UNIT_ASSIGNED_CONTEXT ( ( #385, #377, #72 ) ) REPRESENTATION_CONTEXT ( 'NONE', 'WORKASPACE' ) );
#81 = FACE_OUTER_BOUND ( 'NONE', #339, .T. ) ;
#82 = CARTESIAN_POINT ( 'NONE',  ( 1.944074173710999665, 0.000000000000000000, 20.55881904510250990 ) ) ;
#83 = CARTESIAN_POINT ( 'NONE',  ( 2.199633243471174140E-13, 0.000000000000000000, 63.00000000000000000 ) ) ;
#84 = DIRECTION ( 'NONE',  ( 1.000000000000000000, 0.000000000000000000, -3.483463253803236686E-15 ) ) ;
#85 = CARTESIAN_POINT ( 'NONE',  ( 0.000000000000000000, 0.000000000000000000, 0.000000000000000000 ) ) ;
#86 = CC_DESIGN_APPROVAL ( #213, ( #127 ) ) ;
#87 = EDGE_CURVE ( 'NONE', #115, #115, #249, .T. ) ;
#88 = EDGE_LOOP ( 'NONE', ( #144 ) ) ;
#89 = CC_DESIGN_PERSON_AND_ORGANIZATION_ASSIGNMENT ( #347, #320, ( #127 ) ) ;
#90 = CYLINDRICAL_SURFACE ( 'NONE', #99, 2.106260827235121535 ) ;
#91 = CARTESIAN_POINT ( 'NONE',  ( 6.334544714758250145E-15, 0.000000000000000000, 1.814285714285712725 ) ) ;
#92 = ADVANCED_FACE ( 'NONE', ( #291, #23 ), #241, .T. ) ;
#93 = DIRECTION ( 'NONE',  ( 3.491481338843133355E-15, -0.000000000000000000, 1.000000000000000000 ) ) ;
#94 = AXIS2_PLACEMENT_3D ( 'NONE', #136, #378, #104 ) ;
#95 = CALENDAR_DATE ( 2023, 28, 9 ) ;
#96 = DIRECTION ( 'NONE',  ( -3.491481338843133355E-15, 0.000000000000000000, -1.000000000000000000 ) ) ;
#97 = DIRECTION ( 'NONE',  ( 3.491481338843133355E-15, -0.000000000000000000, 1.000000000000000000 ) ) ;
#98 = FACE_BOUND ( 'NONE', #170, .T. ) ;
#99 = AXIS2_PLACEMENT_3D ( 'NONE', #68, #93, #49 ) ;
#100 = PERSON_AND_ORGANIZATION ( #121, #164 ) ;
#101 = CARTESIAN_POINT ( 'NONE',  ( 6.573729482122050973E-33, 0.000000000000000000, 1.882790954369009881E-18 ) ) ;
#102 = ORIENTED_EDGE ( 'NONE', *, *, #195, .T. ) ;
#103 = DIRECTION ( 'NONE',  ( 1.000000000000000000, 0.000000000000000000, -3.504075462405623012E-15 ) ) ;
#104 = DIRECTION ( 'NONE',  ( -1.000000000000000000, 0.000000000000000000, 4.625929269271494788E-15 ) ) ;
#105 = CALENDAR_DATE ( 2023, 28, 9 ) ;
#106 = AXIS2_PLACEMENT_3D ( 'NONE', #215, #178, #63 ) ;
#107 = ADVANCED_FACE ( 'NONE', ( #66 ), #153, .F. ) ;
#108 = CARTESIAN_POINT ( 'NONE',  ( 1.910000000000068532, 0.000000000000000000, 20.29999999999999005 ) ) ;
#109 = ADVANCED_FACE ( 'NONE', ( #330, #125 ), #224, .T. ) ;
#110 = ORIENTED_EDGE ( 'NONE', *, *, #113, .F. ) ;
#111 = DIRECTION ( 'NONE',  ( 1.000000000000000000, 0.000000000000000000, -4.625929269271490055E-15 ) ) ;
#112 = CARTESIAN_POINT ( 'NONE',  ( 8.553985388481736714E-14, 0.000000000000000000, 24.49958787783758396 ) ) ;
#113 = EDGE_CURVE ( 'NONE', #331, #331, #126, .T. ) ;
#114 = CARTESIAN_POINT ( 'NONE',  ( 7.178073304462824556E-14, 0.000000000000000000, 20.55881904510251701 ) ) ;
#115 = VERTEX_POINT ( 'NONE', #238 ) ;
#116 = CARTESIAN_POINT ( 'NONE',  ( 7.087707117851561342E-14, 0.000000000000000000, 20.30000000000000071 ) ) ;
#117 = EDGE_LOOP ( 'NONE', ( #102 ) ) ;
#118 = CONICAL_SURFACE ( 'NONE', #250, 1.909858637448293095, 1.047197551196592080 ) ;
#119 = CARTESIAN_POINT ( 'NONE',  ( 1.451666497132127358E-15, 0.000000000000000000, 0.4157738095238172615 ) ) ;
#120 = DIRECTION ( 'NONE',  ( 3.491481338843133355E-15, -0.000000000000000000, 1.000000000000000000 ) ) ;
#121 = PERSON ( 'UNSPECIFIED', 'UNSPECIFIED', 'UNSPECIFIED', ('UNSPECIFIED'), ('UNSPECIFIED'), ('UNSPECIFIED') ) ;
#122 = DIRECTION ( 'NONE',  ( 1.000000000000000000, 0.000000000000000000, -3.491481338843133355E-15 ) ) ;
#123 = SECURITY_CLASSIFICATION_LEVEL ( 'unclassified' ) ;
#124 = FACE_OUTER_BOUND ( 'NONE', #386, .T. ) ;
#125 = FACE_OUTER_BOUND ( 'NONE', #145, .T. ) ;
#126 = CIRCLE ( 'NONE', #165, 1.944074173710927944 ) ;
#127 = PRODUCT_DEFINITION ( 'UNKNOWN', '', #187, #292 ) ;
#128 = LOCAL_TIME ( 8, 23, 25.00000000000000000, #54 ) ;
#129 = PERSON_AND_ORGANIZATION ( #121, #164 ) ;
#130 = EDGE_LOOP ( 'NONE', ( #391 ) ) ;
#131 = FACE_OUTER_BOUND ( 'NONE', #166, .T. ) ;
#132 = APPROVAL_ROLE ( '' ) ;
#133 = AXIS2_PLACEMENT_3D ( 'NONE', #297, #286, #209 ) ;
#134 = AXIS2_PLACEMENT_3D ( 'NONE', #91, #120, #350 ) ;
#135 = DIRECTION ( 'NONE',  ( 3.491481338843133355E-15, -0.000000000000000000, 1.000000000000000000 ) ) ;
#136 = CARTESIAN_POINT ( 'NONE',  ( 2.178684355438115214E-13, 0.000000000000000000, 62.39999999999999858 ) ) ;
#137 = AXIS2_PLACEMENT_3D ( 'NONE', #273, #69, #4 ) ;
#138 = DIRECTION ( 'NONE',  ( 3.491481338843133355E-15, -0.000000000000000000, 1.000000000000000000 ) ) ;
#139 = LOCAL_TIME ( 8, 23, 25.00000000000000000, #363 ) ;
#140 = DATE_AND_TIME ( #308, #128 ) ;
#141 = ORIENTED_EDGE ( 'NONE', *, *, #195, .F. ) ;
#142 = ORIENTED_EDGE ( 'NONE', *, *, #190, .T. ) ;
#143 = CARTESIAN_POINT ( 'NONE',  ( 6.334544714758250145E-15, 0.000000000000000000, 1.814285714285712725 ) ) ;
#144 = ORIENTED_EDGE ( 'NONE', *, *, #205, .F. ) ;
#145 = EDGE_LOOP ( 'NONE', ( #228 ) ) ;
#146 = DIRECTION ( 'NONE',  ( 3.491481338843133355E-15, -0.000000000000000000, 1.000000000000000000 ) ) ;
#147 = APPROVAL_PERSON_ORGANIZATION ( #288, #213, #132 ) ;
#148 = MANIFOLD_SOLID_BREP ( 'Corps-Déplacer/Copier1', #151 ) ;
#149 = FACE_OUTER_BOUND ( 'NONE', #12, .T. ) ;
#150 = CARTESIAN_POINT ( 'NONE',  ( 4.882878217626147636E-15, 0.000000000000000000, 1.398511904761902347 ) ) ;
#151 = CLOSED_SHELL ( 'NONE', ( #107, #256, #229, #36, #182, #158, #109, #154, #311, #272, #368, #293, #92, #19, #364, #253 ) ) ;
#152 = CIRCLE ( 'NONE', #230, 2.629999999999999893 ) ;
#153 = PLANE ( 'NONE',  #260 ) ;
#154 = ADVANCED_FACE ( 'NONE', ( #188, #299 ), #189, .T. ) ;
#155 = DIRECTION ( 'NONE',  ( 3.491481338843133355E-15, -0.000000000000000000, 1.000000000000000000 ) ) ;
#156 = FACE_BOUND ( 'NONE', #76, .T. ) ;
#157 = VERTEX_POINT ( 'NONE', #21 ) ;
#158 = ADVANCED_FACE ( 'NONE', ( #219, #156 ), #24, .T. ) ;
#159 = VERTEX_POINT ( 'NONE', #340 ) ;
#160 = DIRECTION ( 'NONE',  ( 1.000000000000000000, 0.000000000000000000, 0.000000000000000000 ) ) ;
#161 = ORIENTED_EDGE ( 'NONE', *, *, #113, .T. ) ;
#162 = CARTESIAN_POINT ( 'NONE',  ( 1.715605860247046427E-15, 0.000000000000000000, 0.4913690476190529788 ) ) ;
#163 = PERSON_AND_ORGANIZATION_ROLE ( 'design_supplier' ) ;
#164 = ORGANIZATION ( 'UNSPECIFIED', 'UNSPECIFIED', '' ) ;
#165 = AXIS2_PLACEMENT_3D ( 'NONE', #186, #97, #214 ) ;
#166 = EDGE_LOOP ( 'NONE', ( #295 ) ) ;
#167 = ORIENTED_EDGE ( 'NONE', *, *, #87, .T. ) ;
#168 = PRODUCT_RELATED_PRODUCT_CATEGORY ( 'detail', '', ( #327 ) ) ;
#169 = VERTEX_POINT ( 'NONE', #307 ) ;
#170 = EDGE_LOOP ( 'NONE', ( #233 ) ) ;
#171 = DIRECTION ( 'NONE',  ( 3.491481338843133355E-15, -0.000000000000000000, 1.000000000000000000 ) ) ;
#172 = TOROIDAL_SURFACE ( 'NONE', #372, 2.909999999999997922, 1.000000000000000444 ) ;
#173 = DATE_TIME_ROLE ( 'creation_date' ) ;
#174 = ADVANCED_BREP_SHAPE_REPRESENTATION ( '966641', ( #148, #216 ), #80 ) ;
#175 = DIRECTION ( 'NONE',  ( -3.491481338843133355E-15, 0.000000000000000000, -1.000000000000000000 ) ) ;
#176 = DIRECTION ( 'NONE',  ( 1.000000000000000000, 0.000000000000000000, -3.500314242932283845E-15 ) ) ;
#177 = DIRECTION ( 'NONE',  ( 1.000000000000000000, 0.000000000000000000, -5.782411586589384066E-15 ) ) ;
#178 = DIRECTION ( 'NONE',  ( 3.491481338843133355E-15, -0.000000000000000000, 1.000000000000000000 ) ) ;
#179 = CIRCLE ( 'NONE', #388, 2.629999999999999893 ) ;
#180 = EDGE_LOOP ( 'NONE', ( #7 ) ) ;
#181 = UNCERTAINTY_MEASURE_WITH_UNIT (LENGTH_MEASURE( 1.000000000000000082E-05 ), #385, 'distance_accuracy_value', 'NONE');
#182 = ADVANCED_FACE ( 'NONE', ( #274, #3 ), #342, .T. ) ;
#183 = DIRECTION ( 'NONE',  ( 1.000000000000000000, 0.000000000000000000, -3.491481338843133355E-15 ) ) ;
#184 = EDGE_LOOP ( 'NONE', ( #141 ) ) ;
#185 = EDGE_CURVE ( 'NONE', #208, #208, #45, .T. ) ;
#186 = CARTESIAN_POINT ( 'NONE',  ( 7.178073304462824556E-14, 0.000000000000000000, 20.55881904510251701 ) ) ;
#187 = PRODUCT_DEFINITION_FORMATION_WITH_SPECIFIED_SOURCE ( 'ANY', '', #327, .NOT_KNOWN. ) ;
#188 = FACE_BOUND ( 'NONE', #184, .T. ) ;
#189 = CONICAL_SURFACE ( 'NONE', #17, 2.629999999999999893, 1.047197551196594523 ) ;
#190 = EDGE_CURVE ( 'NONE', #26, #26, #74, .T. ) ;
#191 = CARTESIAN_POINT ( 'NONE',  ( 2.199633243471174140E-13, 0.000000000000000000, 63.00000000000000000 ) ) ;
#192 = CC_DESIGN_APPROVAL ( #240, ( #357 ) ) ;
#193 = AXIS2_PLACEMENT_3D ( 'NONE', #114, #25, #335 ) ;
#194 = APPLICATION_PROTOCOL_DEFINITION ( 'international standard', 'config_control_design', 1994, #46 ) ;
#195 = EDGE_CURVE ( 'NONE', #37, #37, #244, .T. ) ;
#196 = CALENDAR_DATE ( 2023, 28, 9 ) ;
#197 = SHAPE_DEFINITION_REPRESENTATION ( #217, #174 ) ;
#198 = CIRCLE ( 'NONE', #360, 1.909858637448293095 ) ;
#199 = EDGE_CURVE ( 'NONE', #169, #169, #255, .T. ) ;
#200 = CC_DESIGN_PERSON_AND_ORGANIZATION_ASSIGNMENT ( #100, #223, ( #187 ) ) ;
#201 = FACE_OUTER_BOUND ( 'NONE', #180, .T. ) ;
#202 = ORIENTED_EDGE ( 'NONE', *, *, #298, .T. ) ;
#203 = DIRECTION ( 'NONE',  ( 1.000000000000000000, 0.000000000000000000, -3.462851045200850754E-15 ) ) ;
#204 = CIRCLE ( 'NONE', #106, 2.106260827235121535 ) ;
#205 = EDGE_CURVE ( 'NONE', #159, #159, #198, .T. ) ;
#206 = COORDINATED_UNIVERSAL_TIME_OFFSET ( 1, 0, .AHEAD. ) ;
#207 = CARTESIAN_POINT ( 'NONE',  ( 1.715605860247046427E-15, 0.000000000000000000, 0.4913690476190529788 ) ) ;
#208 = VERTEX_POINT ( 'NONE', #322 ) ;
#209 = DIRECTION ( 'NONE',  ( 1.000000000000000000, 0.000000000000000000, -3.462851045200850754E-15 ) ) ;
#210 = ORIENTED_EDGE ( 'NONE', *, *, #298, .F. ) ;
#211 = AXIS2_PLACEMENT_3D ( 'NONE', #56, #290, #176 ) ;
#212 = CC_DESIGN_DATE_AND_TIME_ASSIGNMENT ( #370, #318, ( #357 ) ) ;
#213 = APPROVAL ( #279, 'UNSPECIFIED' ) ;
#214 = DIRECTION ( 'NONE',  ( 1.000000000000000000, 0.000000000000000000, -3.569253682673015236E-15 ) ) ;
#215 = CARTESIAN_POINT ( 'NONE',  ( 3.563181402051528427E-15, 0.000000000000000000, 1.020535714285716988 ) ) ;
#216 = AXIS2_PLACEMENT_3D ( 'NONE', #312, #42, #160 ) ;
#217 = PRODUCT_DEFINITION_SHAPE ( 'NONE', 'NONE',  #127 ) ;
#218 = DIRECTION ( 'NONE',  ( -1.000000000000000000, 0.000000000000000000, 3.491481338843133355E-15 ) ) ;
#219 = FACE_OUTER_BOUND ( 'NONE', #70, .T. ) ;
#220 = CC_DESIGN_SECURITY_CLASSIFICATION ( #357, ( #187 ) ) ;
#221 = DIRECTION ( 'NONE',  ( 3.491481338843133355E-15, -0.000000000000000000, 1.000000000000000000 ) ) ;
#222 = APPROVAL_ROLE ( '' ) ;
#223 = PERSON_AND_ORGANIZATION_ROLE ( 'creator' ) ;
#224 = CYLINDRICAL_SURFACE ( 'NONE', #315, 2.629999999999999893 ) ;
#225 = DIRECTION ( 'NONE',  ( 1.000000000000000000, 0.000000000000000000, -5.276725402210820647E-15 ) ) ;
#226 = VERTEX_POINT ( 'NONE', #316 ) ;
#227 = COORDINATED_UNIVERSAL_TIME_OFFSET ( 1, 0, .AHEAD. ) ;
#228 = ORIENTED_EDGE ( 'NONE', *, *, #16, .T. ) ;
#229 = ADVANCED_FACE ( 'NONE', ( #131, #29 ), #306, .T. ) ;
#230 = AXIS2_PLACEMENT_3D ( 'NONE', #119, #358, #84 ) ;
#231 = ORIENTED_EDGE ( 'NONE', *, *, #199, .T. ) ;
#232 = VERTEX_POINT ( 'NONE', #373 ) ;
#233 = ORIENTED_EDGE ( 'NONE', *, *, #185, .F. ) ;
#234 = CARTESIAN_POINT ( 'NONE',  ( 2.199633243471174140E-13, 0.000000000000000000, 63.00000000000000000 ) ) ;
#235 = FACE_OUTER_BOUND ( 'NONE', #329, .T. ) ;
#236 = DIRECTION ( 'NONE',  ( 3.491481338843133355E-15, -0.000000000000000000, 1.000000000000000000 ) ) ;
#237 = ORIENTED_EDGE ( 'NONE', *, *, #395, .T. ) ;
#238 = CARTESIAN_POINT ( 'NONE',  ( 2.400000000000208633, 0.000000000000000000, 62.99999999999998579 ) ) ;
#239 = FACE_OUTER_BOUND ( 'NONE', #117, .T. ) ;
#240 = APPROVAL ( #39, 'UNSPECIFIED' ) ;
#241 = CONICAL_SURFACE ( 'NONE', #193, 1.944074173710927944, 0.2617993877991431351 ) ;
#242 = EDGE_LOOP ( 'NONE', ( #142 ) ) ;
#243 = PERSON_AND_ORGANIZATION_ROLE ( 'classification_officer' ) ;
#244 = CIRCLE ( 'NONE', #211, 2.106260827235121535 ) ;
#245 = PLANE ( 'NONE',  #345 ) ;
#246 = DATE_AND_TIME ( #251, #310 ) ;
#247 = EDGE_LOOP ( 'NONE', ( #202 ) ) ;
#248 = DIRECTION ( 'NONE',  ( -3.491481338843133355E-15, 0.000000000000000000, -1.000000000000000000 ) ) ;
#249 = CIRCLE ( 'NONE', #362, 2.399999999999988809 ) ;
#250 = AXIS2_PLACEMENT_3D ( 'NONE', #309, #155, #303 ) ;
#251 = CALENDAR_DATE ( 2023, 28, 9 ) ;
#252 = ORIENTED_EDGE ( 'NONE', *, *, #185, .T. ) ;
#253 = ADVANCED_FACE ( 'NONE', ( #124 ), #336, .F. ) ;
#254 = CARTESIAN_POINT ( 'NONE',  ( 2.630000000000001226, 0.000000000000000000, 0.4157738095238081022 ) ) ;
#255 = CIRCLE ( 'NONE', #334, 3.000000000000000000 ) ;
#256 = ADVANCED_FACE ( 'NONE', ( #30, #276 ), #118, .T. ) ;
#257 = EDGE_LOOP ( 'NONE', ( #50 ) ) ;
#258 = APPROVAL_PERSON_ORGANIZATION ( #67, #60, #222 ) ;
#259 = APPROVAL_STATUS ( 'not_yet_approved' ) ;
#260 = AXIS2_PLACEMENT_3D ( 'NONE', #101, #28, #122 ) ;
#261 = DIRECTION ( 'NONE',  ( 3.491481338843133355E-15, -0.000000000000000000, 1.000000000000000000 ) ) ;
#262 = EDGE_LOOP ( 'NONE', ( #40 ) ) ;
#263 = VERTEX_POINT ( 'NONE', #353 ) ;
#264 = FACE_OUTER_BOUND ( 'NONE', #384, .T. ) ;
#265 = CC_DESIGN_PERSON_AND_ORGANIZATION_ASSIGNMENT ( #47, #6, ( #327 ) ) ;
#266 = ORIENTED_EDGE ( 'NONE', *, *, #346, .T. ) ;
#267 = CARTESIAN_POINT ( 'NONE',  ( 3.000000000000212275, 0.000000000000000000, 62.39999999999998437 ) ) ;
#268 = DIRECTION ( 'NONE',  ( 1.000000000000000000, 0.000000000000000000, -3.500314242932283845E-15 ) ) ;
#269 = CYLINDRICAL_SURFACE ( 'NONE', #2, 1.909999999999999032 ) ;
#270 = EDGE_CURVE ( 'NONE', #381, #381, #294, .T. ) ;
#271 = DIRECTION ( 'NONE',  ( -3.491481338843133355E-15, 0.000000000000000000, -1.000000000000000000 ) ) ;
#272 = ADVANCED_FACE ( 'NONE', ( #98, #5 ), #245, .F. ) ;
#273 = CARTESIAN_POINT ( 'NONE',  ( 7.087707117851560080E-14, 0.000000000000000000, 20.29999999999999716 ) ) ;
#274 = FACE_OUTER_BOUND ( 'NONE', #9, .T. ) ;
#275 = CIRCLE ( 'NONE', #387, 2.106260827235121091 ) ;
#276 = FACE_BOUND ( 'NONE', #262, .T. ) ;
#277 = EDGE_CURVE ( 'NONE', #232, #232, #179, .T. ) ;
#278 = EDGE_LOOP ( 'NONE', ( #348 ) ) ;
#279 = APPROVAL_STATUS ( 'not_yet_approved' ) ;
#280 = DIRECTION ( 'NONE',  ( 3.491481338843133355E-15, -0.000000000000000000, 1.000000000000000000 ) ) ;
#281 = EDGE_LOOP ( 'NONE', ( #44 ) ) ;
#282 = FACE_BOUND ( 'NONE', #325, .T. ) ;
#283 = DATE_AND_TIME ( #105, #383 ) ;
#284 = EDGE_CURVE ( 'NONE', #71, #71, #337, .T. ) ;
#285 = AXIS2_PLACEMENT_3D ( 'NONE', #333, #361, #302 ) ;
#286 = DIRECTION ( 'NONE',  ( 3.491481338843133355E-15, -0.000000000000000000, 1.000000000000000000 ) ) ;
#287 = DIRECTION ( 'NONE',  ( 3.491481338843133355E-15, -0.000000000000000000, 1.000000000000000000 ) ) ;
#288 = PERSON_AND_ORGANIZATION ( #121, #164 ) ;
#289 = DIRECTION ( 'NONE',  ( -1.000000000000000000, 0.000000000000000000, 3.504075462405623012E-15 ) ) ;
#290 = DIRECTION ( 'NONE',  ( 3.491481338843133355E-15, -0.000000000000000000, 1.000000000000000000 ) ) ;
#291 = FACE_OUTER_BOUND ( 'NONE', #324, .T. ) ;
#292 = DESIGN_CONTEXT ( 'detailed design', #382, 'design' ) ;
#293 = ADVANCED_FACE ( 'NONE', ( #235, #201 ), #172, .F. ) ;
#294 = CIRCLE ( 'NONE', #137, 1.909999999999997700 ) ;
#295 = ORIENTED_EDGE ( 'NONE', *, *, #277, .F. ) ;
#296 = DIRECTION ( 'NONE',  ( 3.491481338843133355E-15, -0.000000000000000000, 1.000000000000000000 ) ) ;
#297 = CARTESIAN_POINT ( 'NONE',  ( 4.618938854511228370E-15, 0.000000000000000000, 1.322916666666666741 ) ) ;
#298 = EDGE_CURVE ( 'NONE', #8, #8, #328, .T. ) ;
#299 = FACE_OUTER_BOUND ( 'NONE', #257, .T. ) ;
#300 = AXIS2_PLACEMENT_3D ( 'NONE', #207, #175, #289 ) ;
#301 = AXIS2_PLACEMENT_3D ( 'NONE', #313, #146, #393 ) ;
#302 = DIRECTION ( 'NONE',  ( 1.000000000000000000, 0.000000000000000000, -3.500314242932283845E-15 ) ) ;
#303 = DIRECTION ( 'NONE',  ( 1.000000000000000000, 0.000000000000000000, -3.491481338843132961E-15 ) ) ;
#304 = AXIS2_PLACEMENT_3D ( 'NONE', #143, #261, #268 ) ;
#305 = CARTESIAN_POINT ( 'NONE',  ( 2.106260827235128197, 0.000000000000000000, 1.814285714285705398 ) ) ;
#306 = CYLINDRICAL_SURFACE ( 'NONE', #53, 2.629999999999999893 ) ;
#307 = CARTESIAN_POINT ( 'NONE',  ( 3.000000000000085709, 0.000000000000000000, 24.49958787783757330 ) ) ;
#308 = CALENDAR_DATE ( 2023, 28, 9 ) ;
#309 = CARTESIAN_POINT ( 'NONE',  ( 0.000000000000000000, 0.000000000000000000, 0.000000000000000000 ) ) ;
#310 = LOCAL_TIME ( 8, 23, 25.00000000000000000, #206 ) ;
#311 = ADVANCED_FACE ( 'NONE', ( #264, #239 ), #90, .T. ) ;
#312 = CARTESIAN_POINT ( 'NONE',  ( 0.000000000000000000, 0.000000000000000000, 0.000000000000000000 ) ) ;
#313 = CARTESIAN_POINT ( 'NONE',  ( 2.199633243471174140E-13, 0.000000000000000000, 63.00000000000000000 ) ) ;
#314 = APPROVAL_ROLE ( '' ) ;
#315 = AXIS2_PLACEMENT_3D ( 'NONE', #191, #31, #366 ) ;
#316 = CARTESIAN_POINT ( 'NONE',  ( 2.106260827235125088, 0.000000000000000000, 1.020535714285709439 ) ) ;
#317 = ORIENTED_EDGE ( 'NONE', *, *, #277, .T. ) ;
#318 = DATE_TIME_ROLE ( 'classification_date' ) ;
#319 = CARTESIAN_POINT ( 'NONE',  ( 2.178684355438115214E-13, 0.000000000000000000, 62.39999999999999858 ) ) ;
#320 = PERSON_AND_ORGANIZATION_ROLE ( 'creator' ) ;
#321 = ORIENTED_EDGE ( 'NONE', *, *, #270, .F. ) ;
#322 = CARTESIAN_POINT ( 'NONE',  ( 1.910000000000006359, 0.000000000000000000, 1.814285714285706064 ) ) ;
#323 = DIRECTION ( 'NONE',  ( 1.000000000000000000, 0.000000000000000000, -4.625929269271494788E-15 ) ) ;
#324 = EDGE_LOOP ( 'NONE', ( #75 ) ) ;
#325 = EDGE_LOOP ( 'NONE', ( #356 ) ) ;
#326 = DIRECTION ( 'NONE',  ( 3.491481338843133355E-15, -0.000000000000000000, 1.000000000000000000 ) ) ;
#327 = PRODUCT ( '966641', '966641', '', ( #34 ) ) ;
#328 = CIRCLE ( 'NONE', #304, 2.106260827235121535 ) ;
#329 = EDGE_LOOP ( 'NONE', ( #110 ) ) ;
#330 = FACE_OUTER_BOUND ( 'NONE', #278, .T. ) ;
#331 = VERTEX_POINT ( 'NONE', #82 ) ;
#332 = CC_DESIGN_APPROVAL ( #60, ( #187 ) ) ;
#333 = CARTESIAN_POINT ( 'NONE',  ( 3.563181402051528427E-15, 0.000000000000000000, 1.020535714285716988 ) ) ;
#334 = AXIS2_PLACEMENT_3D ( 'NONE', #112, #236, #355 ) ;
#335 = DIRECTION ( 'NONE',  ( 1.000000000000000000, 0.000000000000000000, -3.569253682673015236E-15 ) ) ;
#336 = PLANE ( 'NONE',  #32 ) ;
#337 = CIRCLE ( 'NONE', #59, 2.629999999999999893 ) ;
#338 = COORDINATED_UNIVERSAL_TIME_OFFSET ( 1, 0, .AHEAD. ) ;
#339 = EDGE_LOOP ( 'NONE', ( #317 ) ) ;
#340 = CARTESIAN_POINT ( 'NONE',  ( 1.909858637448293095, 0.000000000000000000, -6.668235792479088115E-15 ) ) ;
#341 = PERSON_AND_ORGANIZATION ( #121, #164 ) ;
#342 = CYLINDRICAL_SURFACE ( 'NONE', #301, 2.106260827235121091 ) ;
#343 = CARTESIAN_POINT ( 'NONE',  ( 4.882878217626147636E-15, 0.000000000000000000, 1.398511904761902347 ) ) ;
#344 = CARTESIAN_POINT ( 'NONE',  ( 2.630000000000004778, 0.000000000000000000, 1.398511904761893243 ) ) ;
#345 = AXIS2_PLACEMENT_3D ( 'NONE', #35, #248, #367 ) ;
#346 = EDGE_CURVE ( 'NONE', #157, #157, #275, .T. ) ;
#347 = PERSON_AND_ORGANIZATION ( #121, #164 ) ;
#348 = ORIENTED_EDGE ( 'NONE', *, *, #284, .F. ) ;
#349 = CC_DESIGN_PERSON_AND_ORGANIZATION_ASSIGNMENT ( #341, #163, ( #187 ) ) ;
#350 = DIRECTION ( 'NONE',  ( 1.000000000000000000, 0.000000000000000000, -3.519399722204255264E-15 ) ) ;
#351 = CIRCLE ( 'NONE', #133, 2.629999999999999893 ) ;
#352 = FACE_BOUND ( 'NONE', #376, .T. ) ;
#353 = CARTESIAN_POINT ( 'NONE',  ( 2.630000000000004778, 0.000000000000000000, 1.322916666666657637 ) ) ;
#354 = FACE_OUTER_BOUND ( 'NONE', #359, .T. ) ;
#355 = DIRECTION ( 'NONE',  ( 1.000000000000000000, 0.000000000000000000, -3.469446951953614189E-15 ) ) ;
#356 = ORIENTED_EDGE ( 'NONE', *, *, #87, .F. ) ;
#357 = SECURITY_CLASSIFICATION ( '', '', #123 ) ;
#358 = DIRECTION ( 'NONE',  ( 3.491481338843133355E-15, -0.000000000000000000, 1.000000000000000000 ) ) ;
#359 = EDGE_LOOP ( 'NONE', ( #321 ) ) ;
#360 = AXIS2_PLACEMENT_3D ( 'NONE', #85, #221, #10 ) ;
#361 = DIRECTION ( 'NONE',  ( 3.491481338843133355E-15, -0.000000000000000000, 1.000000000000000000 ) ) ;
#362 = AXIS2_PLACEMENT_3D ( 'NONE', #83, #57, #177 ) ;
#363 = COORDINATED_UNIVERSAL_TIME_OFFSET ( 1, 0, .AHEAD. ) ;
#364 = ADVANCED_FACE ( 'NONE', ( #282, #14 ), #65, .T. ) ;
#365 = CARTESIAN_POINT ( 'NONE',  ( 2.199633243471174140E-13, 2.399999999999988809, 63.00000000000000000 ) ) ;
#366 = DIRECTION ( 'NONE',  ( 1.000000000000000000, 0.000000000000000000, -5.276725402210820647E-15 ) ) ;
#367 = DIRECTION ( 'NONE',  ( -1.000000000000000000, 0.000000000000000000, 3.491481338843133355E-15 ) ) ;
#368 = ADVANCED_FACE ( 'NONE', ( #354, #149 ), #269, .T. ) ;
#369 = APPROVAL_DATE_TIME ( #246, #213 ) ;
#370 = DATE_AND_TIME ( #95, #139 ) ;
#371 = AXIS2_PLACEMENT_3D ( 'NONE', #20, #138, #111 ) ;
#372 = AXIS2_PLACEMENT_3D ( 'NONE', #116, #296, #183 ) ;
#373 = CARTESIAN_POINT ( 'NONE',  ( 2.630000000000001670, 0.000000000000000000, 0.4913690476190437639 ) ) ;
#374 = APPROVAL_DATE_TIME ( #38, #60 ) ;
#375 = EDGE_LOOP ( 'NONE', ( #48 ) ) ;
#376 = EDGE_LOOP ( 'NONE', ( #52 ) ) ;
#377 =( NAMED_UNIT ( * ) PLANE_ANGLE_UNIT ( ) SI_UNIT ( $, .RADIAN. ) );
#378 = DIRECTION ( 'NONE',  ( -3.491481338843133355E-15, 0.000000000000000000, -1.000000000000000000 ) ) ;
#379 = ORIENTED_EDGE ( 'NONE', *, *, #395, .F. ) ;
#380 = CC_DESIGN_PERSON_AND_ORGANIZATION_ASSIGNMENT ( #129, #243, ( #357 ) ) ;
#381 = VERTEX_POINT ( 'NONE', #108 ) ;
#382 = APPLICATION_CONTEXT ( 'configuration controlled 3d designs of mechanical parts and assemblies' ) ;
#383 = LOCAL_TIME ( 8, 23, 25.00000000000000000, #227 ) ;
#384 = EDGE_LOOP ( 'NONE', ( #210 ) ) ;
#385 =( LENGTH_UNIT ( ) NAMED_UNIT ( * ) SI_UNIT ( .MILLI., .METRE. ) );
#386 = EDGE_LOOP ( 'NONE', ( #167 ) ) ;
#387 = AXIS2_PLACEMENT_3D ( 'NONE', #18, #280, #43 ) ;
#388 = AXIS2_PLACEMENT_3D ( 'NONE', #162, #135, #103 ) ;
#389 = FACE_OUTER_BOUND ( 'NONE', #375, .T. ) ;
#390 = EDGE_CURVE ( 'NONE', #79, #79, #152, .T. ) ;
#391 = ORIENTED_EDGE ( 'NONE', *, *, #390, .F. ) ;
#392 = APPROVAL_PERSON_ORGANIZATION ( #51, #240, #314 ) ;
#393 = DIRECTION ( 'NONE',  ( 1.000000000000000000, 0.000000000000000000, -6.588826810225476958E-15 ) ) ;
#394 = CC_DESIGN_DATE_AND_TIME_ASSIGNMENT ( #140, #173, ( #127 ) ) ;
#395 = EDGE_CURVE ( 'NONE', #226, #226, #204, .T. ) ;
ENDSEC;
END-ISO-10303-21;
