ISO-10303-21;
HEADER;
FILE_DESCRIPTION (( 'STEP AP203' ),
    '1' );
FILE_NAME ('966541.step',
    '2021-11-29T14:58:49',
    ( '' ),
    ( '' ),
    'SwSTEP 2.0',
    'SolidWorks 2019',
    '' );
FILE_SCHEMA (( 'CONFIG_CONTROL_DESIGN' ));
ENDSEC;

DATA;
#1 = ORGANIZATION ( 'UNSPECIFIED', 'UNSPECIFIED', '' ) ;
#2 = DIRECTION ( 'NONE',  ( 0.0000000000000000000, 1.000000000000000000, 0.0000000000000000000 ) ) ;
#3 = FACE_OUTER_BOUND ( 'NONE', #55, .T. ) ;
#4 = CARTESIAN_POINT ( 'NONE',  ( 6.322720941433206582E-14, -2.217711971330114879E-15, 18.10899251011943178 ) ) ;
#5 = ADVANCED_FACE ( 'NONE', ( #168 ), #260, .F. ) ;
#6 = CONICAL_SURFACE ( 'NONE', #19, 0.6299999999999991163, 0.5235987755982917102 ) ;
#7 = FACE_OUTER_BOUND ( 'NONE', #28, .T. ) ;
#8 = APPLICATION_CONTEXT ( 'configuration controlled 3d designs of mechanical parts and assemblies' ) ;
#9 = CALENDAR_DATE ( 2021, 29, 11 ) ;
#10 = ORIENTED_EDGE ( 'NONE', *, *, #214, .T. ) ;
#11 = DIRECTION ( 'NONE',  ( -3.491481338843133355E-15, 1.224646799147352961E-16, -1.000000000000000000 ) ) ;
#12 = CARTESIAN_POINT ( 'NONE',  ( 2.133289939816604760E-14, -7.482573850202185364E-16, 6.109985226280627124 ) ) ;
#13 = DATE_TIME_ROLE ( 'creation_date' ) ;
#14 = CARTESIAN_POINT ( 'NONE',  ( 2.094888803305880013E-14, 0.6934999999999992282, 6.000000000000000000 ) ) ;
#15 = APPROVAL_STATUS ( 'not_yet_approved' ) ;
#16 = VERTEX_POINT ( 'NONE', #84 ) ;
#17 = SECURITY_CLASSIFICATION_LEVEL ( 'unclassified' ) ;
#18 = CARTESIAN_POINT ( 'NONE',  ( 2.133289939816604760E-14, -7.482573850202185364E-16, 6.109985226280627124 ) ) ;
#19 = AXIS2_PLACEMENT_3D ( 'NONE', #12, #11, #144 ) ;
#20 = ORIENTED_EDGE ( 'NONE', *, *, #256, .T. ) ;
#21 = EDGE_LOOP ( 'NONE', ( #215 ) ) ;
#22 = APPROVAL_DATE_TIME ( #231, #158 ) ;
#23 = EDGE_LOOP ( 'NONE', ( #47 ) ) ;
#24 = EDGE_CURVE ( 'NONE', #285, #285, #213, .T. ) ;
#25 = CARTESIAN_POINT ( 'NONE',  ( 4.538925740496073362E-14, -1.592040838891558701E-15, 13.00000000000000000 ) ) ;
#26 = TOROIDAL_SURFACE ( 'NONE', #209, 2.630000000000000338, 2.000000000000000000 ) ;
#27 = PLANE ( 'NONE',  #143 ) ;
#28 = EDGE_LOOP ( 'NONE', ( #181 ) ) ;
#29 = CC_DESIGN_PERSON_AND_ORGANIZATION_ASSIGNMENT ( #83, #224, ( #134 ) ) ;
#30 = CARTESIAN_POINT ( 'NONE',  ( 8.728703347107829444E-16, -3.061616997868381169E-17, 0.2499999999999998890 ) ) ;
#31 = ORIENTED_EDGE ( 'NONE', *, *, #64, .T. ) ;
#32 = CC_DESIGN_APPROVAL ( #158, ( #254 ) ) ;
#33 = DIRECTION ( 'NONE',  ( -3.491481338843133355E-15, 1.224646799147352961E-16, -1.000000000000000000 ) ) ;
#34 = APPROVAL_ROLE ( '' ) ;
#35 = FACE_OUTER_BOUND ( 'NONE', #230, .T. ) ;
#36 = APPROVAL_DATE_TIME ( #298, #145 ) ;
#37 = CARTESIAN_POINT ( 'NONE',  ( 4.538925740496073362E-14, 0.6299999999999985612, 13.00000000000000000 ) ) ;
#38 = AXIS2_PLACEMENT_3D ( 'NONE', #73, #54, #141 ) ;
#39 = DATE_TIME_ROLE ( 'classification_date' ) ;
#40 = FACE_OUTER_BOUND ( 'NONE', #206, .T. ) ;
#41 = APPROVAL_STATUS ( 'not_yet_approved' ) ;
#42 = CARTESIAN_POINT ( 'NONE',  ( 1.326762908760390423E-13, -4.653657836759941152E-15, 38.00000000000000000 ) ) ;
#43 = APPROVAL_ROLE ( '' ) ;
#44 = APPROVAL_PERSON_ORGANIZATION ( #155, #145, #43 ) ;
#45 = ADVANCED_FACE ( 'NONE', ( #3 ), #27, .F. ) ;
#46 = ORIENTED_EDGE ( 'NONE', *, *, #256, .F. ) ;
#47 = ORIENTED_EDGE ( 'NONE', *, *, #24, .F. ) ;
#48 = EDGE_LOOP ( 'NONE', ( #300 ) ) ;
#49 = UNCERTAINTY_MEASURE_WITH_UNIT (LENGTH_MEASURE( 1.000000000000000082E-05 ), #276, 'distance_accuracy_value', 'NONE');
#50 = DIRECTION ( 'NONE',  ( -4.275831445896957731E-31, -1.000000000000000000, -1.224646799147352961E-16 ) ) ;
#51 = FACE_BOUND ( 'NONE', #190, .T. ) ;
#52 = ADVANCED_FACE ( 'NONE', ( #186 ), #164, .T. ) ;
#53 = CARTESIAN_POINT ( 'NONE',  ( 1.326762908760390423E-13, 8.998558695971099120E-33, 38.00000000000000000 ) ) ;
#54 = DIRECTION ( 'NONE',  ( 3.491481338843133355E-15, -1.224646799147352961E-16, 1.000000000000000000 ) ) ;
#55 = EDGE_LOOP ( 'NONE', ( #31 ) ) ;
#56 = ADVANCED_FACE ( 'NONE', ( #7, #187 ), #26, .F. ) ;
#57 = AXIS2_PLACEMENT_3D ( 'NONE', #53, #116, #232 ) ;
#58 = CARTESIAN_POINT ( 'NONE',  ( 4.660183614865709118E-14, -1.634572375883072414E-15, 13.34729635533384595 ) ) ;
#59 = VERTEX_POINT ( 'NONE', #60 ) ;
#60 = CARTESIAN_POINT ( 'NONE',  ( 6.322720941433206582E-14, 1.499999999999995559, 18.10899251011943178 ) ) ;
#61 = APPROVAL_DATE_TIME ( #130, #126 ) ;
#62 = VERTEX_POINT ( 'NONE', #247 ) ;
#63 = CIRCLE ( 'NONE', #175, 0.5491624327025949048 ) ;
#64 = EDGE_CURVE ( 'NONE', #268, #268, #117, .T. ) ;
#65 = CARTESIAN_POINT ( 'NONE',  ( 0.0000000000000000000, 0.0000000000000000000, 0.0000000000000000000 ) ) ;
#66 = ADVANCED_FACE ( 'NONE', ( #257 ), #238, .F. ) ;
#67 = LOCAL_TIME ( 15, 58, 49.00000000000000000, #152 ) ;
#68 = ORIENTED_EDGE ( 'NONE', *, *, #115, .T. ) ;
#69 = CONICAL_SURFACE ( 'NONE', #38, 0.6934999999999992282, 0.5235987755982923764 ) ;
#70 = DIRECTION ( 'NONE',  ( -4.275831445896957731E-31, -1.000000000000000000, -1.224646799147352961E-16 ) ) ;
#71 = CARTESIAN_POINT ( 'NONE',  ( 6.322720941433206582E-14, -2.217711971330114879E-15, 18.10899251011943178 ) ) ;
#72 = CIRCLE ( 'NONE', #297, 0.6935000000000000053 ) ;
#73 = CARTESIAN_POINT ( 'NONE',  ( 8.728703347107829444E-16, -3.061616997868381169E-17, 0.2499999999999998890 ) ) ;
#74 = DIRECTION ( 'NONE',  ( -4.275831445896957731E-31, -1.000000000000000000, -1.224646799147352961E-16 ) ) ;
#75 = DIRECTION ( 'NONE',  ( 0.0000000000000000000, 1.000000000000000000, 0.0000000000000000000 ) ) ;
#76 = CARTESIAN_POINT ( 'NONE',  ( 2.094888803305880013E-14, 0.6934999999999992282, 6.000000000000000000 ) ) ;
#77 = DIRECTION ( 'NONE',  ( 4.275831445896957731E-31, 1.000000000000000000, 1.224646799147352961E-16 ) ) ;
#78 = PERSON_AND_ORGANIZATION_ROLE ( 'design_owner' ) ;
#79 = DIRECTION ( 'NONE',  ( 0.0000000000000000000, 1.000000000000000000, 0.0000000000000000000 ) ) ;
#80 = FACE_OUTER_BOUND ( 'NONE', #210, .T. ) ;
#81 = AXIS2_PLACEMENT_3D ( 'NONE', #280, #120, #74 ) ;
#82 = LOCAL_TIME ( 15, 58, 49.00000000000000000, #162 ) ;
#83 = PERSON_AND_ORGANIZATION ( #89, #1 ) ;
#84 = CARTESIAN_POINT ( 'NONE',  ( 1.316288464743861212E-13, 1.499999999999998668, 37.69999999999999574 ) ) ;
#85 = MANIFOLD_SOLID_BREP ( 'Corps-Déplacer/Copier1[1]', #133 ) ;
#86 = EDGE_LOOP ( 'NONE', ( #228 ) ) ;
#87 = AXIS2_PLACEMENT_3D ( 'NONE', #71, #140, #94 ) ;
#88 = SHAPE_DEFINITION_REPRESENTATION ( #233, #301 ) ;
#89 = PERSON ( 'UNSPECIFIED', 'UNSPECIFIED', 'UNSPECIFIED', ('UNSPECIFIED'), ('UNSPECIFIED'), ('UNSPECIFIED') ) ;
#90 = CIRCLE ( 'NONE', #180, 1.499999999999997558 ) ;
#91 = ORIENTED_EDGE ( 'NONE', *, *, #64, .F. ) ;
#92 = CC_DESIGN_PERSON_AND_ORGANIZATION_ASSIGNMENT ( #107, #245, ( #254 ) ) ;
#93 = DIRECTION ( 'NONE',  ( -3.491481338843133355E-15, 1.224646799147352961E-16, -1.000000000000000000 ) ) ;
#94 = DIRECTION ( 'NONE',  ( 0.0000000000000000000, -1.000000000000000000, 0.0000000000000000000 ) ) ;
#95 = AXIS2_PLACEMENT_3D ( 'NONE', #192, #109, #99 ) ;
#96 = LOCAL_TIME ( 15, 58, 49.00000000000000000, #292 ) ;
#97 = DIRECTION ( 'NONE',  ( -3.491481338843133355E-15, 1.224646799147352961E-16, -1.000000000000000000 ) ) ;
#98 = CARTESIAN_POINT ( 'NONE',  ( 2.094888803305880013E-14, 5.200417046379978036E-33, 6.000000000000000000 ) ) ;
#99 = DIRECTION ( 'NONE',  ( 0.0000000000000000000, 1.000000000000000000, 0.0000000000000000000 ) ) ;
#100 = CIRCLE ( 'NONE', #205, 0.6300000000000002265 ) ;
#101 = FACE_OUTER_BOUND ( 'NONE', #283, .T. ) ;
#102 = PERSON_AND_ORGANIZATION ( #89, #1 ) ;
#103 = CC_DESIGN_PERSON_AND_ORGANIZATION_ASSIGNMENT ( #219, #287, ( #235 ) ) ;
#104 = CARTESIAN_POINT ( 'NONE',  ( 2.133289939816604760E-14, 0.6299999999999984501, 6.109985226280627124 ) ) ;
#105 = APPROVAL_ROLE ( '' ) ;
#106 = DIRECTION ( 'NONE',  ( -3.491481338843133355E-15, 1.224646799147352961E-16, -1.000000000000000000 ) ) ;
#107 = PERSON_AND_ORGANIZATION ( #89, #1 ) ;
#108 = CC_DESIGN_DATE_AND_TIME_ASSIGNMENT ( #148, #39, ( #254 ) ) ;
#109 = DIRECTION ( 'NONE',  ( -3.491481338843133355E-15, 1.224646799147352961E-16, -1.000000000000000000 ) ) ;
#110 = AXIS2_PLACEMENT_3D ( 'NONE', #65, #33, #270 ) ;
#111 = EDGE_LOOP ( 'NONE', ( #167 ) ) ;
#112 = ORIENTED_EDGE ( 'NONE', *, *, #279, .T. ) ;
#113 = EDGE_CURVE ( 'NONE', #170, #170, #100, .T. ) ;
#114 = EDGE_LOOP ( 'NONE', ( #189 ) ) ;
#115 = EDGE_CURVE ( 'NONE', #59, #59, #90, .T. ) ;
#116 = DIRECTION ( 'NONE',  ( -3.491481338843133355E-15, 1.224646799147352961E-16, -1.000000000000000000 ) ) ;
#117 = CIRCLE ( 'NONE', #220, 0.6935000000000000053 ) ;
#118 = CC_DESIGN_APPROVAL ( #126, ( #134 ) ) ;
#119 = FACE_OUTER_BOUND ( 'NONE', #302, .T. ) ;
#120 = DIRECTION ( 'NONE',  ( 3.491481338843133355E-15, -1.224646799147352961E-16, 1.000000000000000000 ) ) ;
#121 = EDGE_LOOP ( 'NONE', ( #91 ) ) ;
#122 = APPROVAL_PERSON_ORGANIZATION ( #196, #126, #34 ) ;
#123 =( NAMED_UNIT ( * ) PLANE_ANGLE_UNIT ( ) SI_UNIT ( $, .RADIAN. ) );
#124 = FACE_OUTER_BOUND ( 'NONE', #21, .T. ) ;
#125 = CYLINDRICAL_SURFACE ( 'NONE', #159, 0.6934999999999996723 ) ;
#126 = APPROVAL ( #41, 'UNSPECIFIED' ) ;
#127 = CIRCLE ( 'NONE', #156, 0.6603844939755827426 ) ;
#128 = DIRECTION ( 'NONE',  ( 5.554231995348920341E-31, 1.000000000000000000, 1.563377321536417757E-16 ) ) ;
#129 = DIRECTION ( 'NONE',  ( -3.491481338843133355E-15, 1.224646799147352961E-16, -1.000000000000000000 ) ) ;
#130 = DATE_AND_TIME ( #250, #96 ) ;
#131 = DIRECTION ( 'NONE',  ( 0.0000000000000000000, 1.000000000000000000, 0.0000000000000000000 ) ) ;
#132 = PERSON_AND_ORGANIZATION ( #89, #1 ) ;
#133 = CLOSED_SHELL ( 'NONE', ( #45, #244, #226, #56, #179, #288, #251, #66 ) ) ;
#134 = PRODUCT_DEFINITION_FORMATION_WITH_SPECIFIED_SOURCE ( 'ANY', '', #248, .NOT_KNOWN. ) ;
#135 = EDGE_LOOP ( 'NONE', ( #112 ) ) ;
#136 = CC_DESIGN_PERSON_AND_ORGANIZATION_ASSIGNMENT ( #177, #217, ( #134 ) ) ;
#137 = DIRECTION ( 'NONE',  ( 0.0000000000000000000, 1.000000000000000000, 0.0000000000000000000 ) ) ;
#138 = EDGE_LOOP ( 'NONE', ( #204 ) ) ;
#139 = AXIS2_PLACEMENT_3D ( 'NONE', #98, #212, #70 ) ;
#140 = DIRECTION ( 'NONE',  ( 3.491481338843133355E-15, -1.224646799147352961E-16, 1.000000000000000000 ) ) ;
#141 = DIRECTION ( 'NONE',  ( -5.554231995348920341E-31, -1.000000000000000000, -1.563377321536417757E-16 ) ) ;
#142 = ORIENTED_EDGE ( 'NONE', *, *, #113, .T. ) ;
#143 = AXIS2_PLACEMENT_3D ( 'NONE', #284, #259, #50 ) ;
#144 = DIRECTION ( 'NONE',  ( 0.0000000000000000000, 1.000000000000000000, 0.0000000000000000000 ) ) ;
#145 = APPROVAL ( #242, 'UNSPECIFIED' ) ;
#146 = DIRECTION ( 'NONE',  ( -3.491481338843133355E-15, 1.224646799147352961E-16, -1.000000000000000000 ) ) ;
#147 = VERTEX_POINT ( 'NONE', #243 ) ;
#148 = DATE_AND_TIME ( #273, #289 ) ;
#149 = AXIS2_PLACEMENT_3D ( 'NONE', #18, #293, #241 ) ;
#150 = CC_DESIGN_APPROVAL ( #145, ( #235 ) ) ;
#151 = DIRECTION ( 'NONE',  ( -3.491481338843133355E-15, 1.224646799147352961E-16, -1.000000000000000000 ) ) ;
#152 = COORDINATED_UNIVERSAL_TIME_OFFSET ( 1, 0, .AHEAD. ) ;
#153 = FACE_BOUND ( 'NONE', #48, .T. ) ;
#154 = CALENDAR_DATE ( 2021, 29, 11 ) ;
#155 = PERSON_AND_ORGANIZATION ( #89, #1 ) ;
#156 = AXIS2_PLACEMENT_3D ( 'NONE', #58, #129, #79 ) ;
#157 = EDGE_LOOP ( 'NONE', ( #227 ) ) ;
#158 = APPROVAL ( #15, 'UNSPECIFIED' ) ;
#159 = AXIS2_PLACEMENT_3D ( 'NONE', #240, #266, #199 ) ;
#160 = CC_DESIGN_PERSON_AND_ORGANIZATION_ASSIGNMENT ( #102, #78, ( #248 ) ) ;
#161 = DIRECTION ( 'NONE',  ( 4.275831445896957731E-31, 1.000000000000000000, 1.224646799147352961E-16 ) ) ;
#162 = COORDINATED_UNIVERSAL_TIME_OFFSET ( 1, 0, .AHEAD. ) ;
#163 = DIRECTION ( 'NONE',  ( 0.0000000000000000000, 1.000000000000000000, 0.0000000000000000000 ) ) ;
#164 = PLANE ( 'NONE',  #139 ) ;
#165 = AXIS2_PLACEMENT_3D ( 'NONE', #169, #221, #195 ) ;
#166 = CC_DESIGN_DATE_AND_TIME_ASSIGNMENT ( #172, #13, ( #235 ) ) ;
#167 = ORIENTED_EDGE ( 'NONE', *, *, #115, .F. ) ;
#168 = FACE_OUTER_BOUND ( 'NONE', #114, .T. ) ;
#169 = CARTESIAN_POINT ( 'NONE',  ( 0.0000000000000000000, 0.0000000000000000000, 0.0000000000000000000 ) ) ;
#170 = VERTEX_POINT ( 'NONE', #37 ) ;
#171 = CARTESIAN_POINT ( 'NONE',  ( 1.326762908760390423E-13, 1.199999999999998845, 38.00000000000000000 ) ) ;
#172 = DATE_AND_TIME ( #154, #67 ) ;
#173 = VERTEX_POINT ( 'NONE', #223 ) ;
#174 = MECHANICAL_CONTEXT ( 'NONE', #8, 'mechanical' ) ;
#175 = AXIS2_PLACEMENT_3D ( 'NONE', #263, #151, #77 ) ;
#176 = FACE_OUTER_BOUND ( 'NONE', #111, .T. ) ;
#177 = PERSON_AND_ORGANIZATION ( #89, #1 ) ;
#178 = DIRECTION ( 'NONE',  ( 0.0000000000000000000, 0.0000000000000000000, 1.000000000000000000 ) ) ;
#179 = ADVANCED_FACE ( 'NONE', ( #51, #119 ), #193, .T. ) ;
#180 = AXIS2_PLACEMENT_3D ( 'NONE', #4, #281, #163 ) ;
#181 = ORIENTED_EDGE ( 'NONE', *, *, #113, .F. ) ;
#182 = ORIENTED_EDGE ( 'NONE', *, *, #279, .F. ) ;
#183 = ORIENTED_EDGE ( 'NONE', *, *, #303, .F. ) ;
#184 = AXIS2_PLACEMENT_3D ( 'NONE', #239, #93, #236 ) ;
#185 = EDGE_LOOP ( 'NONE', ( #20 ) ) ;
#186 = FACE_OUTER_BOUND ( 'NONE', #157, .T. ) ;
#187 = FACE_OUTER_BOUND ( 'NONE', #135, .T. ) ;
#188 = AXIS2_PLACEMENT_3D ( 'NONE', #30, #201, #128 ) ;
#189 = ORIENTED_EDGE ( 'NONE', *, *, #299, .T. ) ;
#190 = EDGE_LOOP ( 'NONE', ( #182 ) ) ;
#191 = ADVANCED_FACE ( 'NONE', ( #237, #282 ), #69, .T. ) ;
#192 = CARTESIAN_POINT ( 'NONE',  ( 1.316288464743861212E-13, -4.616918432785520292E-15, 37.69999999999999574 ) ) ;
#193 = CONICAL_SURFACE ( 'NONE', #87, 1.499999999999997558, 0.1745329251994258979 ) ;
#194 = LOCAL_TIME ( 15, 58, 49.00000000000000000, #198 ) ;
#195 = DIRECTION ( 'NONE',  ( 4.275831445896957731E-31, 1.000000000000000000, 1.224646799147353207E-16 ) ) ;
#196 = PERSON_AND_ORGANIZATION ( #89, #1 ) ;
#197 = VERTEX_POINT ( 'NONE', #104 ) ;
#198 = COORDINATED_UNIVERSAL_TIME_OFFSET ( 1, 0, .AHEAD. ) ;
#199 = DIRECTION ( 'NONE',  ( 4.275831445896957731E-31, 1.000000000000000000, 1.224646799147352961E-16 ) ) ;
#200 =( GEOMETRIC_REPRESENTATION_CONTEXT ( 3 ) GLOBAL_UNCERTAINTY_ASSIGNED_CONTEXT ( ( #49 ) ) GLOBAL_UNIT_ASSIGNED_CONTEXT ( ( #276, #123, #294 ) ) REPRESENTATION_CONTEXT ( 'NONE', 'WORKASPACE' ) );
#201 = DIRECTION ( 'NONE',  ( -3.491481338843133355E-15, 1.224646799147352961E-16, -1.000000000000000000 ) ) ;
#202 = CARTESIAN_POINT ( 'NONE',  ( 0.0000000000000000000, 0.0000000000000000000, 0.0000000000000000000 ) ) ;
#203 = EDGE_CURVE ( 'NONE', #147, #147, #286, .T. ) ;
#204 = ORIENTED_EDGE ( 'NONE', *, *, #299, .F. ) ;
#205 = AXIS2_PLACEMENT_3D ( 'NONE', #25, #208, #2 ) ;
#206 = EDGE_LOOP ( 'NONE', ( #253 ) ) ;
#207 = APPLICATION_CONTEXT ( 'configuration controlled 3d designs of mechanical parts and assemblies' ) ;
#208 = DIRECTION ( 'NONE',  ( -3.491481338843133355E-15, 1.224646799147352961E-16, -1.000000000000000000 ) ) ;
#209 = AXIS2_PLACEMENT_3D ( 'NONE', #211, #262, #161 ) ;
#210 = EDGE_LOOP ( 'NONE', ( #46 ) ) ;
#211 = CARTESIAN_POINT ( 'NONE',  ( 4.538925740496073362E-14, -1.734723475976807094E-15, 13.00000000000000000 ) ) ;
#212 = DIRECTION ( 'NONE',  ( 3.491481338843133355E-15, -1.224646799147352961E-16, 1.000000000000000000 ) ) ;
#213 = CIRCLE ( 'NONE', #184, 1.200000000000003286 ) ;
#214 = EDGE_CURVE ( 'NONE', #295, #295, #72, .T. ) ;
#215 = ORIENTED_EDGE ( 'NONE', *, *, #203, .F. ) ;
#216 = CYLINDRICAL_SURFACE ( 'NONE', #165, 1.500000000000000444 ) ;
#217 = PERSON_AND_ORGANIZATION_ROLE ( 'creator' ) ;
#218 = FACE_OUTER_BOUND ( 'NONE', #121, .T. ) ;
#219 = PERSON_AND_ORGANIZATION ( #89, #1 ) ;
#220 = AXIS2_PLACEMENT_3D ( 'NONE', #255, #97, #137 ) ;
#221 = DIRECTION ( 'NONE',  ( -3.491481338843133355E-15, 1.224646799147352961E-16, -1.000000000000000000 ) ) ;
#222 = APPLICATION_PROTOCOL_DEFINITION ( 'international standard', 'config_control_design', 1994, #8 ) ;
#223 = CARTESIAN_POINT ( 'NONE',  ( 4.660183614865709118E-14, 0.6603844939755810772, 13.34729635533384595 ) ) ;
#224 = PERSON_AND_ORGANIZATION_ROLE ( 'design_supplier' ) ;
#225 = FACE_BOUND ( 'NONE', #185, .T. ) ;
#226 = ADVANCED_FACE ( 'NONE', ( #80, #249 ), #272, .T. ) ;
#227 = ORIENTED_EDGE ( 'NONE', *, *, #214, .F. ) ;
#228 = ORIENTED_EDGE ( 'NONE', *, *, #203, .T. ) ;
#229 = CIRCLE ( 'NONE', #95, 1.500000000000003331 ) ;
#230 = EDGE_LOOP ( 'NONE', ( #10 ) ) ;
#231 = DATE_AND_TIME ( #9, #82 ) ;
#232 = DIRECTION ( 'NONE',  ( 4.275831445896957731E-31, 1.000000000000000000, 1.224646799147352961E-16 ) ) ;
#233 = PRODUCT_DEFINITION_SHAPE ( 'NONE', 'NONE',  #235 ) ;
#234 = AXIS2_PLACEMENT_3D ( 'NONE', #42, #106, #131 ) ;
#235 = PRODUCT_DEFINITION ( 'UNKNOWN', '', #134, #261 ) ;
#236 = DIRECTION ( 'NONE',  ( 0.0000000000000000000, 1.000000000000000000, 0.0000000000000000000 ) ) ;
#237 = FACE_BOUND ( 'NONE', #138, .T. ) ;
#238 = PLANE ( 'NONE',  #57 ) ;
#239 = CARTESIAN_POINT ( 'NONE',  ( 1.326762908760390423E-13, -4.653657836759941152E-15, 38.00000000000000000 ) ) ;
#240 = CARTESIAN_POINT ( 'NONE',  ( 0.0000000000000000000, 0.0000000000000000000, 0.0000000000000000000 ) ) ;
#241 = DIRECTION ( 'NONE',  ( 0.0000000000000000000, 1.000000000000000000, 0.0000000000000000000 ) ) ;
#242 = APPROVAL_STATUS ( 'not_yet_approved' ) ;
#243 = CARTESIAN_POINT ( 'NONE',  ( 8.728703347107833388E-16, 0.6934999999999992282, 0.2500000000000000000 ) ) ;
#244 = ADVANCED_FACE ( 'NONE', ( #218, #225 ), #6, .T. ) ;
#245 = PERSON_AND_ORGANIZATION_ROLE ( 'classification_officer' ) ;
#246 = CONICAL_SURFACE ( 'NONE', #234, 1.200000000000003286, 0.7853981633974453924 ) ;
#247 = CARTESIAN_POINT ( 'NONE',  ( -9.463679131915811161E-32, 0.5491624327025949048, -2.710505431213761085E-17 ) ) ;
#248 = PRODUCT ( '966541', '966541', '', ( #174 ) ) ;
#249 = FACE_OUTER_BOUND ( 'NONE', #252, .T. ) ;
#250 = CALENDAR_DATE ( 2021, 29, 11 ) ;
#251 = ADVANCED_FACE ( 'NONE', ( #101, #153 ), #246, .T. ) ;
#252 = EDGE_LOOP ( 'NONE', ( #142 ) ) ;
#253 = ORIENTED_EDGE ( 'NONE', *, *, #303, .T. ) ;
#254 = SECURITY_CLASSIFICATION ( '', '', #17 ) ;
#255 = CARTESIAN_POINT ( 'NONE',  ( 2.094888803305880013E-14, -7.347880794884118750E-16, 6.000000000000000000 ) ) ;
#256 = EDGE_CURVE ( 'NONE', #197, #197, #258, .T. ) ;
#257 = FACE_OUTER_BOUND ( 'NONE', #23, .T. ) ;
#258 = CIRCLE ( 'NONE', #149, 0.6299999999999991163 ) ;
#259 = DIRECTION ( 'NONE',  ( 3.491481338843133355E-15, -1.224646799147352961E-16, 1.000000000000000000 ) ) ;
#260 = PLANE ( 'NONE',  #81 ) ;
#261 = DESIGN_CONTEXT ( 'detailed design', #207, 'design' ) ;
#262 = DIRECTION ( 'NONE',  ( -3.491481338843133355E-15, 1.224646799147352961E-16, -1.000000000000000000 ) ) ;
#263 = CARTESIAN_POINT ( 'NONE',  ( -3.294493911846608346E-31, 1.155552910756845474E-32, -9.435805585425826220E-17 ) ) ;
#264 = AXIS2_PLACEMENT_3D ( 'NONE', #202, #178, #275 ) ;
#265 = APPROVAL_PERSON_ORGANIZATION ( #132, #158, #105 ) ;
#266 = DIRECTION ( 'NONE',  ( -3.491481338843133355E-15, 1.224646799147352961E-16, -1.000000000000000000 ) ) ;
#267 = PRODUCT_RELATED_PRODUCT_CATEGORY ( 'detail', '', ( #248 ) ) ;
#268 = VERTEX_POINT ( 'NONE', #76 ) ;
#269 = CALENDAR_DATE ( 2021, 29, 11 ) ;
#270 = DIRECTION ( 'NONE',  ( 4.275831445896958607E-31, 1.000000000000000000, 1.224646799147353207E-16 ) ) ;
#271 = APPLICATION_PROTOCOL_DEFINITION ( 'international standard', 'config_control_design', 1994, #207 ) ;
#272 = CYLINDRICAL_SURFACE ( 'NONE', #110, 0.6299999999999996714 ) ;
#273 = CALENDAR_DATE ( 2021, 29, 11 ) ;
#274 = ADVANCED_FACE ( 'NONE', ( #124, #35 ), #125, .T. ) ;
#275 = DIRECTION ( 'NONE',  ( 1.000000000000000000, 0.0000000000000000000, 0.0000000000000000000 ) ) ;
#276 =( LENGTH_UNIT ( ) NAMED_UNIT ( * ) SI_UNIT ( .MILLI., .METRE. ) );
#277 = CLOSED_SHELL ( 'NONE', ( #5, #191, #274, #52 ) ) ;
#278 = CC_DESIGN_SECURITY_CLASSIFICATION ( #254, ( #134 ) ) ;
#279 = EDGE_CURVE ( 'NONE', #173, #173, #127, .T. ) ;
#280 = CARTESIAN_POINT ( 'NONE',  ( -1.647246955923304173E-31, 5.777764553784227372E-33, -4.717902792712913110E-17 ) ) ;
#281 = DIRECTION ( 'NONE',  ( -3.491481338843133355E-15, 1.224646799147352961E-16, -1.000000000000000000 ) ) ;
#282 = FACE_OUTER_BOUND ( 'NONE', #86, .T. ) ;
#283 = EDGE_LOOP ( 'NONE', ( #183 ) ) ;
#284 = CARTESIAN_POINT ( 'NONE',  ( 2.094888803305880013E-14, 5.200417046379978036E-33, 6.000000000000000000 ) ) ;
#285 = VERTEX_POINT ( 'NONE', #171 ) ;
#286 = CIRCLE ( 'NONE', #188, 0.6934999999999992282 ) ;
#287 = PERSON_AND_ORGANIZATION_ROLE ( 'creator' ) ;
#288 = ADVANCED_FACE ( 'NONE', ( #176, #40 ), #216, .T. ) ;
#289 = LOCAL_TIME ( 15, 58, 49.00000000000000000, #296 ) ;
#290 = MANIFOLD_SOLID_BREP ( 'Corps-Déplacer/Copier1[2]', #277 ) ;
#291 = CARTESIAN_POINT ( 'NONE',  ( 2.094888803305880013E-14, -7.347880794884118750E-16, 6.000000000000000000 ) ) ;
#292 = COORDINATED_UNIVERSAL_TIME_OFFSET ( 1, 0, .AHEAD. ) ;
#293 = DIRECTION ( 'NONE',  ( -3.491481338843133355E-15, 1.224646799147352961E-16, -1.000000000000000000 ) ) ;
#294 =( NAMED_UNIT ( * ) SI_UNIT ( $, .STERADIAN. ) SOLID_ANGLE_UNIT ( ) );
#295 = VERTEX_POINT ( 'NONE', #14 ) ;
#296 = COORDINATED_UNIVERSAL_TIME_OFFSET ( 1, 0, .AHEAD. ) ;
#297 = AXIS2_PLACEMENT_3D ( 'NONE', #291, #146, #75 ) ;
#298 = DATE_AND_TIME ( #269, #194 ) ;
#299 = EDGE_CURVE ( 'NONE', #62, #62, #63, .T. ) ;
#300 = ORIENTED_EDGE ( 'NONE', *, *, #24, .T. ) ;
#301 = ADVANCED_BREP_SHAPE_REPRESENTATION ( '966541', ( #85, #290, #264 ), #200 ) ;
#302 = EDGE_LOOP ( 'NONE', ( #68 ) ) ;
#303 = EDGE_CURVE ( 'NONE', #16, #16, #229, .T. ) ;
ENDSEC;
END-ISO-10303-21;
