ISO-10303-21;
HEADER;
FILE_DESCRIPTION (( 'STEP AP203' ),
    '1' );
FILE_NAME ('996345.step',
    '2021-11-05T15:02:28',
    ( '' ),
    ( '' ),
    'SwSTEP 2.0',
    'SolidWorks 2019',
    '' );
FILE_SCHEMA (( 'CONFIG_CONTROL_DESIGN' ));
ENDSEC;

DATA;
#1 = DIRECTION ( 'NONE',  ( 3.491481338843133355E-15, -0.0000000000000000000, 1.000000000000000000 ) ) ;
#2 = CC_DESIGN_APPROVAL ( #3, ( #166 ) ) ;
#3 = APPROVAL ( #94, 'UNSPECIFIED' ) ;
#4 = DIRECTION ( 'NONE',  ( 1.000000000000000000, 0.0000000000000000000, -3.491130995403324278E-15 ) ) ;
#5 = FACE_OUTER_BOUND ( 'NONE', #176, .T. ) ;
#6 = CLOSED_SHELL ( 'NONE', ( #68, #211, #223, #11 ) ) ;
#7 = FACE_BOUND ( 'NONE', #156, .T. ) ;
#8 = DIRECTION ( 'NONE',  ( 0.0000000000000000000, 1.000000000000000000, 0.0000000000000000000 ) ) ;
#9 = CARTESIAN_POINT ( 'NONE',  ( 7.681258945454893382E-14, 4.999999999999992006, 22.00000000000000000 ) ) ;
#10 = DESIGN_CONTEXT ( 'detailed design', #41, 'design' ) ;
#11 = ADVANCED_FACE ( 'NONE', ( #137 ), #222, .F. ) ;
#12 = ADVANCED_FACE ( 'NONE', ( #114 ), #30, .F. ) ;
#13 = EDGE_LOOP ( 'NONE', ( #117 ) ) ;
#14 = PERSON_AND_ORGANIZATION ( #195, #115 ) ;
#15 = APPROVAL_DATE_TIME ( #134, #3 ) ;
#16 = ORIENTED_EDGE ( 'NONE', *, *, #21, .T. ) ;
#17 = AXIS2_PLACEMENT_3D ( 'NONE', #122, #121, #210 ) ;
#18 = ADVANCED_BREP_SHAPE_REPRESENTATION ( '996345', ( #20, #99, #136 ), #120 ) ;
#19 = CC_DESIGN_PERSON_AND_ORGANIZATION_ASSIGNMENT ( #98, #131, ( #166 ) ) ;
#20 = MANIFOLD_SOLID_BREP ( 'Corps-Déplacer/Copier1[1]', #75 ) ;
#21 = EDGE_CURVE ( 'NONE', #181, #181, #102, .T. ) ;
#22 = PRODUCT_DEFINITION_SHAPE ( 'NONE', 'NONE',  #166 ) ;
#23 = CARTESIAN_POINT ( 'NONE',  ( 6.982962677686266711E-16, 0.0000000000000000000, 0.2000000000000000111 ) ) ;
#24 = PRODUCT_DEFINITION_FORMATION_WITH_SPECIFIED_SOURCE ( 'ANY', '', #49, .NOT_KNOWN. ) ;
#25 = EDGE_CURVE ( 'NONE', #26, #26, #205, .T. ) ;
#26 = VERTEX_POINT ( 'NONE', #112 ) ;
#27 = FACE_OUTER_BOUND ( 'NONE', #153, .T. ) ;
#28 = CC_DESIGN_PERSON_AND_ORGANIZATION_ASSIGNMENT ( #208, #151, ( #24 ) ) ;
#29 = CALENDAR_DATE ( 2021, 5, 11 ) ;
#30 = PLANE ( 'NONE',  #142 ) ;
#31 = ORIENTED_EDGE ( 'NONE', *, *, #36, .T. ) ;
#32 = COORDINATED_UNIVERSAL_TIME_OFFSET ( 1, 0, .AHEAD. ) ;
#33 = ORIENTED_EDGE ( 'NONE', *, *, #108, .F. ) ;
#34 = CALENDAR_DATE ( 2021, 5, 11 ) ;
#35 = AXIS2_PLACEMENT_3D ( 'NONE', #184, #164, #180 ) ;
#36 = EDGE_CURVE ( 'NONE', #129, #129, #86, .T. ) ;
#37 = DIRECTION ( 'NONE',  ( 0.0000000000000000000, 1.000000000000000000, 0.0000000000000000000 ) ) ;
#38 = AXIS2_PLACEMENT_3D ( 'NONE', #63, #148, #50 ) ;
#39 = SECURITY_CLASSIFICATION ( '', '', #172 ) ;
#40 = EDGE_CURVE ( 'NONE', #146, #146, #105, .T. ) ;
#41 = APPLICATION_CONTEXT ( 'configuration controlled 3d designs of mechanical parts and assemblies' ) ;
#42 = CC_DESIGN_PERSON_AND_ORGANIZATION_ASSIGNMENT ( #157, #72, ( #24 ) ) ;
#43 = UNCERTAINTY_MEASURE_WITH_UNIT (LENGTH_MEASURE( 1.000000000000000082E-05 ), #127, 'distance_accuracy_value', 'NONE');
#44 = DIRECTION ( 'NONE',  ( -3.491481338843133355E-15, 1.224646799147353207E-16, -1.000000000000000000 ) ) ;
#45 = VERTEX_POINT ( 'NONE', #217 ) ;
#46 = CARTESIAN_POINT ( 'NONE',  ( 7.681258945454893382E-14, 3.749399456654636904E-32, 22.00000000000000000 ) ) ;
#47 = DIRECTION ( 'NONE',  ( -3.491481338843133355E-15, 1.224646799147353207E-16, -1.000000000000000000 ) ) ;
#48 = CIRCLE ( 'NONE', #35, 5.000000000000000888 ) ;
#49 = PRODUCT ( '996345', '996345', '', ( #219 ) ) ;
#50 = DIRECTION ( 'NONE',  ( 4.275831445896959482E-31, 1.000000000000000000, 1.224646799147353207E-16 ) ) ;
#51 = DATE_AND_TIME ( #29, #188 ) ;
#52 = DIRECTION ( 'NONE',  ( -4.275831445896958607E-31, -1.000000000000000000, -1.224646799147353207E-16 ) ) ;
#53 = DATE_AND_TIME ( #158, #175 ) ;
#54 = CARTESIAN_POINT ( 'NONE',  ( 0.0000000000000000000, 0.0000000000000000000, 0.0000000000000000000 ) ) ;
#55 = DATE_AND_TIME ( #34, #162 ) ;
#56 = AXIS2_PLACEMENT_3D ( 'NONE', #107, #78, #64 ) ;
#57 = APPROVAL ( #83, 'UNSPECIFIED' ) ;
#58 = CARTESIAN_POINT ( 'NONE',  ( 2.444036937190193601E-13, -8.572527594031472993E-15, 70.00000000000000000 ) ) ;
#59 = ADVANCED_FACE ( 'NONE', ( #74 ), #139, .F. ) ;
#60 = CARTESIAN_POINT ( 'NONE',  ( 2.444036937190193601E-13, 3.374459510989167028E-32, 70.00000000000000000 ) ) ;
#61 = CARTESIAN_POINT ( 'NONE',  ( 6.982962677686266711E-16, 0.0000000000000000000, 0.2000000000000000111 ) ) ;
#62 = CC_DESIGN_PERSON_AND_ORGANIZATION_ASSIGNMENT ( #116, #173, ( #49 ) ) ;
#63 = CARTESIAN_POINT ( 'NONE',  ( 0.0000000000000000000, 0.0000000000000000000, 0.0000000000000000000 ) ) ;
#64 = DIRECTION ( 'NONE',  ( 0.0000000000000000000, 1.000000000000000000, 0.0000000000000000000 ) ) ;
#65 = EDGE_LOOP ( 'NONE', ( #220 ) ) ;
#66 = CALENDAR_DATE ( 2021, 5, 11 ) ;
#67 = EDGE_LOOP ( 'NONE', ( #85 ) ) ;
#68 = ADVANCED_FACE ( 'NONE', ( #91, #125 ), #124, .T. ) ;
#69 = COORDINATED_UNIVERSAL_TIME_OFFSET ( 1, 0, .AHEAD. ) ;
#70 = CONICAL_SURFACE ( 'NONE', #90, 4.500000000000000888, 0.7853981633974482790 ) ;
#71 = CARTESIAN_POINT ( 'NONE',  ( -8.551702076470480934E-31, 2.999533309458101739E-32, -2.449304821232125005E-16 ) ) ;
#72 = PERSON_AND_ORGANIZATION_ROLE ( 'creator' ) ;
#73 = APPROVAL_ROLE ( '' ) ;
#74 = FACE_OUTER_BOUND ( 'NONE', #67, .T. ) ;
#75 = CLOSED_SHELL ( 'NONE', ( #12, #177, #84, #59 ) ) ;
#76 = PRODUCT_RELATED_PRODUCT_CATEGORY ( 'detail', '', ( #49 ) ) ;
#77 = DIRECTION ( 'NONE',  ( -3.491481338843133355E-15, 1.224646799147353207E-16, -1.000000000000000000 ) ) ;
#78 = DIRECTION ( 'NONE',  ( -3.491481338843133355E-15, 1.224646799147353207E-16, -1.000000000000000000 ) ) ;
#79 = DIRECTION ( 'NONE',  ( 3.491481338843133355E-15, -1.224646799147353207E-16, 1.000000000000000000 ) ) ;
#80 = CARTESIAN_POINT ( 'NONE',  ( 7.681258945454893382E-14, 4.999999999999992006, 22.00000000000000000 ) ) ;
#81 = PERSON_AND_ORGANIZATION ( #195, #115 ) ;
#82 = EDGE_LOOP ( 'NONE', ( #203 ) ) ;
#83 = APPROVAL_STATUS ( 'not_yet_approved' ) ;
#84 = ADVANCED_FACE ( 'NONE', ( #218, #7 ), #70, .T. ) ;
#85 = ORIENTED_EDGE ( 'NONE', *, *, #36, .F. ) ;
#86 = CIRCLE ( 'NONE', #213, 4.500000000000000888 ) ;
#87 = CALENDAR_DATE ( 2021, 5, 11 ) ;
#88 = COORDINATED_UNIVERSAL_TIME_OFFSET ( 1, 0, .AHEAD. ) ;
#89 =( NAMED_UNIT ( * ) PLANE_ANGLE_UNIT ( ) SI_UNIT ( $, .RADIAN. ) );
#90 = AXIS2_PLACEMENT_3D ( 'NONE', #126, #47, #8 ) ;
#91 = FACE_OUTER_BOUND ( 'NONE', #65, .T. ) ;
#92 = DIRECTION ( 'NONE',  ( -4.275831445896958607E-31, -1.000000000000000000, -1.224646799147353207E-16 ) ) ;
#93 = CARTESIAN_POINT ( 'NONE',  ( 2.444036937190193601E-13, 4.499999999999992006, 70.00000000000000000 ) ) ;
#94 = APPROVAL_STATUS ( 'not_yet_approved' ) ;
#95 = DIRECTION ( 'NONE',  ( 3.491481338843133355E-15, -1.224646799147353207E-16, 1.000000000000000000 ) ) ;
#96 = APPLICATION_CONTEXT ( 'configuration controlled 3d designs of mechanical parts and assemblies' ) ;
#97 = EDGE_LOOP ( 'NONE', ( #16 ) ) ;
#98 = PERSON_AND_ORGANIZATION ( #195, #115 ) ;
#99 = MANIFOLD_SOLID_BREP ( 'Corps-Déplacer/Copier1[2]', #6 ) ;
#100 = ORIENTED_EDGE ( 'NONE', *, *, #40, .T. ) ;
#101 = COORDINATED_UNIVERSAL_TIME_OFFSET ( 1, 0, .AHEAD. ) ;
#102 = CIRCLE ( 'NONE', #197, 4.999999999999994671 ) ;
#103 = DATE_TIME_ROLE ( 'classification_date' ) ;
#104 = APPROVAL_ROLE ( '' ) ;
#105 = CIRCLE ( 'NONE', #135, 5.000000000000000000 ) ;
#106 = APPROVAL ( #209, 'UNSPECIFIED' ) ;
#107 = CARTESIAN_POINT ( 'NONE',  ( 7.681258945454893382E-14, -2.694222958124176809E-15, 22.00000000000000000 ) ) ;
#108 = EDGE_CURVE ( 'NONE', #167, #167, #141, .T. ) ;
#109 = DIRECTION ( 'NONE',  ( 3.491481338843133355E-15, -0.0000000000000000000, 1.000000000000000000 ) ) ;
#110 = PLANE ( 'NONE',  #161 ) ;
#111 = LOCAL_TIME ( 16, 2, 28.00000000000000000, #69 ) ;
#112 = CARTESIAN_POINT ( 'NONE',  ( 4.800000000000002487, 0.0000000000000000000, -1.675911042644704642E-14 ) ) ;
#113 = DATE_TIME_ROLE ( 'creation_date' ) ;
#114 = FACE_OUTER_BOUND ( 'NONE', #97, .T. ) ;
#115 = ORGANIZATION ( 'UNSPECIFIED', 'UNSPECIFIED', '' ) ;
#116 = PERSON_AND_ORGANIZATION ( #195, #115 ) ;
#117 = ORIENTED_EDGE ( 'NONE', *, *, #25, .T. ) ;
#118 = CC_DESIGN_DATE_AND_TIME_ASSIGNMENT ( #51, #113, ( #166 ) ) ;
#119 = DIRECTION ( 'NONE',  ( -4.275831445896958607E-31, -1.000000000000000000, -1.224646799147353207E-16 ) ) ;
#120 =( GEOMETRIC_REPRESENTATION_CONTEXT ( 3 ) GLOBAL_UNCERTAINTY_ASSIGNED_CONTEXT ( ( #43 ) ) GLOBAL_UNIT_ASSIGNED_CONTEXT ( ( #127, #89, #212 ) ) REPRESENTATION_CONTEXT ( 'NONE', 'WORKASPACE' ) );
#121 = DIRECTION ( 'NONE',  ( 3.491481338843133355E-15, -0.0000000000000000000, 1.000000000000000000 ) ) ;
#122 = CARTESIAN_POINT ( 'NONE',  ( 0.0000000000000000000, 0.0000000000000000000, 0.0000000000000000000 ) ) ;
#123 = DIRECTION ( 'NONE',  ( 1.000000000000000000, 0.0000000000000000000, -3.491130995403324278E-15 ) ) ;
#124 = CYLINDRICAL_SURFACE ( 'NONE', #38, 4.999999999999993783 ) ;
#125 = FACE_OUTER_BOUND ( 'NONE', #191, .T. ) ;
#126 = CARTESIAN_POINT ( 'NONE',  ( 2.444036937190193601E-13, -8.572527594031472993E-15, 70.00000000000000000 ) ) ;
#127 =( LENGTH_UNIT ( ) NAMED_UNIT ( * ) SI_UNIT ( .MILLI., .METRE. ) );
#128 = CC_DESIGN_APPROVAL ( #106, ( #24 ) ) ;
#129 = VERTEX_POINT ( 'NONE', #93 ) ;
#130 = EDGE_CURVE ( 'NONE', #45, #45, #48, .T. ) ;
#131 = PERSON_AND_ORGANIZATION_ROLE ( 'creator' ) ;
#132 = DIRECTION ( 'NONE',  ( 3.491481338843133355E-15, -1.224646799147353207E-16, 1.000000000000000000 ) ) ;
#133 = APPROVAL_DATE_TIME ( #53, #106 ) ;
#134 = DATE_AND_TIME ( #66, #111 ) ;
#135 = AXIS2_PLACEMENT_3D ( 'NONE', #23, #1, #123 ) ;
#136 = AXIS2_PLACEMENT_3D ( 'NONE', #54, #202, #171 ) ;
#137 = FACE_OUTER_BOUND ( 'NONE', #189, .T. ) ;
#138 = APPROVAL_PERSON_ORGANIZATION ( #81, #3, #149 ) ;
#139 = PLANE ( 'NONE',  #196 ) ;
#140 = DIRECTION ( 'NONE',  ( 0.0000000000000000000, 1.000000000000000000, 0.0000000000000000000 ) ) ;
#141 = CIRCLE ( 'NONE', #56, 4.999999999999994671 ) ;
#142 = AXIS2_PLACEMENT_3D ( 'NONE', #207, #95, #119 ) ;
#143 = LOCAL_TIME ( 16, 2, 28.00000000000000000, #101 ) ;
#144 = DIRECTION ( 'NONE',  ( 4.275831445896959482E-31, 1.000000000000000000, 1.224646799147353207E-16 ) ) ;
#145 = CARTESIAN_POINT ( 'NONE',  ( 5.000000000000000888, 0.0000000000000000000, 0.1999999999999825528 ) ) ;
#146 = VERTEX_POINT ( 'NONE', #145 ) ;
#147 = AXIS2_PLACEMENT_3D ( 'NONE', #183, #77, #144 ) ;
#148 = DIRECTION ( 'NONE',  ( -3.491481338843133355E-15, 1.224646799147353207E-16, -1.000000000000000000 ) ) ;
#149 = APPROVAL_ROLE ( '' ) ;
#150 = ORIENTED_EDGE ( 'NONE', *, *, #40, .F. ) ;
#151 = PERSON_AND_ORGANIZATION_ROLE ( 'design_supplier' ) ;
#152 = APPLICATION_PROTOCOL_DEFINITION ( 'international standard', 'config_control_design', 1994, #41 ) ;
#153 = EDGE_LOOP ( 'NONE', ( #150 ) ) ;
#154 = SHAPE_DEFINITION_REPRESENTATION ( #22, #18 ) ;
#155 = CC_DESIGN_SECURITY_CLASSIFICATION ( #39, ( #24 ) ) ;
#156 = EDGE_LOOP ( 'NONE', ( #31 ) ) ;
#157 = PERSON_AND_ORGANIZATION ( #195, #115 ) ;
#158 = CALENDAR_DATE ( 2021, 5, 11 ) ;
#159 = CC_DESIGN_APPROVAL ( #57, ( #39 ) ) ;
#160 = DIRECTION ( 'NONE',  ( -3.491481338843133355E-15, 1.224646799147353207E-16, -1.000000000000000000 ) ) ;
#161 = AXIS2_PLACEMENT_3D ( 'NONE', #46, #79, #92 ) ;
#162 = LOCAL_TIME ( 16, 2, 28.00000000000000000, #32 ) ;
#163 = CC_DESIGN_PERSON_AND_ORGANIZATION_ASSIGNMENT ( #193, #170, ( #39 ) ) ;
#164 = DIRECTION ( 'NONE',  ( -3.491481338843133355E-15, 1.224646799147353207E-16, -1.000000000000000000 ) ) ;
#165 = DIRECTION ( 'NONE',  ( -3.491481338843133355E-15, 1.224646799147353207E-16, -1.000000000000000000 ) ) ;
#166 = PRODUCT_DEFINITION ( 'UNKNOWN', '', #24, #10 ) ;
#167 = VERTEX_POINT ( 'NONE', #9 ) ;
#168 = CYLINDRICAL_SURFACE ( 'NONE', #147, 4.999999999999997335 ) ;
#169 = CARTESIAN_POINT ( 'NONE',  ( 7.681258945454893382E-14, -2.694222958124176809E-15, 22.00000000000000000 ) ) ;
#170 = PERSON_AND_ORGANIZATION_ROLE ( 'classification_officer' ) ;
#171 = DIRECTION ( 'NONE',  ( 1.000000000000000000, 0.0000000000000000000, 0.0000000000000000000 ) ) ;
#172 = SECURITY_CLASSIFICATION_LEVEL ( 'unclassified' ) ;
#173 = PERSON_AND_ORGANIZATION_ROLE ( 'design_owner' ) ;
#174 = ORIENTED_EDGE ( 'NONE', *, *, #21, .F. ) ;
#175 = LOCAL_TIME ( 16, 2, 28.00000000000000000, #88 ) ;
#176 = EDGE_LOOP ( 'NONE', ( #174 ) ) ;
#177 = ADVANCED_FACE ( 'NONE', ( #5, #179 ), #168, .T. ) ;
#178 = CC_DESIGN_DATE_AND_TIME_ASSIGNMENT ( #55, #103, ( #39 ) ) ;
#179 = FACE_OUTER_BOUND ( 'NONE', #82, .T. ) ;
#180 = DIRECTION ( 'NONE',  ( 0.0000000000000000000, 1.000000000000000000, 0.0000000000000000000 ) ) ;
#181 = VERTEX_POINT ( 'NONE', #80 ) ;
#182 = CONICAL_SURFACE ( 'NONE', #194, 5.000000000000000000, 0.7853981633974430610 ) ;
#183 = CARTESIAN_POINT ( 'NONE',  ( 0.0000000000000000000, 0.0000000000000000000, 0.0000000000000000000 ) ) ;
#184 = CARTESIAN_POINT ( 'NONE',  ( 2.426579530495977493E-13, -8.511295254074105418E-15, 69.50000000000000000 ) ) ;
#185 = APPLICATION_PROTOCOL_DEFINITION ( 'international standard', 'config_control_design', 1994, #96 ) ;
#186 = EDGE_LOOP ( 'NONE', ( #192 ) ) ;
#187 = PERSON_AND_ORGANIZATION ( #195, #115 ) ;
#188 = LOCAL_TIME ( 16, 2, 28.00000000000000000, #190 ) ;
#189 = EDGE_LOOP ( 'NONE', ( #201 ) ) ;
#190 = COORDINATED_UNIVERSAL_TIME_OFFSET ( 1, 0, .AHEAD. ) ;
#191 = EDGE_LOOP ( 'NONE', ( #100 ) ) ;
#192 = ORIENTED_EDGE ( 'NONE', *, *, #130, .F. ) ;
#193 = PERSON_AND_ORGANIZATION ( #195, #115 ) ;
#194 = AXIS2_PLACEMENT_3D ( 'NONE', #61, #109, #4 ) ;
#195 = PERSON ( 'UNSPECIFIED', 'UNSPECIFIED', 'UNSPECIFIED', ('UNSPECIFIED'), ('UNSPECIFIED'), ('UNSPECIFIED') ) ;
#196 = AXIS2_PLACEMENT_3D ( 'NONE', #60, #165, #216 ) ;
#197 = AXIS2_PLACEMENT_3D ( 'NONE', #169, #44, #140 ) ;
#198 = FACE_OUTER_BOUND ( 'NONE', #221, .T. ) ;
#199 = AXIS2_PLACEMENT_3D ( 'NONE', #71, #132, #52 ) ;
#200 = APPROVAL_PERSON_ORGANIZATION ( #14, #57, #73 ) ;
#201 = ORIENTED_EDGE ( 'NONE', *, *, #25, .F. ) ;
#202 = DIRECTION ( 'NONE',  ( 0.0000000000000000000, 0.0000000000000000000, 1.000000000000000000 ) ) ;
#203 = ORIENTED_EDGE ( 'NONE', *, *, #130, .T. ) ;
#204 = APPROVAL_DATE_TIME ( #206, #57 ) ;
#205 = CIRCLE ( 'NONE', #17, 4.800000000000002487 ) ;
#206 = DATE_AND_TIME ( #87, #143 ) ;
#207 = CARTESIAN_POINT ( 'NONE',  ( 7.681258945454893382E-14, 3.749399456654636904E-32, 22.00000000000000000 ) ) ;
#208 = PERSON_AND_ORGANIZATION ( #195, #115 ) ;
#209 = APPROVAL_STATUS ( 'not_yet_approved' ) ;
#210 = DIRECTION ( 'NONE',  ( 1.000000000000000000, 0.0000000000000000000, -3.491481338843132961E-15 ) ) ;
#211 = ADVANCED_FACE ( 'NONE', ( #198 ), #110, .T. ) ;
#212 =( NAMED_UNIT ( * ) SI_UNIT ( $, .STERADIAN. ) SOLID_ANGLE_UNIT ( ) );
#213 = AXIS2_PLACEMENT_3D ( 'NONE', #58, #160, #37 ) ;
#214 = APPROVAL_PERSON_ORGANIZATION ( #187, #106, #104 ) ;
#215 = FACE_BOUND ( 'NONE', #13, .T. ) ;
#216 = DIRECTION ( 'NONE',  ( 4.275831445896958607E-31, 1.000000000000000000, 1.224646799147353207E-16 ) ) ;
#217 = CARTESIAN_POINT ( 'NONE',  ( 2.426579530495977493E-13, 4.999999999999992006, 69.50000000000000000 ) ) ;
#218 = FACE_OUTER_BOUND ( 'NONE', #186, .T. ) ;
#219 = MECHANICAL_CONTEXT ( 'NONE', #96, 'mechanical' ) ;
#220 = ORIENTED_EDGE ( 'NONE', *, *, #108, .T. ) ;
#221 = EDGE_LOOP ( 'NONE', ( #33 ) ) ;
#222 = PLANE ( 'NONE',  #199 ) ;
#223 = ADVANCED_FACE ( 'NONE', ( #215, #27 ), #182, .T. ) ;
ENDSEC;
END-ISO-10303-21;
