ISO-10303-21;
HEADER;
FILE_DESCRIPTION (( 'STEP AP203' ),
    '1' );
FILE_NAME ('966312.step',
    '2021-11-26T14:47:32',
    ( '' ),
    ( '' ),
    'SwSTEP 2.0',
    'SolidWorks 2019',
    '' );
FILE_SCHEMA (( 'CONFIG_CONTROL_DESIGN' ));
ENDSEC;

DATA;
#1 = CARTESIAN_POINT ( 'NONE',  ( 4.564794705536905861E-14, 1.499999999999995559, 13.07409166061704830 ) ) ;
#2 = FACE_OUTER_BOUND ( 'NONE', #32, .T. ) ;
#3 = PRODUCT_DEFINITION_FORMATION_WITH_SPECIFIED_SOURCE ( 'ANY', '', #230, .NOT_KNOWN. ) ;
#4 = VERTEX_POINT ( 'NONE', #269 ) ;
#5 = EDGE_LOOP ( 'NONE', ( #245 ) ) ;
#6 = EDGE_CURVE ( 'NONE', #110, #110, #133, .T. ) ;
#7 = EDGE_CURVE ( 'NONE', #189, #189, #191, .T. ) ;
#8 = AXIS2_PLACEMENT_3D ( 'NONE', #35, #86, #261 ) ;
#9 = ORIENTED_EDGE ( 'NONE', *, *, #6, .T. ) ;
#10 = EDGE_LOOP ( 'NONE', ( #102 ) ) ;
#11 = CALENDAR_DATE ( 2021, 26, 11 ) ;
#12 = DIRECTION ( 'NONE',  ( -3.491481338843133355E-15, 1.224646799147352961E-16, -1.000000000000000000 ) ) ;
#13 = CC_DESIGN_APPROVAL ( #225, ( #127 ) ) ;
#14 = COORDINATED_UNIVERSAL_TIME_OFFSET ( 1, 0, .AHEAD. ) ;
#15 = CARTESIAN_POINT ( 'NONE',  ( 4.564794705536905861E-14, -1.601114450393376816E-15, 13.07409166061704830 ) ) ;
#16 = PERSON_AND_ORGANIZATION_ROLE ( 'classification_officer' ) ;
#17 = CARTESIAN_POINT ( 'NONE',  ( 1.326762908760390423E-13, -4.653657836759941152E-15, 38.00000000000000000 ) ) ;
#18 = PLANE ( 'NONE',  #8 ) ;
#19 = AXIS2_PLACEMENT_3D ( 'NONE', #81, #243, #41 ) ;
#20 = ORIENTED_EDGE ( 'NONE', *, *, #7, .F. ) ;
#21 = CARTESIAN_POINT ( 'NONE',  ( 1.316288464743861212E-13, 1.499999999999998668, 37.69999999999999574 ) ) ;
#22 = DIRECTION ( 'NONE',  ( 4.275831445896957731E-31, 1.000000000000000000, 1.224646799147352961E-16 ) ) ;
#23 = PERSON_AND_ORGANIZATION ( #59, #55 ) ;
#24 = PERSON_AND_ORGANIZATION ( #59, #55 ) ;
#25 = ADVANCED_FACE ( 'NONE', ( #195, #257 ), #252, .T. ) ;
#26 = AXIS2_PLACEMENT_3D ( 'NONE', #181, #46, #247 ) ;
#27 = EDGE_CURVE ( 'NONE', #70, #70, #145, .T. ) ;
#28 = ADVANCED_FACE ( 'NONE', ( #276, #106 ), #93, .T. ) ;
#29 = ORIENTED_EDGE ( 'NONE', *, *, #265, .T. ) ;
#30 = EDGE_LOOP ( 'NONE', ( #270 ) ) ;
#31 =( GEOMETRIC_REPRESENTATION_CONTEXT ( 3 ) GLOBAL_UNCERTAINTY_ASSIGNED_CONTEXT ( ( #174 ) ) GLOBAL_UNIT_ASSIGNED_CONTEXT ( ( #203, #234, #165 ) ) REPRESENTATION_CONTEXT ( 'NONE', 'WORKASPACE' ) );
#32 = EDGE_LOOP ( 'NONE', ( #176 ) ) ;
#33 = DIRECTION ( 'NONE',  ( 0.0000000000000000000, 1.000000000000000000, 0.0000000000000000000 ) ) ;
#34 = AXIS2_PLACEMENT_3D ( 'NONE', #283, #268, #206 ) ;
#35 = CARTESIAN_POINT ( 'NONE',  ( 1.396592535537253342E-14, 2.125909491923171445E-33, 4.000000000000000000 ) ) ;
#36 = PERSON_AND_ORGANIZATION ( #59, #55 ) ;
#37 = DIRECTION ( 'NONE',  ( 5.095052762929211945E-31, 1.000000000000000000, 1.434129857785063438E-16 ) ) ;
#38 = PERSON_AND_ORGANIZATION ( #59, #55 ) ;
#39 = EDGE_CURVE ( 'NONE', #251, #251, #277, .T. ) ;
#40 = EDGE_LOOP ( 'NONE', ( #29 ) ) ;
#41 = DIRECTION ( 'NONE',  ( 0.0000000000000000000, 1.000000000000000000, 0.0000000000000000000 ) ) ;
#42 = AXIS2_PLACEMENT_3D ( 'NONE', #17, #103, #33 ) ;
#43 = DIRECTION ( 'NONE',  ( 4.275831445896957731E-31, 1.000000000000000000, 1.224646799147353207E-16 ) ) ;
#44 = VERTEX_POINT ( 'NONE', #138 ) ;
#45 = CYLINDRICAL_SURFACE ( 'NONE', #76, 0.2834999999999996967 ) ;
#46 = DIRECTION ( 'NONE',  ( 3.491481338843133355E-15, -1.224646799147352961E-16, 1.000000000000000000 ) ) ;
#47 = VERTEX_POINT ( 'NONE', #113 ) ;
#48 = EDGE_CURVE ( 'NONE', #107, #107, #126, .T. ) ;
#49 = FACE_BOUND ( 'NONE', #146, .T. ) ;
#50 = CC_DESIGN_PERSON_AND_ORGANIZATION_ASSIGNMENT ( #36, #104, ( #3 ) ) ;
#51 = EDGE_LOOP ( 'NONE', ( #9 ) ) ;
#52 = LOCAL_TIME ( 15, 47, 32.00000000000000000, #169 ) ;
#53 = ORIENTED_EDGE ( 'NONE', *, *, #262, .T. ) ;
#54 = PERSON_AND_ORGANIZATION_ROLE ( 'creator' ) ;
#55 = ORGANIZATION ( 'UNSPECIFIED', 'UNSPECIFIED', '' ) ;
#56 = ORIENTED_EDGE ( 'NONE', *, *, #48, .F. ) ;
#57 = PERSON_AND_ORGANIZATION ( #59, #55 ) ;
#58 = CARTESIAN_POINT ( 'NONE',  ( 1.396592535537253342E-14, 2.125909491923171445E-33, 4.000000000000000000 ) ) ;
#59 = PERSON ( 'UNSPECIFIED', 'UNSPECIFIED', 'UNSPECIFIED', ('UNSPECIFIED'), ('UNSPECIFIED'), ('UNSPECIFIED') ) ;
#60 = DESIGN_CONTEXT ( 'detailed design', #158, 'design' ) ;
#61 = CARTESIAN_POINT ( 'NONE',  ( 1.326762908760390423E-13, 8.998558695971099120E-33, 38.00000000000000000 ) ) ;
#62 = SECURITY_CLASSIFICATION_LEVEL ( 'unclassified' ) ;
#63 = CIRCLE ( 'NONE', #42, 1.200000000000003286 ) ;
#64 = DIRECTION ( 'NONE',  ( -3.491481338843133355E-15, 1.224646799147352961E-16, -1.000000000000000000 ) ) ;
#65 = FACE_OUTER_BOUND ( 'NONE', #83, .T. ) ;
#66 = PLANE ( 'NONE',  #223 ) ;
#67 = PLANE ( 'NONE',  #26 ) ;
#68 = AXIS2_PLACEMENT_3D ( 'NONE', #273, #175, #201 ) ;
#69 = DIRECTION ( 'NONE',  ( -3.491481338843133355E-15, 1.224646799147352961E-16, -1.000000000000000000 ) ) ;
#70 = VERTEX_POINT ( 'NONE', #227 ) ;
#71 = APPLICATION_CONTEXT ( 'configuration controlled 3d designs of mechanical parts and assemblies' ) ;
#72 = CARTESIAN_POINT ( 'NONE',  ( 0.0000000000000000000, 0.0000000000000000000, 0.0000000000000000000 ) ) ;
#73 = AXIS2_PLACEMENT_3D ( 'NONE', #160, #136, #90 ) ;
#74 = COORDINATED_UNIVERSAL_TIME_OFFSET ( 1, 0, .AHEAD. ) ;
#75 = PERSON_AND_ORGANIZATION ( #59, #55 ) ;
#76 = AXIS2_PLACEMENT_3D ( 'NONE', #88, #69, #87 ) ;
#77 = CC_DESIGN_DATE_AND_TIME_ASSIGNMENT ( #274, #84, ( #218 ) ) ;
#78 = DATE_AND_TIME ( #221, #168 ) ;
#79 = AXIS2_PLACEMENT_3D ( 'NONE', #137, #205, #266 ) ;
#80 = DIRECTION ( 'NONE',  ( 4.275831445896957731E-31, 1.000000000000000000, 1.224646799147352961E-16 ) ) ;
#81 = CARTESIAN_POINT ( 'NONE',  ( 1.316288464743861212E-13, -4.616918432785520292E-15, 37.69999999999999574 ) ) ;
#82 = ADVANCED_FACE ( 'NONE', ( #129 ), #66, .F. ) ;
#83 = EDGE_LOOP ( 'NONE', ( #275 ) ) ;
#84 = DATE_TIME_ROLE ( 'classification_date' ) ;
#85 = DIRECTION ( 'NONE',  ( -3.491481338843133355E-15, 1.224646799147352961E-16, -1.000000000000000000 ) ) ;
#86 = DIRECTION ( 'NONE',  ( 3.491481338843133355E-15, -1.224646799147352961E-16, 1.000000000000000000 ) ) ;
#87 = DIRECTION ( 'NONE',  ( 4.275831445896957731E-31, 1.000000000000000000, 1.224646799147352961E-16 ) ) ;
#88 = CARTESIAN_POINT ( 'NONE',  ( 0.0000000000000000000, 0.0000000000000000000, 0.0000000000000000000 ) ) ;
#89 = LOCAL_TIME ( 15, 47, 32.00000000000000000, #152 ) ;
#90 = DIRECTION ( 'NONE',  ( 0.0000000000000000000, 1.000000000000000000, 0.0000000000000000000 ) ) ;
#91 = CARTESIAN_POINT ( 'NONE',  ( 0.0000000000000000000, 0.0000000000000000000, 0.0000000000000000000 ) ) ;
#92 = DATE_AND_TIME ( #232, #209 ) ;
#93 = CONICAL_SURFACE ( 'NONE', #68, 0.2834999999999990861, 0.5235987755982920433 ) ;
#94 = DIRECTION ( 'NONE',  ( -3.491481338843133355E-15, 1.224646799147352961E-16, -1.000000000000000000 ) ) ;
#95 = EDGE_LOOP ( 'NONE', ( #213 ) ) ;
#96 = APPROVAL ( #236, 'UNSPECIFIED' ) ;
#97 = APPROVAL_ROLE ( '' ) ;
#98 = AXIS2_PLACEMENT_3D ( 'NONE', #149, #12, #37 ) ;
#99 = CIRCLE ( 'NONE', #73, 0.2834999999999995302 ) ;
#100 = FACE_OUTER_BOUND ( 'NONE', #259, .T. ) ;
#101 = EDGE_CURVE ( 'NONE', #4, #4, #63, .T. ) ;
#102 = ORIENTED_EDGE ( 'NONE', *, *, #265, .F. ) ;
#103 = DIRECTION ( 'NONE',  ( -3.491481338843133355E-15, 1.224646799147352961E-16, -1.000000000000000000 ) ) ;
#104 = PERSON_AND_ORGANIZATION_ROLE ( 'creator' ) ;
#105 = CARTESIAN_POINT ( 'NONE',  ( 2.094888803305880013E-14, -8.673617379884035472E-16, 6.000000000000000000 ) ) ;
#106 = FACE_OUTER_BOUND ( 'NONE', #30, .T. ) ;
#107 = VERTEX_POINT ( 'NONE', #267 ) ;
#108 = FACE_OUTER_BOUND ( 'NONE', #271, .T. ) ;
#109 = ADVANCED_FACE ( 'NONE', ( #65, #153 ), #150, .F. ) ;
#110 = VERTEX_POINT ( 'NONE', #228 ) ;
#111 = CC_DESIGN_PERSON_AND_ORGANIZATION_ASSIGNMENT ( #57, #147, ( #3 ) ) ;
#112 = COORDINATED_UNIVERSAL_TIME_OFFSET ( 1, 0, .AHEAD. ) ;
#113 = CARTESIAN_POINT ( 'NONE',  ( -9.463679131915806782E-32, 0.2257649730810374067, -2.710505431213761085E-17 ) ) ;
#114 = LOCAL_TIME ( 15, 47, 32.00000000000000000, #74 ) ;
#115 = APPROVAL_STATUS ( 'not_yet_approved' ) ;
#116 = DATE_AND_TIME ( #164, #52 ) ;
#117 = ORIENTED_EDGE ( 'NONE', *, *, #6, .F. ) ;
#118 = ADVANCED_FACE ( 'NONE', ( #172 ), #18, .F. ) ;
#119 = AXIS2_PLACEMENT_3D ( 'NONE', #220, #222, #258 ) ;
#120 = CC_DESIGN_SECURITY_CLASSIFICATION ( #218, ( #3 ) ) ;
#121 = ORIENTED_EDGE ( 'NONE', *, *, #39, .F. ) ;
#122 = DATE_AND_TIME ( #173, #114 ) ;
#123 = ORIENTED_EDGE ( 'NONE', *, *, #27, .F. ) ;
#124 = ADVANCED_FACE ( 'NONE', ( #154 ), #134, .T. ) ;
#125 = DIRECTION ( 'NONE',  ( 3.491481338843133355E-15, -1.224646799147352961E-16, 1.000000000000000000 ) ) ;
#126 = CIRCLE ( 'NONE', #98, 0.2834999999999990861 ) ;
#127 = PRODUCT_DEFINITION ( 'UNKNOWN', '', #3, #60 ) ;
#128 = FACE_OUTER_BOUND ( 'NONE', #95, .T. ) ;
#129 = FACE_OUTER_BOUND ( 'NONE', #148, .T. ) ;
#130 = APPROVAL_ROLE ( '' ) ;
#131 = DIRECTION ( 'NONE',  ( 0.0000000000000000000, 1.000000000000000000, 0.0000000000000000000 ) ) ;
#132 = ADVANCED_FACE ( 'NONE', ( #100, #128 ), #183, .T. ) ;
#133 = CIRCLE ( 'NONE', #214, 0.2834999999999995302 ) ;
#134 = PLANE ( 'NONE',  #199 ) ;
#135 = PRODUCT_DEFINITION_SHAPE ( 'NONE', 'NONE',  #127 ) ;
#136 = DIRECTION ( 'NONE',  ( -3.491481338843133355E-15, 1.224646799147352961E-16, -1.000000000000000000 ) ) ;
#137 = CARTESIAN_POINT ( 'NONE',  ( 4.564794705536905861E-14, -1.601114450393376816E-15, 13.07409166061704830 ) ) ;
#138 = CARTESIAN_POINT ( 'NONE',  ( 2.094888803305880013E-14, 0.2834999999999990306, 6.000000000000000000 ) ) ;
#139 = DIRECTION ( 'NONE',  ( -3.491481338843133355E-15, 1.224646799147352961E-16, -1.000000000000000000 ) ) ;
#140 = APPROVAL ( #193, 'UNSPECIFIED' ) ;
#141 = CIRCLE ( 'NONE', #34, 0.2834999999999998077 ) ;
#142 = ORIENTED_EDGE ( 'NONE', *, *, #101, .T. ) ;
#143 = DATE_TIME_ROLE ( 'creation_date' ) ;
#144 = EDGE_LOOP ( 'NONE', ( #121 ) ) ;
#145 = CIRCLE ( 'NONE', #119, 0.3138844939755812136 ) ;
#146 = EDGE_LOOP ( 'NONE', ( #123 ) ) ;
#147 = PERSON_AND_ORGANIZATION_ROLE ( 'design_supplier' ) ;
#148 = EDGE_LOOP ( 'NONE', ( #178 ) ) ;
#149 = CARTESIAN_POINT ( 'NONE',  ( 3.491481338843132862E-16, -1.224646799147352653E-17, 0.09999999999999997780 ) ) ;
#150 = TOROIDAL_SURFACE ( 'NONE', #155, 2.283500000000000085, 2.000000000000000000 ) ;
#151 = CARTESIAN_POINT ( 'NONE',  ( 1.326762908760390423E-13, -4.653657836759941152E-15, 38.00000000000000000 ) ) ;
#152 = COORDINATED_UNIVERSAL_TIME_OFFSET ( 1, 0, .AHEAD. ) ;
#153 = FACE_OUTER_BOUND ( 'NONE', #166, .T. ) ;
#154 = FACE_OUTER_BOUND ( 'NONE', #255, .T. ) ;
#155 = AXIS2_PLACEMENT_3D ( 'NONE', #105, #200, #278 ) ;
#156 = CARTESIAN_POINT ( 'NONE',  ( 0.0000000000000000000, 0.0000000000000000000, 0.0000000000000000000 ) ) ;
#157 = MANIFOLD_SOLID_BREP ( 'Corps-Déplacer/Copier1[1]', #254 ) ;
#158 = APPLICATION_CONTEXT ( 'configuration controlled 3d designs of mechanical parts and assemblies' ) ;
#159 = ADVANCED_FACE ( 'NONE', ( #202 ), #67, .F. ) ;
#160 = CARTESIAN_POINT ( 'NONE',  ( 1.396592535537253342E-14, -4.898587196589411843E-16, 4.000000000000000000 ) ) ;
#161 = CYLINDRICAL_SURFACE ( 'NONE', #194, 0.2834999999999993081 ) ;
#162 = AXIS2_PLACEMENT_3D ( 'NONE', #156, #250, #43 ) ;
#163 = CARTESIAN_POINT ( 'NONE',  ( 1.396592535537253342E-14, 0.2834999999999990306, 4.000000000000000000 ) ) ;
#164 = CALENDAR_DATE ( 2021, 26, 11 ) ;
#165 =( NAMED_UNIT ( * ) SI_UNIT ( $, .STERADIAN. ) SOLID_ANGLE_UNIT ( ) );
#166 = EDGE_LOOP ( 'NONE', ( #167 ) ) ;
#167 = ORIENTED_EDGE ( 'NONE', *, *, #27, .T. ) ;
#168 = LOCAL_TIME ( 15, 47, 32.00000000000000000, #14 ) ;
#169 = COORDINATED_UNIVERSAL_TIME_OFFSET ( 1, 0, .AHEAD. ) ;
#170 = PERSON_AND_ORGANIZATION ( #59, #55 ) ;
#171 = AXIS2_PLACEMENT_3D ( 'NONE', #15, #196, #239 ) ;
#172 = FACE_OUTER_BOUND ( 'NONE', #5, .T. ) ;
#173 = CALENDAR_DATE ( 2021, 26, 11 ) ;
#174 = UNCERTAINTY_MEASURE_WITH_UNIT (LENGTH_MEASURE( 1.000000000000000082E-05 ), #203, 'distance_accuracy_value', 'NONE');
#175 = DIRECTION ( 'NONE',  ( 3.491481338843133355E-15, -1.224646799147352961E-16, 1.000000000000000000 ) ) ;
#176 = ORIENTED_EDGE ( 'NONE', *, *, #7, .T. ) ;
#177 = CIRCLE ( 'NONE', #260, 0.2257649730810374067 ) ;
#178 = ORIENTED_EDGE ( 'NONE', *, *, #101, .F. ) ;
#179 = CC_DESIGN_APPROVAL ( #96, ( #3 ) ) ;
#180 = ADVANCED_BREP_SHAPE_REPRESENTATION ( '966312', ( #157, #253, #186 ), #31 ) ;
#181 = CARTESIAN_POINT ( 'NONE',  ( -9.558504422367803200E-32, 3.352672035007107583E-33, -2.737664473823284124E-17 ) ) ;
#182 = MECHANICAL_CONTEXT ( 'NONE', #71, 'mechanical' ) ;
#183 = CYLINDRICAL_SURFACE ( 'NONE', #162, 1.500000000000000000 ) ;
#184 = FACE_OUTER_BOUND ( 'NONE', #51, .T. ) ;
#185 = DIRECTION ( 'NONE',  ( 0.0000000000000000000, 0.0000000000000000000, 1.000000000000000000 ) ) ;
#186 = AXIS2_PLACEMENT_3D ( 'NONE', #91, #185, #210 ) ;
#187 = DIRECTION ( 'NONE',  ( 4.275831445896957731E-31, 1.000000000000000000, 1.224646799147352961E-16 ) ) ;
#188 = APPROVAL_ROLE ( '' ) ;
#189 = VERTEX_POINT ( 'NONE', #1 ) ;
#190 = ADVANCED_FACE ( 'NONE', ( #264, #279 ), #45, .T. ) ;
#191 = CIRCLE ( 'NONE', #171, 1.499999999999996891 ) ;
#192 = PRODUCT_RELATED_PRODUCT_CATEGORY ( 'detail', '', ( #230 ) ) ;
#193 = APPROVAL_STATUS ( 'not_yet_approved' ) ;
#194 = AXIS2_PLACEMENT_3D ( 'NONE', #72, #94, #22 ) ;
#195 = FACE_OUTER_BOUND ( 'NONE', #144, .T. ) ;
#196 = DIRECTION ( 'NONE',  ( -3.491481338843133355E-15, 1.224646799147352961E-16, -1.000000000000000000 ) ) ;
#197 = CC_DESIGN_PERSON_AND_ORGANIZATION_ASSIGNMENT ( #23, #207, ( #230 ) ) ;
#198 = EDGE_LOOP ( 'NONE', ( #53 ) ) ;
#199 = AXIS2_PLACEMENT_3D ( 'NONE', #58, #125, #217 ) ;
#200 = DIRECTION ( 'NONE',  ( -3.491481338843133355E-15, 1.224646799147352961E-16, -1.000000000000000000 ) ) ;
#201 = DIRECTION ( 'NONE',  ( -5.095052762929211945E-31, -1.000000000000000000, -1.434129857785063438E-16 ) ) ;
#202 = FACE_OUTER_BOUND ( 'NONE', #40, .T. ) ;
#203 =( LENGTH_UNIT ( ) NAMED_UNIT ( * ) SI_UNIT ( .MILLI., .METRE. ) );
#204 = CC_DESIGN_APPROVAL ( #140, ( #218 ) ) ;
#205 = DIRECTION ( 'NONE',  ( 3.491481338843133355E-15, -1.224646799147352961E-16, 1.000000000000000000 ) ) ;
#206 = DIRECTION ( 'NONE',  ( 0.0000000000000000000, 1.000000000000000000, 0.0000000000000000000 ) ) ;
#207 = PERSON_AND_ORGANIZATION_ROLE ( 'design_owner' ) ;
#208 = CC_DESIGN_DATE_AND_TIME_ASSIGNMENT ( #92, #143, ( #127 ) ) ;
#209 = LOCAL_TIME ( 15, 47, 32.00000000000000000, #112 ) ;
#210 = DIRECTION ( 'NONE',  ( 1.000000000000000000, 0.0000000000000000000, 0.0000000000000000000 ) ) ;
#211 = APPLICATION_PROTOCOL_DEFINITION ( 'international standard', 'config_control_design', 1994, #158 ) ;
#212 = APPROVAL_DATE_TIME ( #116, #225 ) ;
#213 = ORIENTED_EDGE ( 'NONE', *, *, #39, .T. ) ;
#214 = AXIS2_PLACEMENT_3D ( 'NONE', #224, #242, #219 ) ;
#215 = CC_DESIGN_PERSON_AND_ORGANIZATION_ASSIGNMENT ( #238, #16, ( #218 ) ) ;
#216 = ORIENTED_EDGE ( 'NONE', *, *, #237, .F. ) ;
#217 = DIRECTION ( 'NONE',  ( -4.275831445896957731E-31, -1.000000000000000000, -1.224646799147352961E-16 ) ) ;
#218 = SECURITY_CLASSIFICATION ( '', '', #62 ) ;
#219 = DIRECTION ( 'NONE',  ( 0.0000000000000000000, 1.000000000000000000, 0.0000000000000000000 ) ) ;
#220 = CARTESIAN_POINT ( 'NONE',  ( 2.216146677675516400E-14, -7.773196164799256863E-16, 6.347296355333847728 ) ) ;
#221 = CALENDAR_DATE ( 2021, 26, 11 ) ;
#222 = DIRECTION ( 'NONE',  ( -3.491481338843133355E-15, 1.224646799147352961E-16, -1.000000000000000000 ) ) ;
#223 = AXIS2_PLACEMENT_3D ( 'NONE', #61, #85, #80 ) ;
#224 = CARTESIAN_POINT ( 'NONE',  ( 1.396592535537253342E-14, -4.898587196589411843E-16, 4.000000000000000000 ) ) ;
#225 = APPROVAL ( #115, 'UNSPECIFIED' ) ;
#226 = APPROVAL_DATE_TIME ( #78, #140 ) ;
#227 = CARTESIAN_POINT ( 'NONE',  ( 2.216146677675516400E-14, 0.3138844939755804364, 6.347296355333847728 ) ) ;
#228 = CARTESIAN_POINT ( 'NONE',  ( 1.396592535537253342E-14, 0.2834999999999990306, 4.000000000000000000 ) ) ;
#229 = AXIS2_PLACEMENT_3D ( 'NONE', #151, #64, #131 ) ;
#230 = PRODUCT ( '966312', '966312', '', ( #182 ) ) ;
#231 = CARTESIAN_POINT ( 'NONE',  ( -1.911700884473560640E-31, 6.705344070014215167E-33, -5.475328947646568247E-17 ) ) ;
#232 = CALENDAR_DATE ( 2021, 26, 11 ) ;
#233 = CC_DESIGN_PERSON_AND_ORGANIZATION_ASSIGNMENT ( #170, #54, ( #127 ) ) ;
#234 =( NAMED_UNIT ( * ) PLANE_ANGLE_UNIT ( ) SI_UNIT ( $, .RADIAN. ) );
#235 = EDGE_LOOP ( 'NONE', ( #142 ) ) ;
#236 = APPROVAL_STATUS ( 'not_yet_approved' ) ;
#237 = EDGE_CURVE ( 'NONE', #248, #248, #99, .T. ) ;
#238 = PERSON_AND_ORGANIZATION ( #59, #55 ) ;
#239 = DIRECTION ( 'NONE',  ( 0.0000000000000000000, 1.000000000000000000, 0.0000000000000000000 ) ) ;
#240 = APPROVAL_DATE_TIME ( #122, #96 ) ;
#241 = ADVANCED_FACE ( 'NONE', ( #108, #184 ), #161, .T. ) ;
#242 = DIRECTION ( 'NONE',  ( -3.491481338843133355E-15, 1.224646799147352961E-16, -1.000000000000000000 ) ) ;
#243 = DIRECTION ( 'NONE',  ( -3.491481338843133355E-15, 1.224646799147352961E-16, -1.000000000000000000 ) ) ;
#244 = EDGE_LOOP ( 'NONE', ( #216 ) ) ;
#245 = ORIENTED_EDGE ( 'NONE', *, *, #237, .T. ) ;
#246 = APPROVAL_PERSON_ORGANIZATION ( #24, #96, #188 ) ;
#247 = DIRECTION ( 'NONE',  ( -4.275831445896957731E-31, -1.000000000000000000, -1.224646799147352961E-16 ) ) ;
#248 = VERTEX_POINT ( 'NONE', #163 ) ;
#249 = ADVANCED_FACE ( 'NONE', ( #49, #2 ), #263, .T. ) ;
#250 = DIRECTION ( 'NONE',  ( -3.491481338843133355E-15, 1.224646799147352961E-16, -1.000000000000000000 ) ) ;
#251 = VERTEX_POINT ( 'NONE', #21 ) ;
#252 = CONICAL_SURFACE ( 'NONE', #229, 1.200000000000003286, 0.7853981633974453924 ) ;
#253 = MANIFOLD_SOLID_BREP ( 'Corps-Déplacer/Copier1[2]', #272 ) ;
#254 = CLOSED_SHELL ( 'NONE', ( #118, #190, #109, #249, #132, #25, #82 ) ) ;
#255 = EDGE_LOOP ( 'NONE', ( #117 ) ) ;
#256 = APPROVAL_PERSON_ORGANIZATION ( #75, #225, #97 ) ;
#257 = FACE_BOUND ( 'NONE', #235, .T. ) ;
#258 = DIRECTION ( 'NONE',  ( 0.0000000000000000000, 1.000000000000000000, 0.0000000000000000000 ) ) ;
#259 = EDGE_LOOP ( 'NONE', ( #20 ) ) ;
#260 = AXIS2_PLACEMENT_3D ( 'NONE', #231, #139, #187 ) ;
#261 = DIRECTION ( 'NONE',  ( -4.275831445896957731E-31, -1.000000000000000000, -1.224646799147352961E-16 ) ) ;
#262 = EDGE_CURVE ( 'NONE', #44, #44, #141, .T. ) ;
#263 = CONICAL_SURFACE ( 'NONE', #79, 1.499999999999996891, 0.1745329251994260367 ) ;
#264 = FACE_OUTER_BOUND ( 'NONE', #244, .T. ) ;
#265 = EDGE_CURVE ( 'NONE', #47, #47, #177, .T. ) ;
#266 = DIRECTION ( 'NONE',  ( 0.0000000000000000000, -1.000000000000000000, 0.0000000000000000000 ) ) ;
#267 = CARTESIAN_POINT ( 'NONE',  ( 3.491481338843134341E-16, 0.2834999999999990861, 0.1000000000000000194 ) ) ;
#268 = DIRECTION ( 'NONE',  ( -3.491481338843133355E-15, 1.224646799147352961E-16, -1.000000000000000000 ) ) ;
#269 = CARTESIAN_POINT ( 'NONE',  ( 1.326762908760390423E-13, 1.199999999999998845, 38.00000000000000000 ) ) ;
#270 = ORIENTED_EDGE ( 'NONE', *, *, #48, .T. ) ;
#271 = EDGE_LOOP ( 'NONE', ( #56 ) ) ;
#272 = CLOSED_SHELL ( 'NONE', ( #159, #28, #241, #124 ) ) ;
#273 = CARTESIAN_POINT ( 'NONE',  ( 3.491481338843132862E-16, -1.224646799147352653E-17, 0.09999999999999997780 ) ) ;
#274 = DATE_AND_TIME ( #11, #89 ) ;
#275 = ORIENTED_EDGE ( 'NONE', *, *, #262, .F. ) ;
#276 = FACE_BOUND ( 'NONE', #10, .T. ) ;
#277 = CIRCLE ( 'NONE', #19, 1.500000000000003331 ) ;
#278 = DIRECTION ( 'NONE',  ( 4.399820213975676862E-31, 1.000000000000000000, 1.224646799147352961E-16 ) ) ;
#279 = FACE_OUTER_BOUND ( 'NONE', #198, .T. ) ;
#280 = SHAPE_DEFINITION_REPRESENTATION ( #135, #180 ) ;
#281 = APPLICATION_PROTOCOL_DEFINITION ( 'international standard', 'config_control_design', 1994, #71 ) ;
#282 = APPROVAL_PERSON_ORGANIZATION ( #38, #140, #130 ) ;
#283 = CARTESIAN_POINT ( 'NONE',  ( 2.094888803305880013E-14, -7.347880794884118750E-16, 6.000000000000000000 ) ) ;
ENDSEC;
END-ISO-10303-21;
